  0
SECTION
  2
HEADER
  9
$ACADVER
  1
AC1014
  9
$ACADMAINTVER
 70
     0
  9
$DWGCODEPAGE
  3
ANSI_932
  9
$INSBASE
 10
0.0
 20
0.0
 30
0.0
  9
$EXTMIN
 10
0.0
 20
0.0
 30
0.0
  9
$EXTMAX
 10
450.0
 20
350.0
 30
0.0
  9
$LIMMIN
 10
0.0
 20
0.0
  9
$LIMMAX
 10
450.0
 20
350.0
  9
$ORTHOMODE
 70
     0
  9
$REGENMODE
 70
     1
  9
$FILLMODE
 70
     1
  9
$QTEXTMODE
 70
     0
  9
$MIRRTEXT
 70
     1
  9
$DRAGMODE
 70
     2
  9
$LTSCALE
 40
1.0
  9
$OSMODE
 70
    33
  9
$ATTMODE
 70
     1
  9
$TEXTSIZE
 40
5.0
  9
$TRACEWID
 40
0.05
  9
$TEXTSTYLE
  7
BIGFONT
  9
$CLAYER
  8
0
  9
$CELTYPE
  6
BYLAYER
  9
$CECOLOR
 62
   256
  9
$CELTSCALE
 40
1.0
  9
$DELOBJ
 70
     1
  9
$DISPSILH
 70
     0
  9
$DIMSCALE
 40
1.0
  9
$DIMASZ
 40
0.18
  9
$DIMEXO
 40
0.0625
  9
$DIMDLI
 40
0.38
  9
$DIMRND
 40
0.0
  9
$DIMDLE
 40
0.0
  9
$DIMEXE
 40
0.18
  9
$DIMTP
 40
0.0
  9
$DIMTM
 40
0.0
  9
$DIMTXT
 40
0.18
  9
$DIMCEN
 40
0.09
  9
$DIMTSZ
 40
0.0
  9
$DIMTOL
 70
     0
  9
$DIMLIM
 70
     0
  9
$DIMTIH
 70
     1
  9
$DIMTOH
 70
     1
  9
$DIMSE1
 70
     0
  9
$DIMSE2
 70
     0
  9
$DIMTAD
 70
     0
  9
$DIMZIN
 70
     0
  9
$DIMBLK
  1

  9
$DIMASO
 70
     1
  9
$DIMSHO
 70
     1
  9
$DIMPOST
  1

  9
$DIMAPOST
  1

  9
$DIMALT
 70
     0
  9
$DIMALTD
 70
     2
  9
$DIMALTF
 40
25.4
  9
$DIMLFAC
 40
1.0
  9
$DIMTOFL
 70
     0
  9
$DIMTVP
 40
0.0
  9
$DIMTIX
 70
     0
  9
$DIMSOXD
 70
     0
  9
$DIMSAH
 70
     0
  9
$DIMBLK1
  1

  9
$DIMBLK2
  1

  9
$DIMSTYLE
  2
STANDARD
  9
$DIMCLRD
 70
     0
  9
$DIMCLRE
 70
     0
  9
$DIMCLRT
 70
     0
  9
$DIMTFAC
 40
1.0
  9
$DIMGAP
 40
0.09
  9
$DIMJUST
 70
     0
  9
$DIMSD1
 70
     0
  9
$DIMSD2
 70
     0
  9
$DIMTOLJ
 70
     1
  9
$DIMTZIN
 70
     0
  9
$DIMALTZ
 70
     0
  9
$DIMALTTZ
 70
     0
  9
$DIMFIT
 70
     5
  9
$DIMUPT
 70
     0
  9
$DIMUNIT
 70
     2
  9
$DIMDEC
 70
     4
  9
$DIMTDEC
 70
     4
  9
$DIMALTU
 70
     2
  9
$DIMALTTD
 70
     2
  9
$DIMTXSTY
  7
BIGFONT
  9
$DIMAUNIT
 70
     0
  9
$LUNITS
 70
     2
  9
$LUPREC
 70
     4
  9
$SKETCHINC
 40
0.1
  9
$FILLETRAD
 40
0.0
  9
$AUNITS
 70
     0
  9
$AUPREC
 70
     0
  9
$MENU
  1
acad
  9
$ELEVATION
 40
0.0
  9
$PELEVATION
 40
0.0
  9
$THICKNESS
 40
0.0
  9
$LIMCHECK
 70
     0
  9
$BLIPMODE
 70
     1
  9
$CHAMFERA
 40
0.0
  9
$CHAMFERB
 40
0.0
  9
$CHAMFERC
 40
0.0
  9
$CHAMFERD
 40
0.0
  9
$SKPOLY
 70
     0
  9
$TDCREATE
 40
2450683.570532407
  9
$TDUPDATE
 40
2453550.759854780
  9
$TDINDWG
 40
0.0009335301
  9
$TDUSRTIMER
 40
0.0009335301
  9
$USRTIMER
 70
     1
  9
$ANGBASE
 50
0.0
  9
$ANGDIR
 70
     0
  9
$PDMODE
 70
     0
  9
$PDSIZE
 40
0.0
  9
$PLINEWID
 40
0.0
  9
$COORDS
 70
     2
  9
$SPLFRAME
 70
     0
  9
$SPLINETYPE
 70
     6
  9
$SPLINESEGS
 70
     8
  9
$ATTDIA
 70
     0
  9
$ATTREQ
 70
     1
  9
$HANDLING
 70
     1
  9
$HANDSEED
  5
125
  9
$SURFTAB1
 70
     6
  9
$SURFTAB2
 70
     6
  9
$SURFTYPE
 70
     6
  9
$SURFU
 70
     6
  9
$SURFV
 70
     6
  9
$UCSNAME
  2

  9
$UCSORG
 10
0.0
 20
0.0
 30
0.0
  9
$UCSXDIR
 10
1.0
 20
0.0
 30
0.0
  9
$UCSYDIR
 10
0.0
 20
1.0
 30
0.0
  9
$PUCSNAME
  2

  9
$PUCSORG
 10
0.0
 20
0.0
 30
0.0
  9
$PUCSXDIR
 10
1.0
 20
0.0
 30
0.0
  9
$PUCSYDIR
 10
0.0
 20
1.0
 30
0.0
  9
$USERI1
 70
     0
  9
$USERI2
 70
     0
  9
$USERI3
 70
     0
  9
$USERI4
 70
     0
  9
$USERI5
 70
     0
  9
$USERR1
 40
0.0
  9
$USERR2
 40
0.0
  9
$USERR3
 40
0.0
  9
$USERR4
 40
0.0
  9
$USERR5
 40
0.0
  9
$WORLDVIEW
 70
     1
  9
$SHADEDGE
 70
     3
  9
$SHADEDIF
 70
    70
  9
$TILEMODE
 70
     1
  9
$MAXACTVP
 70
    16
  9
$PINSBASE
 10
0.0
 20
0.0
 30
0.0
  9
$PLIMCHECK
 70
     0
  9
$PEXTMIN
 10
1.000000E+20
 20
1.000000E+20
 30
1.000000E+20
  9
$PEXTMAX
 10
-1.000000E+20
 20
-1.000000E+20
 30
-1.000000E+20
  9
$PLIMMIN
 10
0.0
 20
0.0
  9
$PLIMMAX
 10
12.0
 20
9.0
  9
$UNITMODE
 70
     0
  9
$VISRETAIN
 70
     0
  9
$PLINEGEN
 70
     0
  9
$PSLTSCALE
 70
     1
  9
$TREEDEPTH
 70
  3020
  9
$PICKSTYLE
 70
     1
  9
$CMLSTYLE
  2
STANDARD
  9
$CMLJUST
 70
     0
  9
$CMLSCALE
 40
1.0
  9
$PROXYGRAPHICS
 70
     1
  9
$MEASUREMENT
 70
     0
  0
ENDSEC
  0
SECTION
  2
CLASSES
  0
CLASS
  1
DICTIONARYVAR
  2
AcDbDictionaryVar
  3
"AutoCAD"
 90
        0
280
     0
281
     0
  0
CLASS
  1
LWPOLYLINE
  2
AcDbPolyline
  3
"AutoCAD"
 90
        0
280
     0
281
     1
  0
ENDSEC
  0
SECTION
  2
TABLES
  0
TABLE
  2
VPORT
  5
FA
100
AcDbSymbolTable
 70
     3
  0
VPORT
  5
124
100
AcDbSymbolTableRecord
100
AcDbViewportTableRecord
  2
*ACTIVE
 70
     0
 10
0.0
 20
0.0
 11
1.0
 21
1.0
 12
225.245923
 22
178.797127
 13
0.0
 23
0.0
 14
0.5
 24
0.5
 15
1.0
 25
1.0
 16
0.0
 26
0.0
 36
1.0
 17
0.0
 27
0.0
 37
0.0
 40
321.732368
 41
1.434944
 42
50.0
 43
0.0
 44
0.0
 50
0.0
 51
0.0
 71
     0
 72
   100
 73
     1
 74
     1
 75
     0
 76
     0
 77
     0
 78
     0
  0
ENDTAB
  0
TABLE
  2
LTYPE
  5
F7
100
AcDbSymbolTable
 70
     4
  0
LTYPE
  5
103
100
AcDbSymbolTableRecord
100
AcDbLinetypeTableRecord
  2
BYBLOCK
 70
     0
  3

 72
    65
 73
     0
 40
0.0
  0
LTYPE
  5
104
100
AcDbSymbolTableRecord
100
AcDbLinetypeTableRecord
  2
BYLAYER
 70
     0
  3

 72
    65
 73
     0
 40
0.0
  0
LTYPE
  5
105
100
AcDbSymbolTableRecord
100
AcDbLinetypeTableRecord
  2
CONTINUOUS
 70
     0
  3
Solid line
 72
    65
 73
     0
 40
0.0
  0
LTYPE
  5
10F
100
AcDbSymbolTableRecord
100
AcDbLinetypeTableRecord
  2
TENSEN1
 70
     0
  3

 72
    65
 73
     2
 40
0.4
 49
0.3
 74
     0
 49
-0.1
 74
     0
  0
LTYPE
  5
110
100
AcDbSymbolTableRecord
100
AcDbLinetypeTableRecord
  2
ITTEN1
 70
     0
  3

 72
    65
 73
     4
 40
8.2
 49
5.0
 74
     0
 49
-1.0
 74
     0
 49
1.2
 74
     0
 49
-1.0
 74
     0
  0
LTYPE
  5
111
100
AcDbSymbolTableRecord
100
AcDbLinetypeTableRecord
  2
TENSEN2
 70
     0
  3

 72
    65
 73
     2
 40
2.1
 49
1.5
 74
     0
 49
-0.6
 74
     0
  0
ENDTAB
  0
TABLE
  2
LAYER
  5
F4
100
AcDbSymbolTable
 70
     4
  0
LAYER
  5
100
100
AcDbSymbolTableRecord
100
AcDbLayerTableRecord
  2
0
 70
     0
 62
     7
  6
CONTINUOUS
  0
LAYER
  5
115
100
AcDbSymbolTableRecord
100
AcDbLayerTableRecord
  2
1
 70
     0
 62
     1
  6
ITTEN1
  0
LAYER
  5
116
100
AcDbSymbolTableRecord
100
AcDbLayerTableRecord
  2
2
 70
     0
 62
     2
  6
TENSEN2
  0
LAYER
  5
117
100
AcDbSymbolTableRecord
100
AcDbLayerTableRecord
  2
3
 70
     0
 62
     3
  6
CONTINUOUS
  0
ENDTAB
  0
TABLE
  2
STYLE
  5
F5
100
AcDbSymbolTable
 70
     2
  0
STYLE
  5
101
100
AcDbSymbolTableRecord
100
AcDbTextStyleTableRecord
  2
STANDARD
 70
     0
 40
0.0
 41
1.0
 50
0.0
 71
     0
 42
0.2
  3
txt
  4

  0
STYLE
  5
10E
100
AcDbSymbolTableRecord
100
AcDbTextStyleTableRecord
  2
BIGFONT
 70
     0
 40
5.0
 41
1.0
 50
0.0
 71
     0
 42
5.0
  3

  4
bigfont
  0
ENDTAB
  0
TABLE
  2
VIEW
  5
F8
100
AcDbSymbolTable
 70
     0
  0
ENDTAB
  0
TABLE
  2
UCS
  5
F9
100
AcDbSymbolTable
 70
     0
  0
ENDTAB
  0
TABLE
  2
APPID
  5
FB
100
AcDbSymbolTable
 70
     1
  0
APPID
  5
102
100
AcDbSymbolTableRecord
100
AcDbRegAppTableRecord
  2
ACAD
 70
     0
  0
ENDTAB
  0
TABLE
  2
DIMSTYLE
  5
FC
100
AcDbSymbolTable
 70
     1
  0
DIMSTYLE
105
114
100
AcDbSymbolTableRecord
100
AcDbDimStyleTableRecord
  2
STANDARD
 70
     0
  3

  4

  5

  6

  7

 40
1.0
 41
0.18
 42
0.0625
 43
0.38
 44
0.18
 45
0.0
 46
0.0
 47
0.0
 48
0.0
140
0.18
141
0.09
142
0.0
143
25.4
144
1.0
145
0.0
146
1.0
147
0.09
 71
     0
 72
     0
 73
     1
 74
     1
 75
     0
 76
     0
 77
     0
 78
     0
170
     0
171
     2
172
     0
173
     0
174
     0
175
     0
176
     0
177
     0
178
     0
270
     2
271
     4
272
     4
273
     2
274
     2
340
10E
275
     0
280
     0
281
     0
282
     0
283
     1
284
     0
285
     0
286
     0
287
     5
288
     0
  0
ENDTAB
  0
TABLE
  2
BLOCK_RECORD
  5
F3
100
AcDbSymbolTable
 70
     0
  0
BLOCK_RECORD
  5
109
100
AcDbSymbolTableRecord
100
AcDbBlockTableRecord
  2
*MODEL_SPACE
  0
BLOCK_RECORD
  5
106
100
AcDbSymbolTableRecord
100
AcDbBlockTableRecord
  2
*PAPER_SPACE
  0
ENDTAB
  0
ENDSEC
  0
SECTION
  2
BLOCKS
  0
BLOCK
  5
11A
100
AcDbEntity
  8
0
100
AcDbBlockBegin
  2
*MODEL_SPACE
 70
     0
 10
0.0
 20
0.0
 30
0.0
  3
*MODEL_SPACE
  1

  0
ENDBLK
  5
11B
100
AcDbEntity
  8
0
100
AcDbBlockEnd
  0
BLOCK
  5
118
100
AcDbEntity
 67
     1
  8
0
100
AcDbBlockBegin
  2
*PAPER_SPACE
 70
     0
 10
0.0
 20
0.0
 30
0.0
  3
*PAPER_SPACE
  1

  0
ENDBLK
  5
119
100
AcDbEntity
 67
     1
  8
0
100
AcDbBlockEnd
  0
ENDSEC
  0
SECTION
  2
ENTITIES
  0
LINE
  5
3E
100
AcDbEntity
  8
1
100
AcDbLine
 10
167.0
 20
321.0
 30
0.0
 11
167.0
 21
276.0
 31
0.0
  0
LINE
  5
3F
100
AcDbEntity
  8
1
100
AcDbLine
 10
144.5
 20
298.0
 30
0.0
 11
283.0
 21
298.0
 31
0.0
  0
CIRCLE
  5
40
100
AcDbEntity
  8
0
100
AcDbCircle
 10
167.0
 20
298.0
 30
0.0
 40
16.5
  0
LINE
  5
41
100
AcDbEntity
  8
1
100
AcDbLine
 10
267.0
 20
283.0
 30
0.0
 11
267.0
 21
313.0
 31
0.0
  0
ARC
  5
42
100
AcDbEntity
  8
0
100
AcDbCircle
 10
267.0
 20
298.0
 30
0.0
 40
10.0
100
AcDbArc
 50
270.0
 51
90.0
  0
LINE
  5
44
100
AcDbEntity
  8
0
100
AcDbLine
 10
267.0
 20
308.0
 30
0.0
 11
179.5
 21
309.0
 31
0.0
  0
LINE
  5
45
100
AcDbEntity
  8
0
100
AcDbLine
 10
267.0
 20
288.0
 30
0.0
 11
179.5
 21
287.0
 31
0.0
  0
LINE
  5
46
100
AcDbEntity
  8
0
100
AcDbLine
 10
267.0
 20
55.5
 30
0.0
 11
179.5
 21
54.5
 31
0.0
  0
LINE
  5
47
100
AcDbEntity
  8
0
100
AcDbLine
 10
267.0
 20
75.5
 30
0.0
 11
179.5
 21
76.5
 31
0.0
  0
LINE
  5
48
100
AcDbEntity
  8
1
100
AcDbLine
 10
144.5
 20
65.5
 30
0.0
 11
283.0
 21
65.5
 31
0.0
  0
CIRCLE
  5
49
100
AcDbEntity
  8
0
100
AcDbCircle
 10
167.0
 20
65.5
 30
0.0
 40
16.5
  0
LINE
  5
4A
100
AcDbEntity
  8
1
100
AcDbLine
 10
167.0
 20
88.5
 30
0.0
 11
167.0
 21
43.5
 31
0.0
  0
LINE
  5
4B
100
AcDbEntity
  8
1
100
AcDbLine
 10
267.0
 20
50.5
 30
0.0
 11
267.0
 21
80.5
 31
0.0
  0
ARC
  5
4C
100
AcDbEntity
  8
0
100
AcDbCircle
 10
267.0
 20
65.5
 30
0.0
 40
10.0
100
AcDbArc
 50
270.0
 51
90.0
  0
CIRCLE
  5
4D
100
AcDbEntity
  8
0
100
AcDbCircle
 10
167.0
 20
65.5
 30
0.0
 40
15.5
  0
CIRCLE
  5
4E
100
AcDbEntity
  8
0
100
AcDbCircle
 10
167.0
 20
65.5
 30
0.0
 40
13.0
  0
CIRCLE
  5
4F
100
AcDbEntity
  8
0
100
AcDbCircle
 10
267.0
 20
65.5
 30
0.0
 40
4.0
  0
CIRCLE
  5
50
100
AcDbEntity
  8
0
100
AcDbCircle
 10
267.0
 20
65.5
 30
0.0
 40
3.0
  0
ARC
  5
52
100
AcDbEntity
  8
0
100
AcDbCircle
 10
197.5
 20
65.5
 30
0.0
 40
6.0
100
AcDbArc
 50
90.0
 51
270.0
  0
LINE
  5
53
100
AcDbEntity
  8
0
100
AcDbLine
 10
257.0
 20
59.5
 30
0.0
 11
257.0
 21
71.5
 31
0.0
  0
LINE
  5
54
100
AcDbEntity
  8
0
100
AcDbLine
 10
257.0
 20
71.5
 30
0.0
 11
197.5
 21
71.5
 31
0.0
  0
LINE
  5
55
100
AcDbEntity
  8
0
100
AcDbLine
 10
257.0
 20
59.5
 30
0.0
 11
197.5
 21
59.5
 31
0.0
  0
ARC
  5
56
100
AcDbEntity
  8
0
100
AcDbCircle
 10
204.0
 20
65.5
 30
0.0
 40
4.0
100
AcDbArc
 50
90.0
 51
270.0
  0
LINE
  5
57
100
AcDbEntity
  8
0
100
AcDbLine
 10
250.0
 20
61.5
 30
0.0
 11
250.0
 21
69.5
 31
0.0
  0
LINE
  5
58
100
AcDbEntity
  8
0
100
AcDbLine
 10
250.0
 20
69.5
 30
0.0
 11
204.0
 21
69.5
 31
0.0
  0
LINE
  5
59
100
AcDbEntity
  8
0
100
AcDbLine
 10
250.0
 20
61.5
 30
0.0
 11
204.0
 21
61.5
 31
0.0
  0
LINE
  5
5A
100
AcDbEntity
  8
3
100
AcDbLine
 10
208.0
 20
62.5
 30
0.0
 11
209.0
 21
62.5
 31
0.0
  0
LINE
  5
5B
100
AcDbEntity
  8
3
100
AcDbLine
 10
209.0
 20
62.5
 30
0.0
 11
210.0
 21
64.5
 31
0.0
  0
LINE
  5
5C
100
AcDbEntity
  8
3
100
AcDbLine
 10
210.0
 20
64.5
 30
0.0
 11
213.0
 21
64.5
 31
0.0
  0
LINE
  5
5D
100
AcDbEntity
  8
3
100
AcDbLine
 10
213.0
 20
64.5
 30
0.0
 11
214.0
 21
62.5
 31
0.0
  0
LINE
  5
5E
100
AcDbEntity
  8
3
100
AcDbLine
 10
214.0
 20
62.5
 30
0.0
 11
215.0
 21
62.5
 31
0.0
  0
LINE
  5
5F
100
AcDbEntity
  8
3
100
AcDbLine
 10
215.0
 20
62.5
 30
0.0
 11
212.0
 21
68.5
 31
0.0
  0
LINE
  5
60
100
AcDbEntity
  8
3
100
AcDbLine
 10
212.0
 20
68.5
 30
0.0
 11
211.0
 21
68.5
 31
0.0
  0
LINE
  5
61
100
AcDbEntity
  8
3
100
AcDbLine
 10
211.0
 20
68.5
 30
0.0
 11
208.0
 21
62.5
 31
0.0
  0
LINE
  5
62
100
AcDbEntity
  8
3
100
AcDbLine
 10
210.5
 20
65.5
 30
0.0
 11
212.5
 21
65.5
 31
0.0
  0
LINE
  5
63
100
AcDbEntity
  8
3
100
AcDbLine
 10
212.5
 20
65.5
 30
0.0
 11
211.5
 21
67.0
 31
0.0
  0
LINE
  5
64
100
AcDbEntity
  8
3
100
AcDbLine
 10
211.5
 20
67.0
 30
0.0
 11
210.5
 21
65.5
 31
0.0
  0
ARC
  5
65
100
AcDbEntity
  8
3
100
AcDbCircle
 10
218.5
 20
65.9375
 30
0.0
 40
2.5625
100
AcDbArc
 50
12.680383
 51
167.319617
  0
ARC
  5
66
100
AcDbEntity
  8
3
100
AcDbCircle
 10
218.5
 20
65.0625
 30
0.0
 40
2.5625
100
AcDbArc
 50
192.680383
 51
347.319617
  0
ARC
  5
67
100
AcDbEntity
  8
3
100
AcDbCircle
 10
218.5
 20
65.75
 30
0.0
 40
1.25
100
AcDbArc
 50
36.869898
 51
143.130102
  0
ARC
  5
68
100
AcDbEntity
  8
3
100
AcDbCircle
 10
218.5
 20
65.25
 30
0.0
 40
1.25
100
AcDbArc
 50
216.869898
 51
323.130102
  0
LINE
  5
69
100
AcDbEntity
  8
3
100
AcDbLine
 10
216.0
 20
64.5
 30
0.0
 11
216.0
 21
66.5
 31
0.0
  0
LINE
  5
6A
100
AcDbEntity
  8
3
100
AcDbLine
 10
217.5
 20
64.5
 30
0.0
 11
217.5
 21
66.5
 31
0.0
  0
LINE
  5
6B
100
AcDbEntity
  8
3
100
AcDbLine
 10
219.5
 20
66.5
 30
0.0
 11
221.0
 21
66.5
 31
0.0
  0
LINE
  5
6C
100
AcDbEntity
  8
3
100
AcDbLine
 10
219.5
 20
64.5
 30
0.0
 11
221.0
 21
64.5
 31
0.0
  0
LINE
  5
6D
100
AcDbEntity
  8
3
100
AcDbLine
 10
222.0
 20
68.5
 30
0.0
 11
222.0
 21
62.5
 31
0.0
  0
LINE
  5
6E
100
AcDbEntity
  8
3
100
AcDbLine
 10
222.0
 20
62.5
 30
0.0
 11
223.0
 21
62.5
 31
0.0
  0
LINE
  5
6F
100
AcDbEntity
  8
3
100
AcDbLine
 10
223.0
 20
62.5
 30
0.0
 11
223.0
 21
65.5
 31
0.0
  0
LINE
  5
70
100
AcDbEntity
  8
3
100
AcDbLine
 10
223.0
 20
65.5
 30
0.0
 11
226.0
 21
65.5
 31
0.0
  0
LINE
  5
71
100
AcDbEntity
  8
3
100
AcDbLine
 10
226.0
 20
65.5
 30
0.0
 11
226.0
 21
62.5
 31
0.0
  0
LINE
  5
72
100
AcDbEntity
  8
3
100
AcDbLine
 10
226.0
 20
62.5
 30
0.0
 11
227.0
 21
62.5
 31
0.0
  0
LINE
  5
73
100
AcDbEntity
  8
3
100
AcDbLine
 10
227.0
 20
62.5
 30
0.0
 11
227.0
 21
68.5
 31
0.0
  0
LINE
  5
74
100
AcDbEntity
  8
3
100
AcDbLine
 10
227.0
 20
68.5
 30
0.0
 11
226.0
 21
68.5
 31
0.0
  0
LINE
  5
75
100
AcDbEntity
  8
3
100
AcDbLine
 10
226.0
 20
68.5
 30
0.0
 11
226.0
 21
66.5
 31
0.0
  0
LINE
  5
76
100
AcDbEntity
  8
3
100
AcDbLine
 10
226.0
 20
66.5
 30
0.0
 11
223.0
 21
66.5
 31
0.0
  0
LINE
  5
77
100
AcDbEntity
  8
3
100
AcDbLine
 10
223.0
 20
66.5
 30
0.0
 11
223.0
 21
68.5
 31
0.0
  0
LINE
  5
78
100
AcDbEntity
  8
3
100
AcDbLine
 10
223.0
 20
68.5
 30
0.0
 11
222.0
 21
68.5
 31
0.0
  0
LINE
  5
79
100
AcDbEntity
  8
3
100
AcDbLine
 10
228.0
 20
66.0
 30
0.0
 11
228.0
 21
65.0
 31
0.0
  0
LINE
  5
7A
100
AcDbEntity
  8
3
100
AcDbLine
 10
228.0
 20
65.0
 30
0.0
 11
230.0
 21
65.0
 31
0.0
  0
LINE
  5
7B
100
AcDbEntity
  8
3
100
AcDbLine
 10
230.0
 20
65.0
 30
0.0
 11
230.0
 21
66.0
 31
0.0
  0
LINE
  5
7C
100
AcDbEntity
  8
3
100
AcDbLine
 10
230.0
 20
66.0
 30
0.0
 11
228.0
 21
66.0
 31
0.0
  0
LINE
  5
7D
100
AcDbEntity
  8
3
100
AcDbLine
 10
231.0
 20
67.5
 30
0.0
 11
232.0
 21
68.5
 31
0.0
  0
LINE
  5
7E
100
AcDbEntity
  8
3
100
AcDbLine
 10
232.0
 20
68.5
 30
0.0
 11
233.0
 21
68.5
 31
0.0
  0
LINE
  5
7F
100
AcDbEntity
  8
3
100
AcDbLine
 10
233.0
 20
68.5
 30
0.0
 11
233.0
 21
62.5
 31
0.0
  0
LINE
  5
80
100
AcDbEntity
  8
3
100
AcDbLine
 10
233.0
 20
62.5
 30
0.0
 11
232.0
 21
62.5
 31
0.0
  0
LINE
  5
81
100
AcDbEntity
  8
3
100
AcDbLine
 10
232.0
 20
62.5
 30
0.0
 11
232.0
 21
67.5
 31
0.0
  0
LINE
  5
82
100
AcDbEntity
  8
3
100
AcDbLine
 10
232.0
 20
67.5
 30
0.0
 11
231.0
 21
67.5
 31
0.0
  0
LINE
  5
83
100
AcDbEntity
  8
3
100
AcDbLine
 10
235.0
 20
66.5
 30
0.0
 11
235.0
 21
64.5
 31
0.0
  0
LINE
  5
84
100
AcDbEntity
  8
3
100
AcDbLine
 10
240.0
 20
66.5
 30
0.0
 11
240.0
 21
64.5
 31
0.0
  0
LINE
  5
85
100
AcDbEntity
  8
3
100
AcDbLine
 10
242.0
 20
66.5
 30
0.0
 11
242.0
 21
64.5
 31
0.0
  0
LINE
  5
86
100
AcDbEntity
  8
3
100
AcDbLine
 10
247.0
 20
66.5
 30
0.0
 11
247.0
 21
64.5
 31
0.0
  0
LINE
  5
87
100
AcDbEntity
  8
3
100
AcDbLine
 10
236.0
 20
66.5
 30
0.0
 11
236.0
 21
64.5
 31
0.0
  0
LINE
  5
88
100
AcDbEntity
  8
3
100
AcDbLine
 10
239.0
 20
66.5
 30
0.0
 11
239.0
 21
64.5
 31
0.0
  0
LINE
  5
89
100
AcDbEntity
  8
3
100
AcDbLine
 10
243.0
 20
66.5
 30
0.0
 11
243.0
 21
64.5
 31
0.0
  0
LINE
  5
8A
100
AcDbEntity
  8
3
100
AcDbLine
 10
246.0
 20
66.5
 30
0.0
 11
246.0
 21
64.5
 31
0.0
  0
ARC
  5
8B
100
AcDbEntity
  8
3
100
AcDbCircle
 10
244.5
 20
65.9375
 30
0.0
 40
2.5625
100
AcDbArc
 50
12.680383
 51
167.319617
  0
ARC
  5
8C
100
AcDbEntity
  8
3
100
AcDbCircle
 10
244.5
 20
65.875
 30
0.0
 40
1.625
100
AcDbArc
 50
22.619865
 51
157.380135
  0
ARC
  5
8D
100
AcDbEntity
  8
3
100
AcDbCircle
 10
244.5
 20
65.0625
 30
0.0
 40
2.5625
100
AcDbArc
 50
192.680383
 51
347.319617
  0
ARC
  5
8E
100
AcDbEntity
  8
3
100
AcDbCircle
 10
244.5
 20
65.125
 30
0.0
 40
1.625
100
AcDbArc
 50
202.619865
 51
337.380135
  0
ARC
  5
8F
100
AcDbEntity
  8
3
100
AcDbCircle
 10
237.5
 20
65.9375
 30
0.0
 40
2.5625
100
AcDbArc
 50
12.680383
 51
167.319617
  0
ARC
  5
90
100
AcDbEntity
  8
3
100
AcDbCircle
 10
237.5
 20
65.875
 30
0.0
 40
1.625
100
AcDbArc
 50
22.619865
 51
157.380135
  0
ARC
  5
91
100
AcDbEntity
  8
3
100
AcDbCircle
 10
237.5
 20
65.0625
 30
0.0
 40
2.5625
100
AcDbArc
 50
192.680383
 51
347.319617
  0
ARC
  5
92
100
AcDbEntity
  8
3
100
AcDbCircle
 10
237.5
 20
65.125
 30
0.0
 40
1.625
100
AcDbArc
 50
202.619865
 51
337.380135
  0
LINE
  5
93
100
AcDbEntity
  8
0
100
AcDbLine
 10
150.5
 20
160.0
 30
0.0
 11
150.5
 21
178.0
 31
0.0
  0
LINE
  5
94
100
AcDbEntity
  8
0
100
AcDbLine
 10
151.5
 20
179.0
 30
0.0
 11
182.5
 21
179.0
 31
0.0
  0
LINE
  5
95
100
AcDbEntity
  8
0
100
AcDbLine
 10
150.5
 20
160.0
 30
0.0
 11
277.0
 21
160.0
 31
0.0
  0
LINE
  5
96
100
AcDbEntity
  8
0
100
AcDbLine
 10
277.0
 20
160.0
 30
0.0
 11
277.0
 21
174.0
 31
0.0
  0
LINE
  5
97
100
AcDbEntity
  8
0
100
AcDbLine
 10
276.0
 20
175.0
 30
0.0
 11
179.5
 21
175.0
 31
0.0
  0
LINE
  5
98
100
AcDbEntity
  8
0
100
AcDbLine
 10
277.0
 20
174.0
 30
0.0
 11
179.5
 21
174.0
 31
0.0
  0
LINE
  5
99
100
AcDbEntity
  8
0
100
AcDbLine
 10
179.5
 20
175.0
 30
0.0
 11
179.5
 21
160.0
 31
0.0
  0
LINE
  5
9A
100
AcDbEntity
  8
0
100
AcDbLine
 10
183.5
 20
175.0
 30
0.0
 11
183.5
 21
178.0
 31
0.0
  0
LINE
  5
9B
100
AcDbEntity
  8
0
100
AcDbLine
 10
277.0
 20
174.0
 30
0.0
 11
276.0
 21
175.0
 31
0.0
  0
LINE
  5
9C
100
AcDbEntity
  8
0
100
AcDbLine
 10
183.5
 20
178.0
 30
0.0
 11
182.5
 21
179.0
 31
0.0
  0
LINE
  5
9D
100
AcDbEntity
  8
0
100
AcDbLine
 10
150.5
 20
178.0
 30
0.0
 11
151.5
 21
179.0
 31
0.0
  0
LINE
  5
9E
100
AcDbEntity
  8
0
100
AcDbLine
 10
151.5
 20
160.0
 30
0.0
 11
151.5
 21
148.0
 31
0.0
  0
LINE
  5
9F
100
AcDbEntity
  8
0
100
AcDbLine
 10
151.5
 20
148.0
 30
0.0
 11
182.5
 21
148.0
 31
0.0
  0
LINE
  5
A0
100
AcDbEntity
  8
0
100
AcDbLine
 10
182.5
 20
148.0
 30
0.0
 11
182.5
 21
160.0
 31
0.0
  0
LINE
  5
A1
100
AcDbEntity
  8
0
100
AcDbLine
 10
154.0
 20
148.0
 30
0.0
 11
154.0
 21
136.0
 31
0.0
  0
LINE
  5
A2
100
AcDbEntity
  8
0
100
AcDbLine
 10
154.0
 20
136.0
 30
0.0
 11
180.0
 21
136.0
 31
0.0
  0
LINE
  5
A3
100
AcDbEntity
  8
0
100
AcDbLine
 10
180.0
 20
136.0
 30
0.0
 11
180.0
 21
148.0
 31
0.0
  0
LINE
  5
A4
100
AcDbEntity
  8
2
100
AcDbLine
 10
191.5
 20
160.0
 30
0.0
 11
200.0
 21
171.0
 31
0.0
  0
LINE
  5
A5
100
AcDbEntity
  8
2
100
AcDbLine
 10
200.0
 20
171.0
 30
0.0
 11
250.0
 21
171.0
 31
0.0
  0
LINE
  5
A6
100
AcDbEntity
  8
2
100
AcDbLine
 10
250.0
 20
171.0
 30
0.0
 11
257.0
 21
160.0
 31
0.0
  0
LINE
  5
A7
100
AcDbEntity
  8
1
100
AcDbLine
 10
167.0
 20
130.5
 30
0.0
 11
167.0
 21
188.0
 31
0.0
  0
LINE
  5
A8
100
AcDbEntity
  8
1
100
AcDbLine
 10
267.0
 20
154.0
 30
0.0
 11
267.0
 21
186.561708
 31
0.0
  0
LINE
  5
B5
100
AcDbEntity
  8
1
100
AcDbLine
 10
70.0
 20
130.5
 30
0.0
 11
70.0
 21
190.543545
 31
0.0
  0
LINE
  5
B6
100
AcDbEntity
  8
1
100
AcDbLine
 10
366.0
 20
130.5
 30
0.0
 11
366.0
 21
189.747177
 31
0.0
  0
LINE
  5
B7
100
AcDbEntity
  8
0
100
AcDbLine
 10
86.5
 20
175.0
 30
0.0
 11
86.5
 21
178.0
 31
0.0
  0
LINE
  5
B8
100
AcDbEntity
  8
0
100
AcDbLine
 10
53.5
 20
160.0
 30
0.0
 11
53.5
 21
178.0
 31
0.0
  0
LINE
  5
B9
100
AcDbEntity
  8
0
100
AcDbLine
 10
54.5
 20
148.0
 30
0.0
 11
85.5
 21
148.0
 31
0.0
  0
LINE
  5
BA
100
AcDbEntity
  8
0
100
AcDbLine
 10
57.0
 20
136.0
 30
0.0
 11
83.0
 21
136.0
 31
0.0
  0
LINE
  5
BB
100
AcDbEntity
  8
0
100
AcDbLine
 10
57.0
 20
148.0
 30
0.0
 11
57.0
 21
136.0
 31
0.0
  0
LINE
  5
BC
100
AcDbEntity
  8
0
100
AcDbLine
 10
54.5
 20
160.0
 30
0.0
 11
54.5
 21
148.0
 31
0.0
  0
LINE
  5
BD
100
AcDbEntity
  8
0
100
AcDbLine
 10
83.0
 20
136.0
 30
0.0
 11
83.0
 21
148.0
 31
0.0
  0
LINE
  5
BE
100
AcDbEntity
  8
0
100
AcDbLine
 10
85.5
 20
148.0
 30
0.0
 11
85.5
 21
160.0
 31
0.0
  0
LINE
  5
BF
100
AcDbEntity
  8
0
100
AcDbLine
 10
54.5
 20
179.0
 30
0.0
 11
85.5
 21
179.0
 31
0.0
  0
LINE
  5
C0
100
AcDbEntity
  8
0
100
AcDbLine
 10
53.5
 20
178.0
 30
0.0
 11
54.5
 21
179.0
 31
0.0
  0
LINE
  5
C1
100
AcDbEntity
  8
0
100
AcDbLine
 10
86.5
 20
178.0
 30
0.0
 11
85.5
 21
179.0
 31
0.0
  0
LINE
  5
C2
100
AcDbEntity
  8
0
100
AcDbLine
 10
53.5
 20
160.0
 30
0.0
 11
86.5
 21
160.0
 31
0.0
  0
LINE
  5
C3
100
AcDbEntity
  8
0
100
AcDbLine
 10
86.5
 20
160.0
 30
0.0
 11
86.5
 21
175.0
 31
0.0
  0
LINE
  5
D0
100
AcDbEntity
  8
0
100
AcDbLine
 10
382.5
 20
175.0
 30
0.0
 11
382.5
 21
178.0
 31
0.0
  0
LINE
  5
D1
100
AcDbEntity
  8
0
100
AcDbLine
 10
349.5
 20
160.0
 30
0.0
 11
349.5
 21
178.0
 31
0.0
  0
LINE
  5
D2
100
AcDbEntity
  8
0
100
AcDbLine
 10
350.5
 20
148.0
 30
0.0
 11
381.5
 21
148.0
 31
0.0
  0
LINE
  5
D3
100
AcDbEntity
  8
0
100
AcDbLine
 10
353.0
 20
136.0
 30
0.0
 11
379.0
 21
136.0
 31
0.0
  0
LINE
  5
D4
100
AcDbEntity
  8
0
100
AcDbLine
 10
353.0
 20
148.0
 30
0.0
 11
353.0
 21
136.0
 31
0.0
  0
LINE
  5
D5
100
AcDbEntity
  8
0
100
AcDbLine
 10
350.5
 20
160.0
 30
0.0
 11
350.5
 21
148.0
 31
0.0
  0
LINE
  5
D6
100
AcDbEntity
  8
0
100
AcDbLine
 10
379.0
 20
136.0
 30
0.0
 11
379.0
 21
148.0
 31
0.0
  0
LINE
  5
D7
100
AcDbEntity
  8
0
100
AcDbLine
 10
381.5
 20
148.0
 30
0.0
 11
381.5
 21
160.0
 31
0.0
  0
LINE
  5
D8
100
AcDbEntity
  8
0
100
AcDbLine
 10
350.5
 20
179.0
 30
0.0
 11
359.0
 21
179.0
 31
0.0
  0
LINE
  5
D9
100
AcDbEntity
  8
0
100
AcDbLine
 10
349.5
 20
178.0
 30
0.0
 11
350.5
 21
179.0
 31
0.0
  0
LINE
  5
DA
100
AcDbEntity
  8
0
100
AcDbLine
 10
382.5
 20
178.0
 30
0.0
 11
381.5
 21
179.0
 31
0.0
  0
LINE
  5
DB
100
AcDbEntity
  8
0
100
AcDbLine
 10
349.5
 20
160.0
 30
0.0
 11
382.5
 21
160.0
 31
0.0
  0
LINE
  5
DC
100
AcDbEntity
  8
0
100
AcDbLine
 10
382.5
 20
160.0
 30
0.0
 11
382.5
 21
175.0
 31
0.0
  0
LINE
  5
DD
100
AcDbEntity
  8
0
100
AcDbLine
 10
355.5
 20
160.0
 30
0.0
 11
355.5
 21
174.0
 31
0.0
  0
LINE
  5
DE
100
AcDbEntity
  8
0
100
AcDbLine
 10
376.5
 20
160.0
 30
0.0
 11
376.5
 21
174.0
 31
0.0
  0
LINE
  5
DF
100
AcDbEntity
  8
0
100
AcDbLine
 10
356.5
 20
175.0
 30
0.0
 11
375.5
 21
175.0
 31
0.0
  0
LINE
  5
E0
100
AcDbEntity
  8
0
100
AcDbLine
 10
376.5
 20
174.0
 30
0.0
 11
375.5
 21
175.0
 31
0.0
  0
LINE
  5
E1
100
AcDbEntity
  8
0
100
AcDbLine
 10
355.5
 20
174.0
 30
0.0
 11
356.5
 21
175.0
 31
0.0
  0
LINE
  5
EE
100
AcDbEntity
  8
0
100
AcDbLine
 10
373.0
 20
179.0
 30
0.0
 11
381.5
 21
179.0
 31
0.0
  0
LINE
  5
121
100
AcDbEntity
  8
0
100
AcDbLine
 10
359.0
 20
179.0
 30
0.0
 11
373.0
 21
179.0
 31
0.0
  0
CIRCLE
  5
122
100
AcDbEntity
  8
0
100
AcDbCircle
 10
267.0
 20
298.0
 30
0.0
 40
3.0
  0
CIRCLE
  5
123
100
AcDbEntity
  8
0
100
AcDbCircle
 10
267.0
 20
298.0
 30
0.0
 40
4.0
  0
ENDSEC
  0
SECTION
  2
OBJECTS
  0
DICTIONARY
  5
FE
100
AcDbDictionary
  3
ACAD_GROUP
350
FF
  3
ACAD_MLINESTYLE
350
10C
  3
ACDBVARIABLEDICTIONARY
350
11C
  0
DICTIONARY
  5
FF
102
{ACAD_REACTORS
330
FE
102
}
100
AcDbDictionary
  0
DICTIONARY
  5
10C
102
{ACAD_REACTORS
330
FE
102
}
100
AcDbDictionary
  3
STANDARD
350
10D
  0
DICTIONARY
  5
11C
102
{ACAD_REACTORS
330
FE
102
}
100
AcDbDictionary
  3
DIMADEC
350
11D
  0
MLINESTYLE
  5
10D
102
{ACAD_REACTORS
330
10C
102
}
100
AcDbMlineStyle
  2
STANDARD
 70
     0
  3

 62
   256
 51
90.0
 52
90.0
 71
     2
 49
0.5
 62
   256
  6
BYLAYER
 49
-0.5
 62
   256
  6
BYLAYER
  0
DICTIONARYVAR
  5
11D
102
{ACAD_REACTORS
330
11C
102
}
100
DictionaryVariables
280
     0
  1
0
  0
ENDSEC
  0
EOF
