  0
SECTION
  2
HEADER
  9
$ACADVER
  1
AC1014
  9
$ACADMAINTVER
 70
     0
  9
$DWGCODEPAGE
  3
ANSI_932
  9
$INSBASE
 10
0.0
 20
0.0
 30
0.0
  9
$EXTMIN
 10
57.25
 20
75.0
 30
0.0
  9
$EXTMAX
 10
302.75
 20
226.886224
 30
0.0
  9
$LIMMIN
 10
0.0
 20
0.0
  9
$LIMMAX
 10
375.0
 20
270.0
  9
$ORTHOMODE
 70
     1
  9
$REGENMODE
 70
     1
  9
$FILLMODE
 70
     1
  9
$QTEXTMODE
 70
     0
  9
$MIRRTEXT
 70
     0
  9
$DRAGMODE
 70
     2
  9
$LTSCALE
 40
10.0
  9
$OSMODE
 70
   231
  9
$ATTMODE
 70
     1
  9
$TEXTSIZE
 40
4.0
  9
$TRACEWID
 40
0.05
  9
$TEXTSTYLE
  7
STANDARD
  9
$CLAYER
  8
0
  9
$CELTYPE
  6
BYLAYER
  9
$CECOLOR
 62
   256
  9
$CELTSCALE
 40
1.0
  9
$DELOBJ
 70
     1
  9
$DISPSILH
 70
     0
  9
$DIMSCALE
 40
1.0
  9
$DIMASZ
 40
3.0
  9
$DIMEXO
 40
2.0
  9
$DIMDLI
 40
0.38
  9
$DIMRND
 40
0.0
  9
$DIMDLE
 40
0.0
  9
$DIMEXE
 40
2.0
  9
$DIMTP
 40
0.0
  9
$DIMTM
 40
0.0
  9
$DIMTXT
 40
3.2
  9
$DIMCEN
 40
0.0
  9
$DIMTSZ
 40
0.0
  9
$DIMTOL
 70
     0
  9
$DIMLIM
 70
     0
  9
$DIMTIH
 70
     0
  9
$DIMTOH
 70
     0
  9
$DIMSE1
 70
     0
  9
$DIMSE2
 70
     0
  9
$DIMTAD
 70
     1
  9
$DIMZIN
 70
     0
  9
$DIMBLK
  1

  9
$DIMASO
 70
     1
  9
$DIMSHO
 70
     0
  9
$DIMPOST
  1

  9
$DIMAPOST
  1

  9
$DIMALT
 70
     0
  9
$DIMALTD
 70
     2
  9
$DIMALTF
 40
25.4
  9
$DIMLFAC
 40
1.0
  9
$DIMTOFL
 70
     1
  9
$DIMTVP
 40
1.6
  9
$DIMTIX
 70
     1
  9
$DIMSOXD
 70
     0
  9
$DIMSAH
 70
     0
  9
$DIMBLK1
  1

  9
$DIMBLK2
  1

  9
$DIMSTYLE
  2
STANDARD
  9
$DIMCLRD
 70
     0
  9
$DIMCLRE
 70
     0
  9
$DIMCLRT
 70
     0
  9
$DIMTFAC
 40
1.0
  9
$DIMGAP
 40
0.09
  9
$DIMJUST
 70
     0
  9
$DIMSD1
 70
     0
  9
$DIMSD2
 70
     0
  9
$DIMTOLJ
 70
     1
  9
$DIMTZIN
 70
     0
  9
$DIMALTZ
 70
     0
  9
$DIMALTTZ
 70
     0
  9
$DIMFIT
 70
     3
  9
$DIMUPT
 70
     0
  9
$DIMUNIT
 70
     2
  9
$DIMDEC
 70
     4
  9
$DIMTDEC
 70
     4
  9
$DIMALTU
 70
     2
  9
$DIMALTTD
 70
     2
  9
$DIMTXSTY
  7
STANDARD
  9
$DIMAUNIT
 70
     0
  9
$LUNITS
 70
     2
  9
$LUPREC
 70
     4
  9
$SKETCHINC
 40
0.1
  9
$FILLETRAD
 40
1.5
  9
$AUNITS
 70
     0
  9
$AUPREC
 70
     4
  9
$MENU
  1
E:\r13\win\SUPPORT\ACAD
  9
$ELEVATION
 40
0.0
  9
$PELEVATION
 40
0.0
  9
$THICKNESS
 40
0.0
  9
$LIMCHECK
 70
     0
  9
$BLIPMODE
 70
     1
  9
$CHAMFERA
 40
0.0
  9
$CHAMFERB
 40
0.0
  9
$CHAMFERC
 40
0.0
  9
$CHAMFERD
 40
0.0
  9
$SKPOLY
 70
     0
  9
$TDCREATE
 40
2449839.790162037
  9
$TDUPDATE
 40
2453557.666863055
  9
$TDINDWG
 40
0.0003667593
  9
$TDUSRTIMER
 40
0.0003667593
  9
$USRTIMER
 70
     1
  9
$ANGBASE
 50
0.0
  9
$ANGDIR
 70
     0
  9
$PDMODE
 70
     0
  9
$PDSIZE
 40
0.0
  9
$PLINEWID
 40
0.0
  9
$COORDS
 70
     0
  9
$SPLFRAME
 70
     0
  9
$SPLINETYPE
 70
     6
  9
$SPLINESEGS
 70
     8
  9
$ATTDIA
 70
     0
  9
$ATTREQ
 70
     1
  9
$HANDLING
 70
     1
  9
$HANDSEED
  5
19B
  9
$SURFTAB1
 70
     6
  9
$SURFTAB2
 70
     6
  9
$SURFTYPE
 70
     6
  9
$SURFU
 70
     6
  9
$SURFV
 70
     6
  9
$UCSNAME
  2

  9
$UCSORG
 10
0.0
 20
0.0
 30
0.0
  9
$UCSXDIR
 10
1.0
 20
0.0
 30
0.0
  9
$UCSYDIR
 10
0.0
 20
1.0
 30
0.0
  9
$PUCSNAME
  2

  9
$PUCSORG
 10
0.0
 20
0.0
 30
0.0
  9
$PUCSXDIR
 10
1.0
 20
0.0
 30
0.0
  9
$PUCSYDIR
 10
0.0
 20
1.0
 30
0.0
  9
$USERI1
 70
     0
  9
$USERI2
 70
     1
  9
$USERI3
 70
     1
  9
$USERI4
 70
     0
  9
$USERI5
 70
     0
  9
$USERR1
 40
0.0
  9
$USERR2
 40
0.0
  9
$USERR3
 40
0.0
  9
$USERR4
 40
0.0
  9
$USERR5
 40
0.0
  9
$WORLDVIEW
 70
     1
  9
$SHADEDGE
 70
     3
  9
$SHADEDIF
 70
    70
  9
$TILEMODE
 70
     1
  9
$MAXACTVP
 70
    16
  9
$PINSBASE
 10
0.0
 20
0.0
 30
0.0
  9
$PLIMCHECK
 70
     0
  9
$PEXTMIN
 10
1.000000E+20
 20
1.000000E+20
 30
1.000000E+20
  9
$PEXTMAX
 10
-1.000000E+20
 20
-1.000000E+20
 30
-1.000000E+20
  9
$PLIMMIN
 10
0.0
 20
0.0
  9
$PLIMMAX
 10
12.0
 20
9.0
  9
$UNITMODE
 70
     0
  9
$VISRETAIN
 70
     0
  9
$PLINEGEN
 70
     0
  9
$PSLTSCALE
 70
     0
  9
$TREEDEPTH
 70
  3020
  9
$PICKSTYLE
 70
     1
  9
$CMLSTYLE
  2
STANDARD
  9
$CMLJUST
 70
     0
  9
$CMLSCALE
 40
1.0
  9
$PROXYGRAPHICS
 70
     1
  9
$MEASUREMENT
 70
     0
  0
ENDSEC
  0
SECTION
  2
CLASSES
  0
ENDSEC
  0
SECTION
  2
TABLES
  0
TABLE
  2
VPORT
  5
178
100
AcDbSymbolTable
 70
     2
  0
VPORT
  5
19A
100
AcDbSymbolTableRecord
100
AcDbViewportTableRecord
  2
*ACTIVE
 70
     0
 10
0.0
 20
0.0
 11
1.0
 21
1.0
 12
193.717472
 22
135.0
 13
0.0
 23
0.0
 14
10.0
 24
10.0
 15
10.0
 25
10.0
 16
0.0
 26
0.0
 36
1.0
 17
0.0
 27
0.0
 37
0.0
 40
270.0
 41
1.434944
 42
50.0
 43
0.0
 44
0.0
 50
0.0
 51
0.0
 71
     0
 72
   500
 73
     1
 74
     0
 75
     0
 76
     0
 77
     0
 78
     2
  0
ENDTAB
  0
TABLE
  2
LTYPE
  5
175
100
AcDbSymbolTable
 70
     3
  0
LTYPE
  5
182
100
AcDbSymbolTableRecord
100
AcDbLinetypeTableRecord
  2
BYBLOCK
 70
     0
  3

 72
    65
 73
     0
 40
0.0
  0
LTYPE
  5
183
100
AcDbSymbolTableRecord
100
AcDbLinetypeTableRecord
  2
BYLAYER
 70
     0
  3

 72
    65
 73
     0
 40
0.0
  0
LTYPE
  5
184
100
AcDbSymbolTableRecord
100
AcDbLinetypeTableRecord
  2
CONTINUOUS
 70
     0
  3
Solid Line
 72
    65
 73
     0
 40
0.0
  0
LTYPE
  5
18F
100
AcDbSymbolTableRecord
100
AcDbLinetypeTableRecord
  2
CENTER
 70
     0
  3
____ _ ____ _ ____ _ ____ _ ____ _ ____ _ ____
 72
    65
 73
     4
 40
2.0
 49
1.25
 74
     0
 49
-0.25
 74
     0
 49
0.25
 74
     0
 49
-0.25
 74
     0
  0
LTYPE
  5
190
100
AcDbSymbolTableRecord
100
AcDbLinetypeTableRecord
  2
HIDDEN
 70
     0
  3
_ _ _ _ _ _ _ _ _ _ _ _ _ _ _ _ _ _ _ _ _ _ _
 72
    65
 73
     2
 40
0.375
 49
0.25
 74
     0
 49
-0.125
 74
     0
  0
ENDTAB
  0
TABLE
  2
LAYER
  5
172
100
AcDbSymbolTable
 70
     3
  0
LAYER
  5
17E
100
AcDbSymbolTableRecord
100
AcDbLayerTableRecord
  2
0
 70
     0
 62
     7
  6
CONTINUOUS
  0
LAYER
  5
191
100
AcDbSymbolTableRecord
100
AcDbLayerTableRecord
  2
1
 70
     0
 62
     1
  6
CENTER
  0
LAYER
  5
192
100
AcDbSymbolTableRecord
100
AcDbLayerTableRecord
  2
2
 70
     0
 62
     2
  6
HIDDEN
  0
ENDTAB
  0
TABLE
  2
STYLE
  5
173
100
AcDbSymbolTable
 70
     1
  0
STYLE
  5
17F
100
AcDbSymbolTableRecord
100
AcDbTextStyleTableRecord
  2
STANDARD
 70
     0
 40
0.0
 41
1.0
 50
0.0
 71
     0
 42
4.0
  3
TXT
  4
BIGFONT
  0
ENDTAB
  0
TABLE
  2
VIEW
  5
176
100
AcDbSymbolTable
 70
     1
  0
VIEW
  5
193
100
AcDbSymbolTableRecord
100
AcDbViewTableRecord
  2
ALL
 70
     0
 40
270.0
 10
220.991597
 20
135.0
 41
0.0
 11
0.0
 21
0.0
 31
1.0
 12
0.0
 22
0.0
 32
0.0
 42
0.0
 43
0.0
 44
0.0
 50
0.0
 71
     0
  0
ENDTAB
  0
TABLE
  2
UCS
  5
177
100
AcDbSymbolTable
 70
     0
  0
ENDTAB
  0
TABLE
  2
APPID
  5
179
100
AcDbSymbolTable
 70
     1
  0
APPID
  5
180
100
AcDbSymbolTableRecord
100
AcDbRegAppTableRecord
  2
ACAD
 70
     0
  0
ENDTAB
  0
TABLE
  2
DIMSTYLE
  5
17A
100
AcDbSymbolTable
 70
     1
  0
DIMSTYLE
105
194
100
AcDbSymbolTableRecord
100
AcDbDimStyleTableRecord
  2
STANDARD
 70
     0
  3

  4

  5

  6

  7

 40
1.0
 41
0.18
 42
0.0625
 43
0.38
 44
0.18
 45
0.0
 46
0.0
 47
0.0
 48
0.0
140
0.18
141
0.09
142
0.0
143
25.4
144
1.0
145
0.0
146
1.0
147
0.09
 71
     0
 72
     0
 73
     1
 74
     1
 75
     0
 76
     0
 77
     0
 78
     0
170
     0
171
     2
172
     0
173
     0
174
     0
175
     0
176
     0
177
     0
178
     0
270
     2
271
     4
272
     4
273
     2
274
     2
340
17F
275
     0
280
     0
281
     0
282
     0
283
     1
284
     0
285
     0
286
     0
287
     3
288
     0
  0
ENDTAB
  0
TABLE
  2
BLOCK_RECORD
  5
171
100
AcDbSymbolTable
 70
     2
  0
BLOCK_RECORD
  5
188
100
AcDbSymbolTableRecord
100
AcDbBlockTableRecord
  2
*MODEL_SPACE
  0
BLOCK_RECORD
  5
185
100
AcDbSymbolTableRecord
100
AcDbBlockTableRecord
  2
*PAPER_SPACE
  0
BLOCK_RECORD
  5
196
100
AcDbSymbolTableRecord
100
AcDbBlockTableRecord
  2
$MODEL_SPACE
  0
BLOCK_RECORD
  5
198
100
AcDbSymbolTableRecord
100
AcDbBlockTableRecord
  2
$PAPER_SPACE
  0
ENDTAB
  0
ENDSEC
  0
SECTION
  2
BLOCKS
  0
BLOCK
  5
189
100
AcDbEntity
  8
0
100
AcDbBlockBegin
  2
*MODEL_SPACE
 70
     0
 10
0.0
 20
0.0
 30
0.0
  3
*MODEL_SPACE
  1

  0
ENDBLK
  5
18A
100
AcDbEntity
  8
0
100
AcDbBlockEnd
  0
BLOCK
  5
186
100
AcDbEntity
 67
     1
  8
0
100
AcDbBlockBegin
  2
*PAPER_SPACE
 70
     0
 10
0.0
 20
0.0
 30
0.0
  3
*PAPER_SPACE
  1

  0
ENDBLK
  5
187
100
AcDbEntity
 67
     1
  8
0
100
AcDbBlockEnd
  0
BLOCK
  5
197
100
AcDbEntity
  8
0
100
AcDbBlockBegin
  2
$MODEL_SPACE
 70
     0
 10
0.0
 20
0.0
 30
0.0
  3
$MODEL_SPACE
  1

  0
ENDBLK
  5
119
100
AcDbEntity
  8
0
100
AcDbBlockEnd
  0
BLOCK
  5
199
100
AcDbEntity
  8
0
100
AcDbBlockBegin
  2
$PAPER_SPACE
 70
     0
 10
0.0
 20
0.0
 30
0.0
  3
$PAPER_SPACE
  1

  0
ENDBLK
  5
117
100
AcDbEntity
  8
0
100
AcDbBlockEnd
  0
ENDSEC
  0
SECTION
  2
ENTITIES
  0
LINE
  5
35
100
AcDbEntity
  8
0
100
AcDbLine
 10
133.5
 20
81.5
 30
0.0
 11
227.5
 21
81.5
 31
0.0
  0
LINE
  5
36
100
AcDbEntity
  8
0
100
AcDbLine
 10
227.5
 20
81.5
 30
0.0
 11
227.145462
 21
95.039265
 31
0.0
  0
ARC
  5
37
100
AcDbEntity
  8
0
100
AcDbCircle
 10
225.645976
 20
95.0
 30
0.0
 40
1.5
100
AcDbArc
 50
1.5
 51
80.466208
  0
LINE
  5
38
100
AcDbEntity
  8
0
100
AcDbLine
 10
191.5
 20
103.5
 30
0.0
 11
224.343734
 21
103.5
 31
0.0
  0
LINE
  5
39
100
AcDbEntity
  8
0
100
AcDbLine
 10
225.343391
 20
102.526177
 30
0.0
 11
225.500098
 21
96.54177
 31
0.0
  0
ARC
  5
3A
100
AcDbEntity
  8
0
100
AcDbCircle
 10
224.343734
 20
102.5
 30
0.0
 40
1.0
100
AcDbArc
 50
1.5
 51
90.0
  0
ARC
  5
3B
100
AcDbEntity
  8
0
100
AcDbCircle
 10
191.5
 20
102.5
 30
0.0
 40
1.0
100
AcDbArc
 50
90.0
 51
180.0
  0
LINE
  5
3C
100
AcDbEntity
  8
0
100
AcDbLine
 10
190.5
 20
102.5
 30
0.0
 11
190.5
 21
102.088207
 31
0.0
  0
LINE
  5
3D
100
AcDbEntity
  8
1
100
AcDbLine
 10
216.5
 20
76.5
 30
0.0
 11
216.5
 21
158.5
 31
0.0
  0
ARC
  5
3E
100
AcDbEntity
  8
0
100
AcDbCircle
 10
224.096383
 20
104.8
 30
0.0
 40
1.0
100
AcDbArc
 50
270.0
 51
354.203031
  0
LINE
  5
3F
100
AcDbEntity
  8
0
100
AcDbLine
 10
227.0
 20
150.949974
 30
0.0
 11
227.0
 21
123.5
 31
0.0
  0
LINE
  5
40
100
AcDbEntity
  8
0
100
AcDbLine
 10
206.0
 20
123.5
 30
0.0
 11
206.0
 21
150.949974
 31
0.0
  0
LINE
  5
41
100
AcDbEntity
  8
0
100
AcDbLine
 10
207.0
 20
150.949974
 30
0.0
 11
226.0
 21
150.949974
 31
0.0
  0
ARC
  5
42
100
AcDbEntity
  8
0
100
AcDbCircle
 10
216.5
 20
103.5
 30
0.0
 40
50.0
100
AcDbArc
 50
79.551763
 51
100.448237
  0
ARC
  5
43
100
AcDbEntity
  8
0
100
AcDbCircle
 10
225.25
 20
150.949974
 30
0.0
 40
1.75
100
AcDbArc
 50
0.0
 51
79.551763
  0
ARC
  5
44
100
AcDbEntity
  8
0
100
AcDbCircle
 10
207.75
 20
150.949974
 30
0.0
 40
1.75
100
AcDbArc
 50
100.448237
 51
180.0
  0
LINE
  5
45
100
AcDbEntity
  8
0
100
AcDbLine
 10
206.0
 20
123.5
 30
0.0
 11
227.0
 21
123.5
 31
0.0
  0
LINE
  5
46
100
AcDbEntity
  8
0
100
AcDbLine
 10
207.908731
 20
104.698996
 30
0.0
 11
206.0
 21
123.5
 31
0.0
  0
LINE
  5
47
100
AcDbEntity
  8
0
100
AcDbLine
 10
225.091269
 20
104.698996
 30
0.0
 11
227.0
 21
123.5
 31
0.0
  0
LINE
  5
48
100
AcDbEntity
  8
0
100
AcDbLine
 10
208.903617
 20
103.8
 30
0.0
 11
224.096383
 21
103.8
 31
0.0
  0
LINE
  5
49
100
AcDbEntity
  8
0
100
AcDbLine
 10
221.5
 20
103.5
 30
0.0
 11
221.5
 21
103.8
 31
0.0
  0
LINE
  5
4A
100
AcDbEntity
  8
0
100
AcDbLine
 10
211.5
 20
103.8
 30
0.0
 11
211.5
 21
103.5
 31
0.0
  0
ARC
  5
4B
100
AcDbEntity
  8
0
100
AcDbCircle
 10
208.903617
 20
104.8
 30
0.0
 40
1.0
100
AcDbArc
 50
185.796969
 51
270.0
  0
LINE
  5
4C
100
AcDbEntity
  8
0
100
AcDbLine
 10
173.6
 20
80.0
 30
0.0
 11
187.4
 21
80.0
 31
0.0
  0
LINE
  5
4D
100
AcDbEntity
  8
0
100
AcDbLine
 10
187.4
 20
80.0
 30
0.0
 11
187.4
 21
81.5
 31
0.0
  0
LINE
  5
4E
100
AcDbEntity
  8
0
100
AcDbLine
 10
173.6
 20
80.0
 30
0.0
 11
173.6
 21
81.5
 31
0.0
  0
LINE
  5
4F
100
AcDbEntity
  8
0
100
AcDbLine
 10
134.18289
 20
107.578532
 30
0.0
 11
133.5
 21
81.5
 31
0.0
  0
LINE
  5
50
100
AcDbEntity
  8
2
100
AcDbLine
 10
139.5
 20
110.170083
 30
0.0
 11
139.5
 21
109.663897
 31
0.0
  0
LINE
  5
51
100
AcDbEntity
  8
2
100
AcDbLine
 10
181.5
 20
103.514403
 30
0.0
 11
181.5
 21
103.008191
 31
0.0
  0
LINE
  5
52
100
AcDbEntity
  8
2
100
AcDbLine
 10
181.5
 20
103.008191
 30
0.0
 11
139.5
 21
109.663897
 31
0.0
  0
LINE
  5
53
100
AcDbEntity
  8
2
100
AcDbLine
 10
174.0
 20
99.0
 30
0.0
 11
187.0
 21
99.0
 31
0.0
  0
LINE
  5
54
100
AcDbEntity
  8
2
100
AcDbLine
 10
173.0
 20
98.0
 30
0.0
 11
173.0
 21
81.5
 31
0.0
  0
LINE
  5
55
100
AcDbEntity
  8
2
100
AcDbLine
 10
188.0
 20
98.0
 30
0.0
 11
188.0
 21
81.5
 31
0.0
  0
LINE
  5
56
100
AcDbEntity
  8
2
100
AcDbLine
 10
175.5
 20
99.0
 30
0.0
 11
175.5
 21
81.0
 31
0.0
  0
LINE
  5
57
100
AcDbEntity
  8
2
100
AcDbLine
 10
185.5
 20
99.0
 30
0.0
 11
185.5
 21
81.0
 31
0.0
  0
LINE
  5
58
100
AcDbEntity
  8
2
100
AcDbLine
 10
174.0
 20
99.0
 30
0.0
 11
173.0
 21
98.0
 31
0.0
  0
LINE
  5
59
100
AcDbEntity
  8
2
100
AcDbLine
 10
187.0
 20
99.0
 30
0.0
 11
188.0
 21
98.0
 31
0.0
  0
LINE
  5
5A
100
AcDbEntity
  8
2
100
AcDbLine
 10
175.5
 20
81.0
 30
0.0
 11
174.5
 21
80.0
 31
0.0
  0
LINE
  5
5B
100
AcDbEntity
  8
2
100
AcDbLine
 10
185.5
 20
81.0
 30
0.0
 11
186.5
 21
80.0
 31
0.0
  0
LINE
  5
5C
100
AcDbEntity
  8
2
100
AcDbLine
 10
175.5
 20
81.0
 30
0.0
 11
185.5
 21
81.0
 31
0.0
  0
LINE
  5
5D
100
AcDbEntity
  8
0
100
AcDbLine
 10
225.89442
 20
96.479282
 30
0.0
 11
137.651744
 21
110.462973
 31
0.0
  0
LINE
  5
5E
100
AcDbEntity
  8
1
100
AcDbLine
 10
180.5
 20
108.814526
 30
0.0
 11
180.5
 21
75.0
 31
0.0
  0
ARC
  5
5F
100
AcDbEntity
  8
0
100
AcDbCircle
 10
137.181862
 20
107.5
 30
0.0
 40
3.0
100
AcDbArc
 50
80.989714
 51
178.499971
  0
CIRCLE
  5
60
100
AcDbEntity
  8
0
100
AcDbCircle
 10
180.5
 20
88.05
 30
0.0
 40
2.75
  0
LINE
  5
61
100
AcDbEntity
  8
0
100
AcDbLine
 10
225.561093
 20
220.999067
 30
0.0
 11
136.558989
 21
222.74942
 31
0.0
  0
ARC
  5
62
100
AcDbEntity
  8
0
100
AcDbCircle
 10
136.5
 20
200.25
 30
0.0
 40
3.0
100
AcDbArc
 50
180.0
 51
271.126676
  0
ARC
  5
63
100
AcDbEntity
  8
0
100
AcDbCircle
 10
136.5
 20
219.75
 30
0.0
 40
3.0
100
AcDbArc
 50
88.873301
 51
180.0
  0
LINE
  5
64
100
AcDbEntity
  8
0
100
AcDbLine
 10
133.5
 20
219.75
 30
0.0
 11
133.5
 21
200.25
 31
0.0
  0
ARC
  5
65
100
AcDbEntity
  8
0
100
AcDbCircle
 10
225.5
 20
201.0
 30
0.0
 40
2.0
100
AcDbArc
 50
271.750457
 51
0.0
  0
LINE
  5
66
100
AcDbEntity
  8
0
100
AcDbLine
 10
225.561093
 20
199.000933
 30
0.0
 11
136.558989
 21
197.25058
 31
0.0
  0
ARC
  5
67
100
AcDbEntity
  8
0
100
AcDbCircle
 10
225.5
 20
219.0
 30
0.0
 40
2.0
100
AcDbArc
 50
0.0
 51
88.249543
  0
CIRCLE
  5
68
100
AcDbEntity
  8
0
100
AcDbCircle
 10
216.5
 20
210.0
 30
0.0
 40
10.5
  0
LINE
  5
69
100
AcDbEntity
  8
1
100
AcDbLine
 10
216.5
 20
193.72402
 30
0.0
 11
216.5
 21
226.27598
 31
0.0
  0
ARC
  5
6A
100
AcDbEntity
  8
0
100
AcDbCircle
 10
180.5
 20
203.0
 30
0.0
 40
1.0
100
AcDbArc
 50
270.0
 51
0.0
  0
ARC
  5
6B
100
AcDbEntity
  8
0
100
AcDbCircle
 10
140.5
 20
203.0
 30
0.0
 40
1.0
100
AcDbArc
 50
180.0
 51
270.0
  0
ARC
  5
6C
100
AcDbEntity
  8
0
100
AcDbCircle
 10
140.5
 20
217.0
 30
0.0
 40
1.0
100
AcDbArc
 50
90.0
 51
180.0
  0
ARC
  5
6D
100
AcDbEntity
  8
0
100
AcDbCircle
 10
180.5
 20
217.0
 30
0.0
 40
1.0
100
AcDbArc
 50
0.0
 51
90.0
  0
LINE
  5
6E
100
AcDbEntity
  8
0
100
AcDbLine
 10
180.5
 20
218.0
 30
0.0
 11
140.5
 21
218.0
 31
0.0
  0
LINE
  5
6F
100
AcDbEntity
  8
0
100
AcDbLine
 10
181.5
 20
203.0
 30
0.0
 11
181.5
 21
217.0
 31
0.0
  0
LINE
  5
70
100
AcDbEntity
  8
0
100
AcDbLine
 10
140.5
 20
202.0
 30
0.0
 11
180.5
 21
202.0
 31
0.0
  0
LINE
  5
71
100
AcDbEntity
  8
0
100
AcDbLine
 10
139.5
 20
217.0
 30
0.0
 11
139.5
 21
203.0
 31
0.0
  0
ARC
  5
72
100
AcDbEntity
  8
0
100
AcDbCircle
 10
191.5
 20
202.0
 30
0.0
 40
1.0
100
AcDbArc
 50
180.0
 51
270.0
  0
ARC
  5
73
100
AcDbEntity
  8
0
100
AcDbCircle
 10
191.5
 20
218.0
 30
0.0
 40
1.0
100
AcDbArc
 50
90.0
 51
180.0
  0
LINE
  5
74
100
AcDbEntity
  8
0
100
AcDbLine
 10
191.5
 20
201.0
 30
0.0
 11
211.091673
 21
201.0
 31
0.0
  0
LINE
  5
75
100
AcDbEntity
  8
0
100
AcDbLine
 10
190.5
 20
218.0
 30
0.0
 11
190.5
 21
202.0
 31
0.0
  0
LINE
  5
76
100
AcDbEntity
  8
0
100
AcDbLine
 10
211.091673
 20
219.0
 30
0.0
 11
191.5
 21
219.0
 31
0.0
  0
LINE
  5
77
100
AcDbEntity
  8
1
100
AcDbLine
 10
128.5
 20
210.0
 30
0.0
 11
232.5
 21
210.0
 31
0.0
  0
LINE
  5
78
100
AcDbEntity
  8
1
100
AcDbLine
 10
180.5
 20
226.886224
 30
0.0
 11
180.5
 21
193.113776
 31
0.0
  0
LINE
  5
79
100
AcDbEntity
  8
0
100
AcDbLine
 10
227.5
 20
219.0
 30
0.0
 11
227.5
 21
201.0
 31
0.0
  0
LINE
  5
7A
100
AcDbEntity
  8
0
100
AcDbLine
 10
82.75
 20
81.5
 30
0.0
 11
57.25
 21
81.5
 31
0.0
  0
LINE
  5
7B
100
AcDbEntity
  8
0
100
AcDbLine
 10
57.25
 20
107.5
 30
0.0
 11
57.25
 21
81.5
 31
0.0
  0
LINE
  5
7C
100
AcDbEntity
  8
0
100
AcDbLine
 10
82.75
 20
107.5
 30
0.0
 11
82.75
 21
81.5
 31
0.0
  0
LINE
  5
7D
100
AcDbEntity
  8
0
100
AcDbLine
 10
79.75
 20
110.5
 30
0.0
 11
60.25
 21
110.5
 31
0.0
  0
ARC
  5
7E
100
AcDbEntity
  8
0
100
AcDbCircle
 10
60.25
 20
107.5
 30
0.0
 40
3.0
100
AcDbArc
 50
90.0
 51
180.0
  0
ARC
  5
7F
100
AcDbEntity
  8
0
100
AcDbCircle
 10
79.75
 20
107.5
 30
0.0
 40
3.0
100
AcDbArc
 50
360.0
 51
90.0
  0
LINE
  5
80
100
AcDbEntity
  8
1
100
AcDbLine
 10
70.0
 20
76.5
 30
0.0
 11
70.0
 21
158.5
 31
0.0
  0
LINE
  5
81
100
AcDbEntity
  8
0
100
AcDbLine
 10
63.1
 20
80.0
 30
0.0
 11
63.1
 21
81.5
 31
0.0
  0
LINE
  5
82
100
AcDbEntity
  8
0
100
AcDbLine
 10
63.1
 20
80.0
 30
0.0
 11
76.9
 21
80.0
 31
0.0
  0
LINE
  5
83
100
AcDbEntity
  8
0
100
AcDbLine
 10
76.9
 20
80.0
 30
0.0
 11
76.9
 21
81.5
 31
0.0
  0
LINE
  5
84
100
AcDbEntity
  8
0
100
AcDbLine
 10
59.5
 20
123.5
 30
0.0
 11
80.5
 21
123.5
 31
0.0
  0
ARC
  5
85
100
AcDbEntity
  8
0
100
AcDbCircle
 10
61.25
 20
150.949974
 30
0.0
 40
1.75
100
AcDbArc
 50
100.448237
 51
180.0
  0
ARC
  5
86
100
AcDbEntity
  8
0
100
AcDbCircle
 10
78.75
 20
150.949974
 30
0.0
 40
1.75
100
AcDbArc
 50
0.0
 51
79.551763
  0
ARC
  5
87
100
AcDbEntity
  8
0
100
AcDbCircle
 10
70.0
 20
103.5
 30
0.0
 40
50.0
100
AcDbArc
 50
79.551763
 51
100.448237
  0
LINE
  5
88
100
AcDbEntity
  8
0
100
AcDbLine
 10
60.5
 20
150.949974
 30
0.0
 11
79.5
 21
150.949974
 31
0.0
  0
LINE
  5
89
100
AcDbEntity
  8
0
100
AcDbLine
 10
59.5
 20
123.5
 30
0.0
 11
59.5
 21
150.949974
 31
0.0
  0
LINE
  5
8A
100
AcDbEntity
  8
0
100
AcDbLine
 10
80.5
 20
150.949974
 30
0.0
 11
80.5
 21
123.5
 31
0.0
  0
LINE
  5
8B
100
AcDbEntity
  8
0
100
AcDbLine
 10
60.819797
 20
110.5
 30
0.0
 11
59.5
 21
123.5
 31
0.0
  0
LINE
  5
8C
100
AcDbEntity
  8
0
100
AcDbLine
 10
79.180203
 20
110.5
 30
0.0
 11
80.5
 21
123.5
 31
0.0
  0
ENDSEC
  0
SECTION
  2
OBJECTS
  0
DICTIONARY
  5
17C
100
AcDbDictionary
  3
ACAD_GROUP
350
17D
  3
ACAD_MLINESTYLE
350
18B
  0
DICTIONARY
  5
17D
102
{ACAD_REACTORS
330
17C
102
}
100
AcDbDictionary
  0
DICTIONARY
  5
18B
102
{ACAD_REACTORS
330
17C
102
}
100
AcDbDictionary
  3
STANDARD
350
18C
  0
MLINESTYLE
  5
18C
102
{ACAD_REACTORS
330
18B
102
}
100
AcDbMlineStyle
  2
STANDARD
 70
     0
  3

 62
   256
 51
90.0
 52
90.0
 71
     2
 49
0.5
 62
   256
  6
BYLAYER
 49
-0.5
 62
   256
  6
BYLAYER
  0
ENDSEC
  0
EOF
