  0
SECTION
  2
HEADER
  9
$ACADVER
  1
AC1014
  9
$ACADMAINTVER
 70
     0
  9
$DWGCODEPAGE
  3
ANSI_932
  9
$INSBASE
 10
0.0
 20
0.0
 30
0.0
  9
$EXTMIN
 10
45.0
 20
55.0
 30
0.0
  9
$EXTMAX
 10
335.0
 20
228.513689
 30
0.0
  9
$LIMMIN
 10
0.0
 20
0.0
  9
$LIMMAX
 10
375.0
 20
270.0
  9
$ORTHOMODE
 70
     1
  9
$REGENMODE
 70
     1
  9
$FILLMODE
 70
     1
  9
$QTEXTMODE
 70
     0
  9
$MIRRTEXT
 70
     0
  9
$DRAGMODE
 70
     2
  9
$LTSCALE
 40
10.0
  9
$OSMODE
 70
   231
  9
$ATTMODE
 70
     1
  9
$TEXTSIZE
 40
8.0
  9
$TRACEWID
 40
0.05
  9
$TEXTSTYLE
  7
STANDARD
  9
$CLAYER
  8
0
  9
$CELTYPE
  6
BYLAYER
  9
$CECOLOR
 62
   256
  9
$CELTSCALE
 40
1.0
  9
$DELOBJ
 70
     1
  9
$DISPSILH
 70
     0
  9
$DIMSCALE
 40
1.0
  9
$DIMASZ
 40
3.0
  9
$DIMEXO
 40
2.0
  9
$DIMDLI
 40
0.38
  9
$DIMRND
 40
0.0
  9
$DIMDLE
 40
0.0
  9
$DIMEXE
 40
2.0
  9
$DIMTP
 40
0.0
  9
$DIMTM
 40
0.0
  9
$DIMTXT
 40
3.2
  9
$DIMCEN
 40
0.0
  9
$DIMTSZ
 40
0.0
  9
$DIMTOL
 70
     0
  9
$DIMLIM
 70
     0
  9
$DIMTIH
 70
     0
  9
$DIMTOH
 70
     0
  9
$DIMSE1
 70
     0
  9
$DIMSE2
 70
     0
  9
$DIMTAD
 70
     1
  9
$DIMZIN
 70
     0
  9
$DIMBLK
  1

  9
$DIMASO
 70
     1
  9
$DIMSHO
 70
     0
  9
$DIMPOST
  1

  9
$DIMAPOST
  1

  9
$DIMALT
 70
     0
  9
$DIMALTD
 70
     2
  9
$DIMALTF
 40
25.4
  9
$DIMLFAC
 40
1.0
  9
$DIMTOFL
 70
     1
  9
$DIMTVP
 40
1.6
  9
$DIMTIX
 70
     1
  9
$DIMSOXD
 70
     0
  9
$DIMSAH
 70
     0
  9
$DIMBLK1
  1

  9
$DIMBLK2
  1

  9
$DIMSTYLE
  2
STANDARD
  9
$DIMCLRD
 70
     0
  9
$DIMCLRE
 70
     0
  9
$DIMCLRT
 70
     0
  9
$DIMTFAC
 40
1.0
  9
$DIMGAP
 40
0.09
  9
$DIMJUST
 70
     0
  9
$DIMSD1
 70
     0
  9
$DIMSD2
 70
     0
  9
$DIMTOLJ
 70
     1
  9
$DIMTZIN
 70
     0
  9
$DIMALTZ
 70
     0
  9
$DIMALTTZ
 70
     0
  9
$DIMFIT
 70
     3
  9
$DIMUPT
 70
     0
  9
$DIMUNIT
 70
     2
  9
$DIMDEC
 70
     4
  9
$DIMTDEC
 70
     4
  9
$DIMALTU
 70
     2
  9
$DIMALTTD
 70
     2
  9
$DIMTXSTY
  7
STANDARD
  9
$DIMAUNIT
 70
     0
  9
$LUNITS
 70
     2
  9
$LUPREC
 70
     4
  9
$SKETCHINC
 40
0.1
  9
$FILLETRAD
 40
1.0
  9
$AUNITS
 70
     0
  9
$AUPREC
 70
     4
  9
$MENU
  1
E:\r13\win\SUPPORT\ACAD
  9
$ELEVATION
 40
0.0
  9
$PELEVATION
 40
0.0
  9
$THICKNESS
 40
0.0
  9
$LIMCHECK
 70
     0
  9
$BLIPMODE
 70
     1
  9
$CHAMFERA
 40
0.0
  9
$CHAMFERB
 40
0.0
  9
$CHAMFERC
 40
0.0
  9
$CHAMFERD
 40
0.0
  9
$SKPOLY
 70
     0
  9
$TDCREATE
 40
2449839.790196759
  9
$TDUPDATE
 40
2453557.669003356
  9
$TDINDWG
 40
0.0004732755
  9
$TDUSRTIMER
 40
0.0004732755
  9
$USRTIMER
 70
     1
  9
$ANGBASE
 50
0.0
  9
$ANGDIR
 70
     0
  9
$PDMODE
 70
     0
  9
$PDSIZE
 40
0.0
  9
$PLINEWID
 40
0.0
  9
$COORDS
 70
     0
  9
$SPLFRAME
 70
     0
  9
$SPLINETYPE
 70
     6
  9
$SPLINESEGS
 70
     8
  9
$ATTDIA
 70
     0
  9
$ATTREQ
 70
     1
  9
$HANDLING
 70
     1
  9
$HANDSEED
  5
1A4
  9
$SURFTAB1
 70
     6
  9
$SURFTAB2
 70
     6
  9
$SURFTYPE
 70
     6
  9
$SURFU
 70
     6
  9
$SURFV
 70
     6
  9
$UCSNAME
  2

  9
$UCSORG
 10
0.0
 20
0.0
 30
0.0
  9
$UCSXDIR
 10
1.0
 20
0.0
 30
0.0
  9
$UCSYDIR
 10
0.0
 20
1.0
 30
0.0
  9
$PUCSNAME
  2

  9
$PUCSORG
 10
0.0
 20
0.0
 30
0.0
  9
$PUCSXDIR
 10
1.0
 20
0.0
 30
0.0
  9
$PUCSYDIR
 10
0.0
 20
1.0
 30
0.0
  9
$USERI1
 70
     0
  9
$USERI2
 70
     1
  9
$USERI3
 70
     1
  9
$USERI4
 70
     0
  9
$USERI5
 70
     0
  9
$USERR1
 40
0.0
  9
$USERR2
 40
0.0
  9
$USERR3
 40
0.0
  9
$USERR4
 40
0.0
  9
$USERR5
 40
0.0
  9
$WORLDVIEW
 70
     1
  9
$SHADEDGE
 70
     3
  9
$SHADEDIF
 70
    70
  9
$TILEMODE
 70
     1
  9
$MAXACTVP
 70
    16
  9
$PINSBASE
 10
0.0
 20
0.0
 30
0.0
  9
$PLIMCHECK
 70
     0
  9
$PEXTMIN
 10
1.000000E+20
 20
1.000000E+20
 30
1.000000E+20
  9
$PEXTMAX
 10
-1.000000E+20
 20
-1.000000E+20
 30
-1.000000E+20
  9
$PLIMMIN
 10
0.0
 20
0.0
  9
$PLIMMAX
 10
12.0
 20
9.0
  9
$UNITMODE
 70
     0
  9
$VISRETAIN
 70
     0
  9
$PLINEGEN
 70
     0
  9
$PSLTSCALE
 70
     0
  9
$TREEDEPTH
 70
  3020
  9
$PICKSTYLE
 70
     1
  9
$CMLSTYLE
  2
STANDARD
  9
$CMLJUST
 70
     0
  9
$CMLSCALE
 40
1.0
  9
$PROXYGRAPHICS
 70
     1
  9
$MEASUREMENT
 70
     0
  0
ENDSEC
  0
SECTION
  2
CLASSES
  0
ENDSEC
  0
SECTION
  2
TABLES
  0
TABLE
  2
VPORT
  5
181
100
AcDbSymbolTable
 70
     2
  0
VPORT
  5
1A3
100
AcDbSymbolTableRecord
100
AcDbViewportTableRecord
  2
*ACTIVE
 70
     0
 10
0.0
 20
0.0
 11
1.0
 21
1.0
 12
193.717472
 22
135.0
 13
0.0
 23
0.0
 14
10.0
 24
10.0
 15
10.0
 25
10.0
 16
0.0
 26
0.0
 36
1.0
 17
0.0
 27
0.0
 37
0.0
 40
270.0
 41
1.434944
 42
50.0
 43
0.0
 44
0.0
 50
0.0
 51
0.0
 71
     0
 72
   500
 73
     1
 74
     0
 75
     0
 76
     0
 77
     0
 78
     2
  0
ENDTAB
  0
TABLE
  2
LTYPE
  5
17E
100
AcDbSymbolTable
 70
     3
  0
LTYPE
  5
18B
100
AcDbSymbolTableRecord
100
AcDbLinetypeTableRecord
  2
BYBLOCK
 70
     0
  3

 72
    65
 73
     0
 40
0.0
  0
LTYPE
  5
18C
100
AcDbSymbolTableRecord
100
AcDbLinetypeTableRecord
  2
BYLAYER
 70
     0
  3

 72
    65
 73
     0
 40
0.0
  0
LTYPE
  5
18D
100
AcDbSymbolTableRecord
100
AcDbLinetypeTableRecord
  2
CONTINUOUS
 70
     0
  3
Solid Line
 72
    65
 73
     0
 40
0.0
  0
LTYPE
  5
198
100
AcDbSymbolTableRecord
100
AcDbLinetypeTableRecord
  2
CENTER
 70
     0
  3
____ _ ____ _ ____ _ ____ _ ____ _ ____ _ ____
 72
    65
 73
     4
 40
2.0
 49
1.25
 74
     0
 49
-0.25
 74
     0
 49
0.25
 74
     0
 49
-0.25
 74
     0
  0
LTYPE
  5
199
100
AcDbSymbolTableRecord
100
AcDbLinetypeTableRecord
  2
HIDDEN
 70
     0
  3
_ _ _ _ _ _ _ _ _ _ _ _ _ _ _ _ _ _ _ _ _ _ _
 72
    65
 73
     2
 40
0.375
 49
0.25
 74
     0
 49
-0.125
 74
     0
  0
ENDTAB
  0
TABLE
  2
LAYER
  5
17B
100
AcDbSymbolTable
 70
     3
  0
LAYER
  5
187
100
AcDbSymbolTableRecord
100
AcDbLayerTableRecord
  2
0
 70
     0
 62
     7
  6
CONTINUOUS
  0
LAYER
  5
19A
100
AcDbSymbolTableRecord
100
AcDbLayerTableRecord
  2
1
 70
     0
 62
     1
  6
CENTER
  0
LAYER
  5
19B
100
AcDbSymbolTableRecord
100
AcDbLayerTableRecord
  2
2
 70
     0
 62
     2
  6
HIDDEN
  0
ENDTAB
  0
TABLE
  2
STYLE
  5
17C
100
AcDbSymbolTable
 70
     1
  0
STYLE
  5
188
100
AcDbSymbolTableRecord
100
AcDbTextStyleTableRecord
  2
STANDARD
 70
     0
 40
0.0
 41
1.0
 50
0.0
 71
     0
 42
8.0
  3
TXT
  4
BIGFONT
  0
ENDTAB
  0
TABLE
  2
VIEW
  5
17F
100
AcDbSymbolTable
 70
     1
  0
VIEW
  5
19C
100
AcDbSymbolTableRecord
100
AcDbViewTableRecord
  2
ALL
 70
     0
 40
270.0
 10
220.991597
 20
135.0
 41
0.0
 11
0.0
 21
0.0
 31
1.0
 12
0.0
 22
0.0
 32
0.0
 42
0.0
 43
0.0
 44
0.0
 50
0.0
 71
     0
  0
ENDTAB
  0
TABLE
  2
UCS
  5
180
100
AcDbSymbolTable
 70
     0
  0
ENDTAB
  0
TABLE
  2
APPID
  5
182
100
AcDbSymbolTable
 70
     1
  0
APPID
  5
189
100
AcDbSymbolTableRecord
100
AcDbRegAppTableRecord
  2
ACAD
 70
     0
  0
ENDTAB
  0
TABLE
  2
DIMSTYLE
  5
183
100
AcDbSymbolTable
 70
     1
  0
DIMSTYLE
105
19D
100
AcDbSymbolTableRecord
100
AcDbDimStyleTableRecord
  2
STANDARD
 70
     0
  3

  4

  5

  6

  7

 40
1.0
 41
0.18
 42
0.0625
 43
0.38
 44
0.18
 45
0.0
 46
0.0
 47
0.0
 48
0.0
140
0.18
141
0.09
142
0.0
143
25.4
144
1.0
145
0.0
146
1.0
147
0.09
 71
     0
 72
     0
 73
     1
 74
     1
 75
     0
 76
     0
 77
     0
 78
     0
170
     0
171
     2
172
     0
173
     0
174
     0
175
     0
176
     0
177
     0
178
     0
270
     2
271
     4
272
     4
273
     2
274
     2
340
188
275
     0
280
     0
281
     0
282
     0
283
     1
284
     0
285
     0
286
     0
287
     3
288
     0
  0
ENDTAB
  0
TABLE
  2
BLOCK_RECORD
  5
17A
100
AcDbSymbolTable
 70
     2
  0
BLOCK_RECORD
  5
191
100
AcDbSymbolTableRecord
100
AcDbBlockTableRecord
  2
*MODEL_SPACE
  0
BLOCK_RECORD
  5
18E
100
AcDbSymbolTableRecord
100
AcDbBlockTableRecord
  2
*PAPER_SPACE
  0
BLOCK_RECORD
  5
19F
100
AcDbSymbolTableRecord
100
AcDbBlockTableRecord
  2
$MODEL_SPACE
  0
BLOCK_RECORD
  5
1A1
100
AcDbSymbolTableRecord
100
AcDbBlockTableRecord
  2
$PAPER_SPACE
  0
ENDTAB
  0
ENDSEC
  0
SECTION
  2
BLOCKS
  0
BLOCK
  5
192
100
AcDbEntity
  8
0
100
AcDbBlockBegin
  2
*MODEL_SPACE
 70
     0
 10
0.0
 20
0.0
 30
0.0
  3
*MODEL_SPACE
  1

  0
ENDBLK
  5
193
100
AcDbEntity
  8
0
100
AcDbBlockEnd
  0
BLOCK
  5
18F
100
AcDbEntity
 67
     1
  8
0
100
AcDbBlockBegin
  2
*PAPER_SPACE
 70
     0
 10
0.0
 20
0.0
 30
0.0
  3
*PAPER_SPACE
  1

  0
ENDBLK
  5
190
100
AcDbEntity
 67
     1
  8
0
100
AcDbBlockEnd
  0
BLOCK
  5
1A0
100
AcDbEntity
  8
0
100
AcDbBlockBegin
  2
$MODEL_SPACE
 70
     0
 10
0.0
 20
0.0
 30
0.0
  3
$MODEL_SPACE
  1

  0
ENDBLK
  5
122
100
AcDbEntity
  8
0
100
AcDbBlockEnd
  0
BLOCK
  5
1A2
100
AcDbEntity
  8
0
100
AcDbBlockBegin
  2
$PAPER_SPACE
 70
     0
 10
0.0
 20
0.0
 30
0.0
  3
$PAPER_SPACE
  1

  0
ENDBLK
  5
120
100
AcDbEntity
  8
0
100
AcDbBlockEnd
  0
ENDSEC
  0
SECTION
  2
ENTITIES
  0
LINE
  5
35
100
AcDbEntity
  8
0
100
AcDbLine
 10
181.0
 20
60.0
 30
0.0
 11
181.0
 21
61.5
 31
0.0
  0
LINE
  5
36
100
AcDbEntity
  8
0
100
AcDbLine
 10
199.0
 20
60.0
 30
0.0
 11
199.0
 21
61.5
 31
0.0
  0
LINE
  5
37
100
AcDbEntity
  8
0
100
AcDbLine
 10
259.566904
 20
78.339265
 30
0.0
 11
260.0
 21
61.8
 31
0.0
  0
LINE
  5
38
100
AcDbEntity
  8
0
100
AcDbLine
 10
120.0
 20
61.8
 30
0.0
 11
120.828627
 21
93.443973
 31
0.0
  0
ARC
  5
39
100
AcDbEntity
  8
0
100
AcDbCircle
 10
126.326742
 20
93.3
 30
0.0
 40
5.5
100
AcDbArc
 50
81.775526
 51
178.5
  0
ARC
  5
3A
100
AcDbEntity
  8
0
100
AcDbCircle
 10
258.067418
 20
78.3
 30
0.0
 40
1.5
100
AcDbArc
 50
1.5
 51
81.776375
  0
LINE
  5
3B
100
AcDbEntity
  8
0
100
AcDbLine
 10
256.579532
 20
221.999096
 30
0.0
 11
251.729036
 21
222.109344
 31
0.0
  0
ARC
  5
3C
100
AcDbEntity
  8
0
100
AcDbCircle
 10
124.5
 20
220.5
 30
0.0
 40
4.5
100
AcDbArc
 50
88.697935
 51
180.0
  0
ARC
  5
3D
100
AcDbEntity
  8
0
100
AcDbCircle
 10
256.5
 20
218.5
 30
0.0
 40
3.5
100
AcDbArc
 50
0.0
 51
88.697935
  0
ARC
  5
3E
100
AcDbEntity
  8
0
100
AcDbCircle
 10
256.5
 20
201.5
 30
0.0
 40
3.5
100
AcDbArc
 50
271.302065
 51
0.0
  0
ARC
  5
3F
100
AcDbEntity
  8
0
100
AcDbCircle
 10
124.5
 20
199.5
 30
0.0
 40
4.5
100
AcDbArc
 50
180.0
 51
271.302065
  0
LINE
  5
40
100
AcDbEntity
  8
0
100
AcDbLine
 10
256.579532
 20
198.000904
 30
0.0
 11
251.729036
 21
197.890656
 31
0.0
  0
LINE
  5
41
100
AcDbEntity
  8
0
100
AcDbLine
 10
260.0
 20
218.5
 30
0.0
 11
260.0
 21
210.000003
 31
0.0
  0
LINE
  5
42
100
AcDbEntity
  8
0
100
AcDbLine
 10
120.0
 20
220.5
 30
0.0
 11
120.0
 21
199.5
 31
0.0
  0
LINE
  5
43
100
AcDbEntity
  8
0
100
AcDbLine
 10
238.693376
 20
220.0
 30
0.0
 11
210.0
 21
220.0
 31
0.0
  0
LINE
  5
44
100
AcDbEntity
  8
0
100
AcDbLine
 10
238.693376
 20
200.0
 30
0.0
 11
210.0
 21
200.0
 31
0.0
  0
LINE
  5
45
100
AcDbEntity
  8
0
100
AcDbLine
 10
209.0
 20
201.0
 30
0.0
 11
209.0
 21
219.0
 31
0.0
  0
ARC
  5
46
100
AcDbEntity
  8
0
100
AcDbCircle
 10
210.0
 20
219.0
 30
0.0
 40
1.0
100
AcDbArc
 50
90.0
 51
180.0
  0
ARC
  5
47
100
AcDbEntity
  8
0
100
AcDbCircle
 10
210.0
 20
201.0
 30
0.0
 40
1.0
100
AcDbArc
 50
180.0
 51
270.0
  0
LINE
  5
48
100
AcDbEntity
  8
0
100
AcDbLine
 10
195.0
 20
218.5
 30
0.0
 11
195.0
 21
201.5
 31
0.0
  0
LINE
  5
49
100
AcDbEntity
  8
0
100
AcDbLine
 10
194.0
 20
200.5
 30
0.0
 11
133.0
 21
200.5
 31
0.0
  0
LINE
  5
4A
100
AcDbEntity
  8
0
100
AcDbLine
 10
132.0
 20
201.5
 30
0.0
 11
132.0
 21
218.5
 31
0.0
  0
LINE
  5
4B
100
AcDbEntity
  8
0
100
AcDbLine
 10
133.0
 20
219.5
 30
0.0
 11
194.0
 21
219.5
 31
0.0
  0
ARC
  5
4C
100
AcDbEntity
  8
0
100
AcDbCircle
 10
194.0
 20
218.5
 30
0.0
 40
1.0
100
AcDbArc
 50
0.0
 51
90.0
  0
ARC
  5
4D
100
AcDbEntity
  8
0
100
AcDbCircle
 10
194.0
 20
201.5
 30
0.0
 40
1.0
100
AcDbArc
 50
270.0
 51
0.0
  0
ARC
  5
4E
100
AcDbEntity
  8
0
100
AcDbCircle
 10
133.0
 20
201.5
 30
0.0
 40
1.0
100
AcDbArc
 50
180.0
 51
270.0
  0
ARC
  5
4F
100
AcDbEntity
  8
0
100
AcDbCircle
 10
133.0
 20
218.5
 30
0.0
 40
1.0
100
AcDbArc
 50
90.0
 51
180.0
  0
LINE
  5
50
100
AcDbEntity
  8
1
100
AcDbLine
 10
190.0
 20
228.513689
 30
0.0
 11
190.0
 21
191.486311
 31
0.0
  0
CIRCLE
  5
51
100
AcDbEntity
  8
0
100
AcDbCircle
 10
247.0
 20
210.0
 30
0.0
 40
13.0
  0
LINE
  5
52
100
AcDbEntity
  8
1
100
AcDbLine
 10
247.0
 20
228.0
 30
0.0
 11
247.0
 21
192.0
 31
0.0
  0
LINE
  5
53
100
AcDbEntity
  8
0
100
AcDbLine
 10
242.826036
 20
197.688297
 30
0.0
 11
124.602255
 21
195.001162
 31
0.0
  0
LINE
  5
54
100
AcDbEntity
  8
0
100
AcDbLine
 10
260.0
 20
209.999997
 30
0.0
 11
260.0
 21
201.5
 31
0.0
  0
LINE
  5
55
100
AcDbEntity
  8
0
100
AcDbLine
 10
242.826036
 20
222.311703
 30
0.0
 11
124.602255
 21
224.998838
 31
0.0
  0
LINE
  5
56
100
AcDbEntity
  8
1
100
AcDbLine
 10
115.0
 20
210.0
 30
0.0
 11
265.0
 21
210.0
 31
0.0
  0
LINE
  5
57
100
AcDbEntity
  8
0
100
AcDbLine
 10
209.999375
 20
87.8
 30
0.0
 11
255.818912
 21
87.8
 31
0.0
  0
LINE
  5
58
100
AcDbEntity
  8
0
100
AcDbLine
 10
256.818569
 20
86.826177
 30
0.0
 11
257.0
 21
79.897601
 31
0.0
  0
ARC
  5
59
100
AcDbEntity
  8
0
100
AcDbCircle
 10
255.818912
 20
86.8
 30
0.0
 40
1.0
100
AcDbArc
 50
1.5
 51
90.0
  0
ARC
  5
5A
100
AcDbEntity
  8
0
100
AcDbCircle
 10
209.999375
 20
86.8
 30
0.0
 40
1.0
100
AcDbArc
 50
90.0
 51
173.859482
  0
LINE
  5
5B
100
AcDbEntity
  8
0
100
AcDbLine
 10
241.0
 20
88.1
 30
0.0
 11
241.0
 21
87.8
 31
0.0
  0
LINE
  5
5C
100
AcDbEntity
  8
0
100
AcDbLine
 10
253.0
 20
87.8
 30
0.0
 11
253.0
 21
88.1
 31
0.0
  0
LINE
  5
5D
100
AcDbEntity
  8
0
100
AcDbLine
 10
236.422885
 20
89.016122
 30
0.0
 11
234.0
 21
117.8
 31
0.0
  0
LINE
  5
5E
100
AcDbEntity
  8
0
100
AcDbLine
 10
234.0
 20
117.8
 30
0.0
 11
260.0
 21
117.8
 31
0.0
  0
ARC
  5
5F
100
AcDbEntity
  8
0
100
AcDbCircle
 10
237.419361
 20
89.1
 30
0.0
 40
1.0
100
AcDbArc
 50
184.811535
 51
270.0
  0
ARC
  5
60
100
AcDbEntity
  8
0
100
AcDbCircle
 10
256.580639
 20
89.1
 30
0.0
 40
1.0
100
AcDbArc
 50
270.0
 51
355.188465
  0
LINE
  5
61
100
AcDbEntity
  8
0
100
AcDbLine
 10
257.577115
 20
89.016122
 30
0.0
 11
260.0
 21
117.8
 31
0.0
  0
LINE
  5
62
100
AcDbEntity
  8
0
100
AcDbLine
 10
237.419361
 20
88.1
 30
0.0
 11
256.580639
 21
88.1
 31
0.0
  0
ARC
  5
63
100
AcDbEntity
  8
0
100
AcDbCircle
 10
236.25
 20
164.324187
 30
0.0
 40
2.25
100
AcDbArc
 50
103.010575
 51
180.0
  0
ARC
  5
64
100
AcDbEntity
  8
0
100
AcDbCircle
 10
257.75
 20
164.324187
 30
0.0
 40
2.25
100
AcDbArc
 50
0.0
 51
76.989425
  0
ARC
  5
65
100
AcDbEntity
  8
0
100
AcDbCircle
 10
247.0
 20
117.8
 30
0.0
 40
50.0
100
AcDbArc
 50
76.989425
 51
103.010575
  0
LINE
  5
66
100
AcDbEntity
  8
0
100
AcDbLine
 10
235.5
 20
164.324187
 30
0.0
 11
258.5
 21
164.324187
 31
0.0
  0
LINE
  5
67
100
AcDbEntity
  8
0
100
AcDbLine
 10
234.0
 20
164.324187
 30
0.0
 11
234.0
 21
117.8
 31
0.0
  0
LINE
  5
68
100
AcDbEntity
  8
0
100
AcDbLine
 10
260.0
 20
164.324187
 30
0.0
 11
260.0
 21
117.8
 31
0.0
  0
LINE
  5
69
100
AcDbEntity
  8
1
100
AcDbLine
 10
247.0
 20
56.8
 30
0.0
 11
247.0
 21
172.8
 31
0.0
  0
LINE
  5
6A
100
AcDbEntity
  8
1
100
AcDbLine
 10
190.0
 20
94.705891
 30
0.0
 11
190.0
 21
55.0
 31
0.0
  0
LINE
  5
6B
100
AcDbEntity
  8
0
100
AcDbLine
 10
258.281974
 20
79.784576
 30
0.0
 11
127.113526
 21
98.743434
 31
0.0
  0
LINE
  5
6C
100
AcDbEntity
  8
0
100
AcDbLine
 10
260.0
 20
61.8
 30
0.0
 11
120.0
 21
61.8
 31
0.0
  0
LINE
  5
6D
100
AcDbEntity
  8
0
100
AcDbLine
 10
199.5
 20
61.5
 30
0.0
 11
180.5
 21
61.5
 31
0.0
  0
LINE
  5
6E
100
AcDbEntity
  8
2
100
AcDbLine
 10
198.5
 20
77.8
 30
0.0
 11
181.5
 21
77.8
 31
0.0
  0
LINE
  5
6F
100
AcDbEntity
  8
2
100
AcDbLine
 10
184.0
 20
77.8
 30
0.0
 11
184.0
 21
60.5
 31
0.0
  0
LINE
  5
70
100
AcDbEntity
  8
2
100
AcDbLine
 10
196.0
 20
77.8
 30
0.0
 11
196.0
 21
60.5
 31
0.0
  0
LINE
  5
71
100
AcDbEntity
  8
0
100
AcDbLine
 10
199.0
 20
60.0
 30
0.0
 11
181.0
 21
60.0
 31
0.0
  0
LINE
  5
72
100
AcDbEntity
  8
2
100
AcDbLine
 10
198.5
 20
77.8
 30
0.0
 11
199.5
 21
76.8
 31
0.0
  0
LINE
  5
73
100
AcDbEntity
  8
2
100
AcDbLine
 10
181.5
 20
77.8
 30
0.0
 11
180.5
 21
76.8
 31
0.0
  0
LINE
  5
74
100
AcDbEntity
  8
2
100
AcDbLine
 10
184.0
 20
60.5
 30
0.0
 11
183.5
 21
60.0
 31
0.0
  0
LINE
  5
75
100
AcDbEntity
  8
2
100
AcDbLine
 10
196.0
 20
60.5
 30
0.0
 11
196.5
 21
60.0
 31
0.0
  0
LINE
  5
76
100
AcDbEntity
  8
2
100
AcDbLine
 10
184.0
 20
60.5
 30
0.0
 11
196.0
 21
60.5
 31
0.0
  0
LINE
  5
77
100
AcDbEntity
  8
2
100
AcDbLine
 10
132.0
 20
98.037151
 30
0.0
 11
132.0
 21
97.531956
 31
0.0
  0
LINE
  5
78
100
AcDbEntity
  8
2
100
AcDbLine
 10
195.0
 20
88.931242
 30
0.0
 11
195.0
 21
88.426046
 31
0.0
  0
LINE
  5
79
100
AcDbEntity
  8
2
100
AcDbLine
 10
195.0
 20
88.426046
 30
0.0
 11
132.0
 21
97.531956
 31
0.0
  0
LINE
  5
7A
100
AcDbEntity
  8
0
100
AcDbLine
 10
180.5
 20
61.8
 30
0.0
 11
180.5
 21
61.5
 31
0.0
  0
LINE
  5
7B
100
AcDbEntity
  8
2
100
AcDbLine
 10
180.5
 20
76.8
 30
0.0
 11
180.5
 21
61.8
 31
0.0
  0
LINE
  5
7C
100
AcDbEntity
  8
0
100
AcDbLine
 10
199.5
 20
61.8
 30
0.0
 11
199.5
 21
61.5
 31
0.0
  0
LINE
  5
7D
100
AcDbEntity
  8
2
100
AcDbLine
 10
199.5
 20
76.8
 30
0.0
 11
199.5
 21
61.8
 31
0.0
  0
LINE
  5
7E
100
AcDbEntity
  8
0
100
AcDbLine
 10
75.0
 20
61.8
 30
0.0
 11
45.0
 21
61.8
 31
0.0
  0
LINE
  5
7F
100
AcDbEntity
  8
0
100
AcDbLine
 10
45.0
 20
93.3
 30
0.0
 11
45.0
 21
61.8
 31
0.0
  0
LINE
  5
80
100
AcDbEntity
  8
0
100
AcDbLine
 10
75.0
 20
93.3
 30
0.0
 11
75.0
 21
61.8
 31
0.0
  0
LINE
  5
81
100
AcDbEntity
  8
0
100
AcDbLine
 10
69.5
 20
98.8
 30
0.0
 11
50.5
 21
98.8
 31
0.0
  0
LINE
  5
82
100
AcDbEntity
  8
1
100
AcDbLine
 10
60.0
 20
56.8
 30
0.0
 11
60.0
 21
172.8
 31
0.0
  0
LINE
  5
83
100
AcDbEntity
  8
0
100
AcDbLine
 10
50.5
 20
61.8
 30
0.0
 11
50.5
 21
61.5
 31
0.0
  0
LINE
  5
84
100
AcDbEntity
  8
0
100
AcDbLine
 10
69.5
 20
61.5
 30
0.0
 11
50.5
 21
61.5
 31
0.0
  0
LINE
  5
85
100
AcDbEntity
  8
0
100
AcDbLine
 10
51.0
 20
60.0
 30
0.0
 11
51.0
 21
61.5
 31
0.0
  0
LINE
  5
86
100
AcDbEntity
  8
0
100
AcDbLine
 10
69.0
 20
60.0
 30
0.0
 11
51.0
 21
60.0
 31
0.0
  0
LINE
  5
87
100
AcDbEntity
  8
0
100
AcDbLine
 10
69.0
 20
60.0
 30
0.0
 11
69.0
 21
61.5
 31
0.0
  0
LINE
  5
88
100
AcDbEntity
  8
0
100
AcDbLine
 10
69.5
 20
61.8
 30
0.0
 11
69.5
 21
61.5
 31
0.0
  0
CIRCLE
  5
89
100
AcDbEntity
  8
0
100
AcDbCircle
 10
190.0
 20
69.75
 30
0.0
 40
2.75
  0
ARC
  5
94
100
AcDbEntity
  8
0
100
AcDbCircle
 10
69.5
 20
93.3
 30
0.0
 40
5.5
100
AcDbArc
 50
0.0
 51
90.0
  0
ARC
  5
95
100
AcDbEntity
  8
0
100
AcDbCircle
 10
50.5
 20
93.3
 30
0.0
 40
5.5
100
AcDbArc
 50
90.0
 51
180.0
  0
LINE
  5
96
100
AcDbEntity
  8
0
100
AcDbLine
 10
73.0
 20
164.324187
 30
0.0
 11
73.0
 21
117.8
 31
0.0
  0
LINE
  5
97
100
AcDbEntity
  8
0
100
AcDbLine
 10
47.0
 20
164.324187
 30
0.0
 11
47.0
 21
117.8
 31
0.0
  0
LINE
  5
98
100
AcDbEntity
  8
0
100
AcDbLine
 10
48.5
 20
164.324187
 30
0.0
 11
71.5
 21
164.324187
 31
0.0
  0
ARC
  5
99
100
AcDbEntity
  8
0
100
AcDbCircle
 10
60.0
 20
117.8
 30
0.0
 40
50.0
100
AcDbArc
 50
76.989425
 51
103.010575
  0
ARC
  5
9A
100
AcDbEntity
  8
0
100
AcDbCircle
 10
70.75
 20
164.324187
 30
0.0
 40
2.25
100
AcDbArc
 50
0.0
 51
76.989425
  0
ARC
  5
9B
100
AcDbEntity
  8
0
100
AcDbCircle
 10
49.25
 20
164.324187
 30
0.0
 40
2.25
100
AcDbArc
 50
103.010575
 51
180.0
  0
LINE
  5
9C
100
AcDbEntity
  8
0
100
AcDbLine
 10
47.0
 20
117.8
 30
0.0
 11
73.0
 21
117.8
 31
0.0
  0
LINE
  5
9D
100
AcDbEntity
  8
0
100
AcDbLine
 10
48.626999
 20
98.471254
 30
0.0
 11
47.0
 21
117.8
 31
0.0
  0
LINE
  5
9E
100
AcDbEntity
  8
0
100
AcDbLine
 10
71.373001
 20
98.471254
 30
0.0
 11
73.0
 21
117.8
 31
0.0
  0
ENDSEC
  0
SECTION
  2
OBJECTS
  0
DICTIONARY
  5
185
100
AcDbDictionary
  3
ACAD_GROUP
350
186
  3
ACAD_MLINESTYLE
350
194
  0
DICTIONARY
  5
186
102
{ACAD_REACTORS
330
185
102
}
100
AcDbDictionary
  0
DICTIONARY
  5
194
102
{ACAD_REACTORS
330
185
102
}
100
AcDbDictionary
  3
STANDARD
350
195
  0
MLINESTYLE
  5
195
102
{ACAD_REACTORS
330
194
102
}
100
AcDbMlineStyle
  2
STANDARD
 70
     0
  3

 62
   256
 51
90.0
 52
90.0
 71
     2
 49
0.5
 62
   256
  6
BYLAYER
 49
-0.5
 62
   256
  6
BYLAYER
  0
ENDSEC
  0
EOF
