  0
SECTION
  2
HEADER
  9
$ACADVER
  1
AC1014
  9
$ACADMAINTVER
 70
     0
  9
$DWGCODEPAGE
  3
ANSI_932
  9
$INSBASE
 10
0.0
 20
0.0
 30
0.0
  9
$EXTMIN
 10
66.5
 20
55.0
 30
0.0
  9
$EXTMAX
 10
323.5
 20
237.270819
 30
0.0
  9
$LIMMIN
 10
0.0
 20
0.0
  9
$LIMMAX
 10
375.0
 20
270.0
  9
$ORTHOMODE
 70
     1
  9
$REGENMODE
 70
     1
  9
$FILLMODE
 70
     1
  9
$QTEXTMODE
 70
     0
  9
$MIRRTEXT
 70
     0
  9
$DRAGMODE
 70
     2
  9
$LTSCALE
 40
10.0
  9
$OSMODE
 70
   231
  9
$ATTMODE
 70
     1
  9
$TEXTSIZE
 40
4.0
  9
$TRACEWID
 40
0.05
  9
$TEXTSTYLE
  7
STANDARD
  9
$CLAYER
  8
0
  9
$CELTYPE
  6
BYLAYER
  9
$CECOLOR
 62
   256
  9
$CELTSCALE
 40
1.0
  9
$DELOBJ
 70
     1
  9
$DISPSILH
 70
     0
  9
$DIMSCALE
 40
1.0
  9
$DIMASZ
 40
3.0
  9
$DIMEXO
 40
2.0
  9
$DIMDLI
 40
0.38
  9
$DIMRND
 40
0.0
  9
$DIMDLE
 40
0.0
  9
$DIMEXE
 40
2.0
  9
$DIMTP
 40
0.0
  9
$DIMTM
 40
0.0
  9
$DIMTXT
 40
3.2
  9
$DIMCEN
 40
0.0
  9
$DIMTSZ
 40
0.0
  9
$DIMTOL
 70
     0
  9
$DIMLIM
 70
     0
  9
$DIMTIH
 70
     0
  9
$DIMTOH
 70
     0
  9
$DIMSE1
 70
     0
  9
$DIMSE2
 70
     0
  9
$DIMTAD
 70
     1
  9
$DIMZIN
 70
     0
  9
$DIMBLK
  1

  9
$DIMASO
 70
     1
  9
$DIMSHO
 70
     0
  9
$DIMPOST
  1

  9
$DIMAPOST
  1

  9
$DIMALT
 70
     0
  9
$DIMALTD
 70
     2
  9
$DIMALTF
 40
25.4
  9
$DIMLFAC
 40
1.0
  9
$DIMTOFL
 70
     1
  9
$DIMTVP
 40
1.6
  9
$DIMTIX
 70
     1
  9
$DIMSOXD
 70
     0
  9
$DIMSAH
 70
     0
  9
$DIMBLK1
  1

  9
$DIMBLK2
  1

  9
$DIMSTYLE
  2
STANDARD
  9
$DIMCLRD
 70
     0
  9
$DIMCLRE
 70
     0
  9
$DIMCLRT
 70
     0
  9
$DIMTFAC
 40
1.0
  9
$DIMGAP
 40
0.09
  9
$DIMJUST
 70
     0
  9
$DIMSD1
 70
     0
  9
$DIMSD2
 70
     0
  9
$DIMTOLJ
 70
     1
  9
$DIMTZIN
 70
     0
  9
$DIMALTZ
 70
     0
  9
$DIMALTTZ
 70
     0
  9
$DIMFIT
 70
     3
  9
$DIMUPT
 70
     0
  9
$DIMUNIT
 70
     2
  9
$DIMDEC
 70
     4
  9
$DIMTDEC
 70
     4
  9
$DIMALTU
 70
     2
  9
$DIMALTTD
 70
     2
  9
$DIMTXSTY
  7
STANDARD
  9
$DIMAUNIT
 70
     0
  9
$LUNITS
 70
     2
  9
$LUPREC
 70
     4
  9
$SKETCHINC
 40
0.1
  9
$FILLETRAD
 40
1.0
  9
$AUNITS
 70
     0
  9
$AUPREC
 70
     4
  9
$MENU
  1
E:\r13\win\SUPPORT\ACAD
  9
$ELEVATION
 40
0.0
  9
$PELEVATION
 40
0.0
  9
$THICKNESS
 40
0.0
  9
$LIMCHECK
 70
     0
  9
$BLIPMODE
 70
     1
  9
$CHAMFERA
 40
0.0
  9
$CHAMFERB
 40
0.0
  9
$CHAMFERC
 40
0.0
  9
$CHAMFERD
 40
0.0
  9
$SKPOLY
 70
     0
  9
$TDCREATE
 40
2449839.790173611
  9
$TDUPDATE
 40
2453557.667461470
  9
$TDINDWG
 40
0.0004022106
  9
$TDUSRTIMER
 40
0.0004022106
  9
$USRTIMER
 70
     1
  9
$ANGBASE
 50
0.0
  9
$ANGDIR
 70
     0
  9
$PDMODE
 70
     0
  9
$PDSIZE
 40
0.0
  9
$PLINEWID
 40
0.0
  9
$COORDS
 70
     0
  9
$SPLFRAME
 70
     0
  9
$SPLINETYPE
 70
     6
  9
$SPLINESEGS
 70
     8
  9
$ATTDIA
 70
     0
  9
$ATTREQ
 70
     1
  9
$HANDLING
 70
     1
  9
$HANDSEED
  5
19B
  9
$SURFTAB1
 70
     6
  9
$SURFTAB2
 70
     6
  9
$SURFTYPE
 70
     6
  9
$SURFU
 70
     6
  9
$SURFV
 70
     6
  9
$UCSNAME
  2

  9
$UCSORG
 10
0.0
 20
0.0
 30
0.0
  9
$UCSXDIR
 10
1.0
 20
0.0
 30
0.0
  9
$UCSYDIR
 10
0.0
 20
1.0
 30
0.0
  9
$PUCSNAME
  2

  9
$PUCSORG
 10
0.0
 20
0.0
 30
0.0
  9
$PUCSXDIR
 10
1.0
 20
0.0
 30
0.0
  9
$PUCSYDIR
 10
0.0
 20
1.0
 30
0.0
  9
$USERI1
 70
     0
  9
$USERI2
 70
     1
  9
$USERI3
 70
     1
  9
$USERI4
 70
     0
  9
$USERI5
 70
     0
  9
$USERR1
 40
0.0
  9
$USERR2
 40
0.0
  9
$USERR3
 40
0.0
  9
$USERR4
 40
0.0
  9
$USERR5
 40
0.0
  9
$WORLDVIEW
 70
     1
  9
$SHADEDGE
 70
     3
  9
$SHADEDIF
 70
    70
  9
$TILEMODE
 70
     1
  9
$MAXACTVP
 70
    16
  9
$PINSBASE
 10
0.0
 20
0.0
 30
0.0
  9
$PLIMCHECK
 70
     0
  9
$PEXTMIN
 10
1.000000E+20
 20
1.000000E+20
 30
1.000000E+20
  9
$PEXTMAX
 10
-1.000000E+20
 20
-1.000000E+20
 30
-1.000000E+20
  9
$PLIMMIN
 10
0.0
 20
0.0
  9
$PLIMMAX
 10
12.0
 20
9.0
  9
$UNITMODE
 70
     0
  9
$VISRETAIN
 70
     0
  9
$PLINEGEN
 70
     0
  9
$PSLTSCALE
 70
     0
  9
$TREEDEPTH
 70
  3020
  9
$PICKSTYLE
 70
     1
  9
$CMLSTYLE
  2
STANDARD
  9
$CMLJUST
 70
     0
  9
$CMLSCALE
 40
1.0
  9
$PROXYGRAPHICS
 70
     1
  9
$MEASUREMENT
 70
     0
  0
ENDSEC
  0
SECTION
  2
CLASSES
  0
ENDSEC
  0
SECTION
  2
TABLES
  0
TABLE
  2
VPORT
  5
178
100
AcDbSymbolTable
 70
     2
  0
VPORT
  5
19A
100
AcDbSymbolTableRecord
100
AcDbViewportTableRecord
  2
*ACTIVE
 70
     0
 10
0.0
 20
0.0
 11
1.0
 21
1.0
 12
193.717472
 22
135.0
 13
0.0
 23
0.0
 14
10.0
 24
10.0
 15
10.0
 25
10.0
 16
0.0
 26
0.0
 36
1.0
 17
0.0
 27
0.0
 37
0.0
 40
270.0
 41
1.434944
 42
50.0
 43
0.0
 44
0.0
 50
0.0
 51
0.0
 71
     0
 72
   500
 73
     1
 74
     0
 75
     0
 76
     0
 77
     0
 78
     2
  0
ENDTAB
  0
TABLE
  2
LTYPE
  5
175
100
AcDbSymbolTable
 70
     3
  0
LTYPE
  5
182
100
AcDbSymbolTableRecord
100
AcDbLinetypeTableRecord
  2
BYBLOCK
 70
     0
  3

 72
    65
 73
     0
 40
0.0
  0
LTYPE
  5
183
100
AcDbSymbolTableRecord
100
AcDbLinetypeTableRecord
  2
BYLAYER
 70
     0
  3

 72
    65
 73
     0
 40
0.0
  0
LTYPE
  5
184
100
AcDbSymbolTableRecord
100
AcDbLinetypeTableRecord
  2
CONTINUOUS
 70
     0
  3
Solid Line
 72
    65
 73
     0
 40
0.0
  0
LTYPE
  5
18F
100
AcDbSymbolTableRecord
100
AcDbLinetypeTableRecord
  2
CENTER
 70
     0
  3
____ _ ____ _ ____ _ ____ _ ____ _ ____ _ ____
 72
    65
 73
     4
 40
2.0
 49
1.25
 74
     0
 49
-0.25
 74
     0
 49
0.25
 74
     0
 49
-0.25
 74
     0
  0
LTYPE
  5
190
100
AcDbSymbolTableRecord
100
AcDbLinetypeTableRecord
  2
HIDDEN
 70
     0
  3
_ _ _ _ _ _ _ _ _ _ _ _ _ _ _ _ _ _ _ _ _ _ _
 72
    65
 73
     2
 40
0.375
 49
0.25
 74
     0
 49
-0.125
 74
     0
  0
ENDTAB
  0
TABLE
  2
LAYER
  5
172
100
AcDbSymbolTable
 70
     3
  0
LAYER
  5
17E
100
AcDbSymbolTableRecord
100
AcDbLayerTableRecord
  2
0
 70
     0
 62
     7
  6
CONTINUOUS
  0
LAYER
  5
191
100
AcDbSymbolTableRecord
100
AcDbLayerTableRecord
  2
1
 70
     0
 62
     1
  6
CENTER
  0
LAYER
  5
192
100
AcDbSymbolTableRecord
100
AcDbLayerTableRecord
  2
2
 70
     0
 62
     2
  6
HIDDEN
  0
ENDTAB
  0
TABLE
  2
STYLE
  5
173
100
AcDbSymbolTable
 70
     1
  0
STYLE
  5
17F
100
AcDbSymbolTableRecord
100
AcDbTextStyleTableRecord
  2
STANDARD
 70
     0
 40
0.0
 41
1.0
 50
0.0
 71
     0
 42
4.0
  3
TXT
  4
BIGFONT
  0
ENDTAB
  0
TABLE
  2
VIEW
  5
176
100
AcDbSymbolTable
 70
     1
  0
VIEW
  5
193
100
AcDbSymbolTableRecord
100
AcDbViewTableRecord
  2
ALL
 70
     0
 40
270.0
 10
220.991597
 20
135.0
 41
0.0
 11
0.0
 21
0.0
 31
1.0
 12
0.0
 22
0.0
 32
0.0
 42
0.0
 43
0.0
 44
0.0
 50
0.0
 71
     0
  0
ENDTAB
  0
TABLE
  2
UCS
  5
177
100
AcDbSymbolTable
 70
     0
  0
ENDTAB
  0
TABLE
  2
APPID
  5
179
100
AcDbSymbolTable
 70
     1
  0
APPID
  5
180
100
AcDbSymbolTableRecord
100
AcDbRegAppTableRecord
  2
ACAD
 70
     0
  0
ENDTAB
  0
TABLE
  2
DIMSTYLE
  5
17A
100
AcDbSymbolTable
 70
     1
  0
DIMSTYLE
105
194
100
AcDbSymbolTableRecord
100
AcDbDimStyleTableRecord
  2
STANDARD
 70
     0
  3

  4

  5

  6

  7

 40
1.0
 41
0.18
 42
0.0625
 43
0.38
 44
0.18
 45
0.0
 46
0.0
 47
0.0
 48
0.0
140
0.18
141
0.09
142
0.0
143
25.4
144
1.0
145
0.0
146
1.0
147
0.09
 71
     0
 72
     0
 73
     1
 74
     1
 75
     0
 76
     0
 77
     0
 78
     0
170
     0
171
     2
172
     0
173
     0
174
     0
175
     0
176
     0
177
     0
178
     0
270
     2
271
     4
272
     4
273
     2
274
     2
340
17F
275
     0
280
     0
281
     0
282
     0
283
     1
284
     0
285
     0
286
     0
287
     3
288
     0
  0
ENDTAB
  0
TABLE
  2
BLOCK_RECORD
  5
171
100
AcDbSymbolTable
 70
     2
  0
BLOCK_RECORD
  5
188
100
AcDbSymbolTableRecord
100
AcDbBlockTableRecord
  2
*MODEL_SPACE
  0
BLOCK_RECORD
  5
185
100
AcDbSymbolTableRecord
100
AcDbBlockTableRecord
  2
*PAPER_SPACE
  0
BLOCK_RECORD
  5
196
100
AcDbSymbolTableRecord
100
AcDbBlockTableRecord
  2
$MODEL_SPACE
  0
BLOCK_RECORD
  5
198
100
AcDbSymbolTableRecord
100
AcDbBlockTableRecord
  2
$PAPER_SPACE
  0
ENDTAB
  0
ENDSEC
  0
SECTION
  2
BLOCKS
  0
BLOCK
  5
189
100
AcDbEntity
  8
0
100
AcDbBlockBegin
  2
*MODEL_SPACE
 70
     0
 10
0.0
 20
0.0
 30
0.0
  3
*MODEL_SPACE
  1

  0
ENDBLK
  5
18A
100
AcDbEntity
  8
0
100
AcDbBlockEnd
  0
BLOCK
  5
186
100
AcDbEntity
 67
     1
  8
0
100
AcDbBlockBegin
  2
*PAPER_SPACE
 70
     0
 10
0.0
 20
0.0
 30
0.0
  3
*PAPER_SPACE
  1

  0
ENDBLK
  5
187
100
AcDbEntity
 67
     1
  8
0
100
AcDbBlockEnd
  0
BLOCK
  5
197
100
AcDbEntity
  8
0
100
AcDbBlockBegin
  2
$MODEL_SPACE
 70
     0
 10
0.0
 20
0.0
 30
0.0
  3
$MODEL_SPACE
  1

  0
ENDBLK
  5
119
100
AcDbEntity
  8
0
100
AcDbBlockEnd
  0
BLOCK
  5
199
100
AcDbEntity
  8
0
100
AcDbBlockBegin
  2
$PAPER_SPACE
 70
     0
 10
0.0
 20
0.0
 30
0.0
  3
$PAPER_SPACE
  1

  0
ENDBLK
  5
117
100
AcDbEntity
  8
0
100
AcDbBlockEnd
  0
ENDSEC
  0
SECTION
  2
ENTITIES
  0
LINE
  5
35
100
AcDbEntity
  8
1
100
AcDbLine
 10
190.0
 20
92.047812
 30
0.0
 11
190.0
 21
55.0
 31
0.0
  0
LINE
  5
36
100
AcDbEntity
  8
0
100
AcDbLine
 10
135.249726
 20
90.430883
 30
0.0
 11
134.5
 21
61.8
 31
0.0
  0
LINE
  5
37
100
AcDbEntity
  8
0
100
AcDbLine
 10
134.5
 20
61.8
 30
0.0
 11
245.0
 21
61.8
 31
0.0
  0
LINE
  5
38
100
AcDbEntity
  8
0
100
AcDbLine
 10
245.0
 20
61.8
 30
0.0
 11
244.619276
 21
76.339265
 31
0.0
  0
LINE
  5
39
100
AcDbEntity
  8
0
100
AcDbLine
 10
141.088895
 20
95.228784
 30
0.0
 11
243.380338
 21
77.777198
 31
0.0
  0
ARC
  5
3A
100
AcDbEntity
  8
0
100
AcDbCircle
 10
243.11979
 20
76.3
 30
0.0
 40
1.5
100
AcDbArc
 50
1.5
 51
79.997053
  0
LINE
  5
3B
100
AcDbEntity
  8
0
100
AcDbLine
 10
204.0
 20
85.8
 30
0.0
 11
241.817515
 21
85.8
 31
0.0
  0
LINE
  5
3C
100
AcDbEntity
  8
0
100
AcDbLine
 10
242.817173
 20
84.826177
 30
0.0
 11
243.000041
 21
77.84272
 31
0.0
  0
ARC
  5
3D
100
AcDbEntity
  8
0
100
AcDbCircle
 10
241.817515
 20
84.8
 30
0.0
 40
1.0
100
AcDbArc
 50
1.5
 51
90.0
  0
ARC
  5
3E
100
AcDbEntity
  8
0
100
AcDbCircle
 10
204.0
 20
84.8
 30
0.0
 40
1.0
100
AcDbArc
 50
90.0
 51
174.340137
  0
LINE
  5
3F
100
AcDbEntity
  8
0
100
AcDbLine
 10
228.0
 20
86.1
 30
0.0
 11
228.0
 21
85.8
 31
0.0
  0
LINE
  5
40
100
AcDbEntity
  8
0
100
AcDbLine
 10
240.0
 20
85.8
 30
0.0
 11
240.0
 21
86.1
 31
0.0
  0
LINE
  5
41
100
AcDbEntity
  8
0
100
AcDbLine
 10
222.5
 20
112.8
 30
0.0
 11
224.430689
 21
87.025303
 31
0.0
  0
ARC
  5
42
100
AcDbEntity
  8
0
100
AcDbCircle
 10
225.427895
 20
87.1
 30
0.0
 40
1.0
100
AcDbArc
 50
184.283819
 51
270.0
  0
ARC
  5
43
100
AcDbEntity
  8
0
100
AcDbCircle
 10
242.572105
 20
87.1
 30
0.0
 40
1.0
100
AcDbArc
 50
270.0
 51
355.716181
  0
LINE
  5
44
100
AcDbEntity
  8
0
100
AcDbLine
 10
245.5
 20
112.8
 30
0.0
 11
243.569311
 21
87.025303
 31
0.0
  0
LINE
  5
45
100
AcDbEntity
  8
0
100
AcDbLine
 10
225.427895
 20
86.1
 30
0.0
 11
242.572105
 21
86.1
 31
0.0
  0
LINE
  5
46
100
AcDbEntity
  8
0
100
AcDbLine
 10
222.5
 20
112.8
 30
0.0
 11
245.5
 21
112.8
 31
0.0
  0
ARC
  5
47
100
AcDbEntity
  8
0
100
AcDbCircle
 10
224.5
 20
147.850505
 30
0.0
 40
2.0
100
AcDbArc
 50
101.415158
 51
180.0
  0
ARC
  5
48
100
AcDbEntity
  8
0
100
AcDbCircle
 10
243.5
 20
147.850505
 30
0.0
 40
2.0
100
AcDbArc
 50
0.0
 51
78.584842
  0
ARC
  5
49
100
AcDbEntity
  8
0
100
AcDbCircle
 10
234.0
 20
100.8
 30
0.0
 40
50.0
100
AcDbArc
 50
78.584842
 51
101.415158
  0
LINE
  5
4A
100
AcDbEntity
  8
0
100
AcDbLine
 10
223.5
 20
147.850505
 30
0.0
 11
244.5
 21
147.850505
 31
0.0
  0
LINE
  5
4B
100
AcDbEntity
  8
0
100
AcDbLine
 10
222.5
 20
147.850505
 30
0.0
 11
222.5
 21
112.8
 31
0.0
  0
LINE
  5
4C
100
AcDbEntity
  8
0
100
AcDbLine
 10
245.5
 20
147.850505
 30
0.0
 11
245.5
 21
112.8
 31
0.0
  0
LINE
  5
4D
100
AcDbEntity
  8
1
100
AcDbLine
 10
234.0
 20
56.8
 30
0.0
 11
234.0
 21
155.8
 31
0.0
  0
LINE
  5
4E
100
AcDbEntity
  8
0
100
AcDbLine
 10
181.0
 20
60.0
 30
0.0
 11
181.0
 21
61.8
 31
0.0
  0
LINE
  5
4F
100
AcDbEntity
  8
0
100
AcDbLine
 10
199.0
 20
60.0
 30
0.0
 11
199.0
 21
61.8
 31
0.0
  0
LINE
  5
50
100
AcDbEntity
  8
2
100
AcDbLine
 10
198.5
 20
76.7
 30
0.0
 11
181.5
 21
76.7
 31
0.0
  0
LINE
  5
51
100
AcDbEntity
  8
2
100
AcDbLine
 10
180.5
 20
75.7
 30
0.0
 11
180.5
 21
61.8
 31
0.0
  0
LINE
  5
52
100
AcDbEntity
  8
2
100
AcDbLine
 10
199.5
 20
75.7
 30
0.0
 11
199.5
 21
61.8
 31
0.0
  0
LINE
  5
53
100
AcDbEntity
  8
2
100
AcDbLine
 10
184.0
 20
76.7
 30
0.0
 11
184.0
 21
60.5
 31
0.0
  0
LINE
  5
54
100
AcDbEntity
  8
2
100
AcDbLine
 10
196.0
 20
76.7
 30
0.0
 11
196.0
 21
60.5
 31
0.0
  0
LINE
  5
55
100
AcDbEntity
  8
0
100
AcDbLine
 10
199.0
 20
60.0
 30
0.0
 11
181.0
 21
60.0
 31
0.0
  0
LINE
  5
56
100
AcDbEntity
  8
2
100
AcDbLine
 10
181.5
 20
76.7
 30
0.0
 11
180.5
 21
75.7
 31
0.0
  0
LINE
  5
57
100
AcDbEntity
  8
2
100
AcDbLine
 10
198.5
 20
76.7
 30
0.0
 11
199.5
 21
75.7
 31
0.0
  0
LINE
  5
58
100
AcDbEntity
  8
2
100
AcDbLine
 10
184.0
 20
60.5
 30
0.0
 11
183.5
 21
60.0
 31
0.0
  0
LINE
  5
59
100
AcDbEntity
  8
2
100
AcDbLine
 10
196.0
 20
60.5
 30
0.0
 11
196.5
 21
60.0
 31
0.0
  0
LINE
  5
5A
100
AcDbEntity
  8
2
100
AcDbLine
 10
184.0
 20
60.5
 30
0.0
 11
196.0
 21
60.5
 31
0.0
  0
ARC
  5
5B
100
AcDbEntity
  8
0
100
AcDbCircle
 10
140.248013
 20
90.3
 30
0.0
 40
5.0
100
AcDbArc
 50
80.318184
 51
178.500015
  0
LINE
  5
5C
100
AcDbEntity
  8
2
100
AcDbLine
 10
145.0
 20
94.561525
 30
0.0
 11
145.0
 21
94.0543
 31
0.0
  0
LINE
  5
5D
100
AcDbEntity
  8
2
100
AcDbLine
 10
193.0
 20
86.372412
 30
0.0
 11
193.0
 21
85.865188
 31
0.0
  0
LINE
  5
5E
100
AcDbEntity
  8
2
100
AcDbLine
 10
145.0
 20
94.0543
 30
0.0
 11
193.0
 21
85.865188
 31
0.0
  0
LINE
  5
5F
100
AcDbEntity
  8
0
100
AcDbLine
 10
242.080079
 20
209.001069
 30
0.0
 11
236.861572
 21
208.862952
 31
0.0
  0
LINE
  5
60
100
AcDbEntity
  8
0
100
AcDbLine
 10
231.622521
 20
208.74844
 30
0.0
 11
138.596604
 21
206.501167
 31
0.0
  0
LINE
  5
61
100
AcDbEntity
  8
0
100
AcDbLine
 10
231.622521
 20
231.25156
 30
0.0
 11
138.596604
 21
233.498833
 31
0.0
  0
ARC
  5
62
100
AcDbEntity
  8
0
100
AcDbCircle
 10
138.5
 20
229.5
 30
0.0
 40
4.0
100
AcDbArc
 50
88.602625
 51
180.0
  0
ARC
  5
63
100
AcDbEntity
  8
0
100
AcDbCircle
 10
138.5
 20
210.5
 30
0.0
 40
4.0
100
AcDbArc
 50
180.0
 51
271.397375
  0
LINE
  5
64
100
AcDbEntity
  8
0
100
AcDbLine
 10
134.5
 20
210.5
 30
0.0
 11
134.5
 21
229.5
 31
0.0
  0
LINE
  5
65
100
AcDbEntity
  8
0
100
AcDbLine
 10
245.0
 20
216.645898
 30
0.0
 11
245.0
 21
212.0
 31
0.0
  0
LINE
  5
66
100
AcDbEntity
  8
1
100
AcDbLine
 10
234.0
 20
236.5
 30
0.0
 11
234.0
 21
203.5
 31
0.0
  0
CIRCLE
  5
67
100
AcDbEntity
  8
0
100
AcDbCircle
 10
234.0
 20
220.0
 30
0.0
 40
11.5
  0
LINE
  5
68
100
AcDbEntity
  8
1
100
AcDbLine
 10
130.5
 20
220.0
 30
0.0
 11
250.5
 21
220.0
 31
0.0
  0
LINE
  5
69
100
AcDbEntity
  8
1
100
AcDbLine
 10
190.0
 20
237.270819
 30
0.0
 11
190.0
 21
202.729181
 31
0.0
  0
ARC
  5
6A
100
AcDbEntity
  8
0
100
AcDbCircle
 10
192.0
 20
227.5
 30
0.0
 40
1.0
100
AcDbArc
 50
0.0
 51
90.0
  0
ARC
  5
6B
100
AcDbEntity
  8
0
100
AcDbCircle
 10
192.0
 20
212.5
 30
0.0
 40
1.0
100
AcDbArc
 50
270.0
 51
0.0
  0
ARC
  5
6C
100
AcDbEntity
  8
0
100
AcDbCircle
 10
146.0
 20
212.5
 30
0.0
 40
1.0
100
AcDbArc
 50
180.0
 51
270.0
  0
ARC
  5
6D
100
AcDbEntity
  8
0
100
AcDbCircle
 10
146.0
 20
227.5
 30
0.0
 40
1.0
100
AcDbArc
 50
90.0
 51
180.0
  0
LINE
  5
6E
100
AcDbEntity
  8
0
100
AcDbLine
 10
145.0
 20
227.5
 30
0.0
 11
145.0
 21
212.5
 31
0.0
  0
LINE
  5
6F
100
AcDbEntity
  8
0
100
AcDbLine
 10
192.0
 20
228.5
 30
0.0
 11
146.0
 21
228.5
 31
0.0
  0
LINE
  5
70
100
AcDbEntity
  8
0
100
AcDbLine
 10
193.0
 20
212.5
 30
0.0
 11
193.0
 21
227.5
 31
0.0
  0
LINE
  5
71
100
AcDbEntity
  8
0
100
AcDbLine
 10
146.0
 20
211.5
 30
0.0
 11
192.0
 21
211.5
 31
0.0
  0
ARC
  5
72
100
AcDbEntity
  8
0
100
AcDbCircle
 10
204.0
 20
212.0
 30
0.0
 40
1.0
100
AcDbArc
 50
180.0
 51
270.0
  0
ARC
  5
73
100
AcDbEntity
  8
0
100
AcDbCircle
 10
204.0
 20
228.0
 30
0.0
 40
1.0
100
AcDbArc
 50
90.0
 51
180.0
  0
LINE
  5
74
100
AcDbEntity
  8
0
100
AcDbLine
 10
204.0
 20
211.0
 30
0.0
 11
226.841089
 21
211.0
 31
0.0
  0
LINE
  5
75
100
AcDbEntity
  8
0
100
AcDbLine
 10
203.0
 20
228.0
 30
0.0
 11
203.0
 21
212.0
 31
0.0
  0
LINE
  5
76
100
AcDbEntity
  8
0
100
AcDbLine
 10
226.841089
 20
229.0
 30
0.0
 11
204.0
 21
229.0
 31
0.0
  0
LINE
  5
77
100
AcDbEntity
  8
0
100
AcDbLine
 10
245.0
 20
228.0
 30
0.0
 11
245.0
 21
223.354102
 31
0.0
  0
LINE
  5
78
100
AcDbEntity
  8
0
100
AcDbLine
 10
242.080079
 20
230.998931
 30
0.0
 11
236.861572
 21
231.137048
 31
0.0
  0
ARC
  5
79
100
AcDbEntity
  8
0
100
AcDbCircle
 10
242.0
 20
228.0
 30
0.0
 40
3.0
100
AcDbArc
 50
0.0
 51
88.470424
  0
ARC
  5
7A
100
AcDbEntity
  8
0
100
AcDbCircle
 10
242.0
 20
212.0
 30
0.0
 40
3.0
100
AcDbArc
 50
271.529576
 51
0.0
  0
LINE
  5
7B
100
AcDbEntity
  8
0
100
AcDbLine
 10
93.5
 20
61.8
 30
0.0
 11
66.5
 21
61.8
 31
0.0
  0
LINE
  5
7C
100
AcDbEntity
  8
0
100
AcDbLine
 10
66.5
 20
90.3
 30
0.0
 11
66.5
 21
61.8
 31
0.0
  0
LINE
  5
7D
100
AcDbEntity
  8
0
100
AcDbLine
 10
93.5
 20
90.3
 30
0.0
 11
93.5
 21
61.8
 31
0.0
  0
LINE
  5
7E
100
AcDbEntity
  8
0
100
AcDbLine
 10
88.5
 20
95.3
 30
0.0
 11
71.5
 21
95.3
 31
0.0
  0
LINE
  5
7F
100
AcDbEntity
  8
1
100
AcDbLine
 10
80.0
 20
56.8
 30
0.0
 11
80.0
 21
155.8
 31
0.0
  0
LINE
  5
80
100
AcDbEntity
  8
0
100
AcDbLine
 10
71.0
 20
60.0
 30
0.0
 11
71.0
 21
61.8
 31
0.0
  0
LINE
  5
81
100
AcDbEntity
  8
0
100
AcDbLine
 10
89.0
 20
60.0
 30
0.0
 11
71.0
 21
60.0
 31
0.0
  0
LINE
  5
82
100
AcDbEntity
  8
0
100
AcDbLine
 10
89.0
 20
60.0
 30
0.0
 11
89.0
 21
61.8
 31
0.0
  0
LINE
  5
83
100
AcDbEntity
  8
0
100
AcDbLine
 10
91.5
 20
147.850505
 30
0.0
 11
91.5
 21
112.8
 31
0.0
  0
LINE
  5
84
100
AcDbEntity
  8
0
100
AcDbLine
 10
68.5
 20
147.850505
 30
0.0
 11
68.5
 21
112.8
 31
0.0
  0
LINE
  5
85
100
AcDbEntity
  8
0
100
AcDbLine
 10
69.5
 20
147.850505
 30
0.0
 11
90.5
 21
147.850505
 31
0.0
  0
ARC
  5
86
100
AcDbEntity
  8
0
100
AcDbCircle
 10
80.0
 20
100.8
 30
0.0
 40
50.0
100
AcDbArc
 50
78.584842
 51
101.415158
  0
ARC
  5
87
100
AcDbEntity
  8
0
100
AcDbCircle
 10
89.5
 20
147.850505
 30
0.0
 40
2.0
100
AcDbArc
 50
0.0
 51
78.584842
  0
ARC
  5
88
100
AcDbEntity
  8
0
100
AcDbCircle
 10
70.5
 20
147.850505
 30
0.0
 40
2.0
100
AcDbArc
 50
101.415158
 51
180.0
  0
LINE
  5
89
100
AcDbEntity
  8
0
100
AcDbLine
 10
68.5
 20
112.8
 30
0.0
 11
91.5
 21
112.8
 31
0.0
  0
LINE
  5
8A
100
AcDbEntity
  8
0
100
AcDbLine
 10
68.5
 20
112.8
 30
0.0
 11
69.810861
 21
95.3
 31
0.0
  0
LINE
  5
8B
100
AcDbEntity
  8
0
100
AcDbLine
 10
91.5
 20
112.8
 30
0.0
 11
90.189139
 21
95.3
 31
0.0
  0
ARC
  5
93
100
AcDbEntity
  8
0
100
AcDbCircle
 10
71.5
 20
90.3
 30
0.0
 40
5.0
100
AcDbArc
 50
90.0
 51
180.0
  0
ARC
  5
94
100
AcDbEntity
  8
0
100
AcDbCircle
 10
88.5
 20
90.3
 30
0.0
 40
5.0
100
AcDbArc
 50
360.0
 51
90.0
  0
CIRCLE
  5
A3
100
AcDbEntity
  8
0
100
AcDbCircle
 10
190.0
 20
69.05
 30
0.0
 40
2.75
  0
ENDSEC
  0
SECTION
  2
OBJECTS
  0
DICTIONARY
  5
17C
100
AcDbDictionary
  3
ACAD_GROUP
350
17D
  3
ACAD_MLINESTYLE
350
18B
  0
DICTIONARY
  5
17D
102
{ACAD_REACTORS
330
17C
102
}
100
AcDbDictionary
  0
DICTIONARY
  5
18B
102
{ACAD_REACTORS
330
17C
102
}
100
AcDbDictionary
  3
STANDARD
350
18C
  0
MLINESTYLE
  5
18C
102
{ACAD_REACTORS
330
18B
102
}
100
AcDbMlineStyle
  2
STANDARD
 70
     0
  3

 62
   256
 51
90.0
 52
90.0
 71
     2
 49
0.5
 62
   256
  6
BYLAYER
 49
-0.5
 62
   256
  6
BYLAYER
  0
ENDSEC
  0
EOF
