  0
SECTION
  2
HEADER
  9
$ACADVER
  1
AC1009
  9
$INSBASE
 10
0.0
 20
0.0
 30
0.0
  9
$EXTMIN
 10
9.0866097704117692
 20
29.098663992596119
 30
-0.0015258207003583
  9
$EXTMAX
 10
365.91339197581777
 20
225.0192266504969
 30
0.0000000349246037
  9
$LIMMIN
 10
0.0
 20
0.0
  9
$LIMMAX
 10
375.0
 20
270.0
  9
$ORTHOMODE
 70
     1
  9
$REGENMODE
 70
     1
  9
$FILLMODE
 70
     1
  9
$QTEXTMODE
 70
     0
  9
$MIRRTEXT
 70
     0
  9
$DRAGMODE
 70
     2
  9
$LTSCALE
 40
10.0
  9
$OSMODE
 70
   231
  9
$ATTMODE
 70
     1
  9
$TEXTSIZE
 40
0.2
  9
$TRACEWID
 40
0.05
  9
$TEXTSTYLE
  7
STANDARD
  9
$CLAYER
  8
0
  9
$CELTYPE
  6
BYLAYER
  9
$CECOLOR
 62
   256
  9
$DIMSCALE
 40
1.0
  9
$DIMASZ
 40
3.0
  9
$DIMEXO
 40
2.0
  9
$DIMDLI
 40
0.38
  9
$DIMRND
 40
0.0
  9
$DIMDLE
 40
0.0
  9
$DIMEXE
 40
2.0
  9
$DIMTP
 40
0.0
  9
$DIMTM
 40
0.0
  9
$DIMTXT
 40
3.2000000000000002
  9
$DIMCEN
 40
0.0
  9
$DIMTSZ
 40
0.0
  9
$DIMTOL
 70
     0
  9
$DIMLIM
 70
     0
  9
$DIMTIH
 70
     0
  9
$DIMTOH
 70
     0
  9
$DIMSE1
 70
     0
  9
$DIMSE2
 70
     0
  9
$DIMTAD
 70
     1
  9
$DIMZIN
 70
     0
  9
$DIMBLK
  1

  9
$DIMASO
 70
     1
  9
$DIMSHO
 70
     0
  9
$DIMPOST
  1

  9
$DIMAPOST
  1

  9
$DIMALT
 70
     0
  9
$DIMALTD
 70
     2
  9
$DIMALTF
 40
25.399999999999999
  9
$DIMLFAC
 40
1.0
  9
$DIMTOFL
 70
     1
  9
$DIMTVP
 40
1.6000000000000001
  9
$DIMTIX
 70
     1
  9
$DIMSOXD
 70
     0
  9
$DIMSAH
 70
     0
  9
$DIMBLK1
  1

  9
$DIMBLK2
  1

  9
$DIMSTYLE
  2
STANDARD
  9
$DIMCLRD
 70
     0
  9
$DIMCLRE
 70
     0
  9
$DIMCLRT
 70
     0
  9
$DIMTFAC
 40
1.0
  9
$DIMGAP
 40
0.09
  9
$LUNITS
 70
     2
  9
$LUPREC
 70
     4
  9
$SKETCHINC
 40
0.1
  9
$FILLETRAD
 40
0.0
  9
$AUNITS
 70
     1
  9
$AUPREC
 70
     4
  9
$MENU
  1
E:\r13\win\SUPPORT\ACAD
  9
$ELEVATION
 40
0.0
  9
$PELEVATION
 40
0.0
  9
$THICKNESS
 40
0.0
  9
$LIMCHECK
 70
     0
  9
$BLIPMODE
 70
     1
  9
$CHAMFERA
 40
0.0
  9
$CHAMFERB
 40
0.0
  9
$SKPOLY
 70
     0
  9
$TDCREATE
 40
2449839.7800810179
  9
$TDUPDATE
 40
2453236.7749719671
  9
$TDINDWG
 40
0.0001549653
  9
$TDUSRTIMER
 40
0.0001549653
  9
$USRTIMER
 70
     1
  9
$ANGBASE
 50
0.0
  9
$ANGDIR
 70
     0
  9
$PDMODE
 70
     0
  9
$PDSIZE
 40
0.0
  9
$PLINEWID
 40
0.0
  9
$COORDS
 70
     0
  9
$SPLFRAME
 70
     0
  9
$SPLINETYPE
 70
     6
  9
$SPLINESEGS
 70
     8
  9
$ATTDIA
 70
     0
  9
$ATTREQ
 70
     1
  9
$HANDLING
 70
-16383
  9
$HANDSEED
  5
1FD
  9
$SURFTAB1
 70
     6
  9
$SURFTAB2
 70
     6
  9
$SURFTYPE
 70
     6
  9
$SURFU
 70
     6
  9
$SURFV
 70
     6
  9
$UCSNAME
  2

  9
$UCSORG
 10
0.0
 20
0.0
 30
0.0
  9
$UCSXDIR
 10
1.0
 20
0.0
 30
0.0
  9
$UCSYDIR
 10
0.0
 20
1.0
 30
0.0
  9
$PUCSNAME
  2

  9
$PUCSORG
 10
0.0
 20
0.0
 30
0.0
  9
$PUCSXDIR
 10
1.0
 20
0.0
 30
0.0
  9
$PUCSYDIR
 10
0.0
 20
1.0
 30
0.0
  9
$USERI1
 70
     0
  9
$USERI2
 70
     1
  9
$USERI3
 70
     1
  9
$USERI4
 70
     0
  9
$USERI5
 70
     0
  9
$USERR1
 40
0.0
  9
$USERR2
 40
0.0
  9
$USERR3
 40
0.0
  9
$USERR4
 40
0.0
  9
$USERR5
 40
0.0
  9
$WORLDVIEW
 70
     1
  9
$SHADEDGE
 70
     3
  9
$SHADEDIF
 70
    70
  9
$TILEMODE
 70
     1
  9
$MAXACTVP
 70
    16
  9
$PLIMCHECK
 70
     0
  9
$PEXTMIN
 10
1.0000000000000000E+020
 20
1.0000000000000000E+020
 30
1.0000000000000000E+020
  9
$PEXTMAX
 10
-1.0000000000000000E+020
 20
-1.0000000000000000E+020
 30
-1.0000000000000000E+020
  9
$PLIMMIN
 10
0.0
 20
0.0
  9
$PLIMMAX
 10
12.0
 20
9.0
  9
$UNITMODE
 70
     0
  9
$VISRETAIN
 70
     0
  9
$PLINEGEN
 70
     0
  9
$PSLTSCALE
 70
     0
  0
ENDSEC
  0
SECTION
  2
TABLES
  0
TABLE
  2
VPORT
 70
     3
  0
VPORT
  2
*ACTIVE
 70
     0
 10
0.0
 20
0.0
 11
1.0
 21
1.0
 12
187.5000008731148
 22
127.0589453215465
 13
0.0
 23
0.0
 14
10.0
 24
10.0
 15
10.0
 25
10.0
 16
0.0
 26
0.0
 36
1.0
 17
0.0
 27
0.0
 37
0.0
 40
424.99911031072691
 41
0.9407114624505929
 42
50.0
 43
0.0
 44
0.0
 50
0.0
 51
0.0
 71
     0
 72
   500
 73
     1
 74
     0
 75
     0
 76
     0
 77
     0
 78
     2
  0
ENDTAB
  0
TABLE
  2
LTYPE
 70
     4
  0
LTYPE
  2
CONTINUOUS
 70
     0
  3
Solid Line
 72
    65
 73
     0
 40
0.0
  0
LTYPE
  2
CENTER
 70
     0
  3
____ _ ____ _ ____ _ ____ _ ____ _ ____ _ ____
 72
    65
 73
     4
 40
2.0
 49
1.25
 49
-0.25
 49
0.25
 49
-0.25
  0
LTYPE
  2
PHA-05
 70
     0
  3
_____ _ _ _____ _ _ _____ _ _ _____ _ _ ____
 72
    65
 73
     6
 40
1.25
 49
0.625
 49
-0.125
 49
0.125
 49
-0.125
 49
0.125
 49
-0.125
  0
LTYPE
  2
HIDDEN
 70
     0
  3
_ _ _ _ _ _ _ _ _ _ _ _ _ _ _ _ _ _ _ _ _ _ _
 72
    65
 73
     2
 40
0.375
 49
0.25
 49
-0.125
  0
ENDTAB
  0
TABLE
  2
LAYER
 70
     3
  0
LAYER
  2
0
 70
     0
 62
     7
  6
CONTINUOUS
  0
LAYER
  2
1
 70
     0
 62
     1
  6
CENTER
  0
LAYER
  2
2
 70
     0
 62
     2
  6
HIDDEN
  0
ENDTAB
  0
TABLE
  2
STYLE
 70
     1
  0
STYLE
  2
STANDARD
 70
     0
 40
0.0
 41
1.0
 50
0.0
 71
     0
 42
0.2
  3
TXT
  4
BIGFONT
  0
ENDTAB
  0
TABLE
  2
VIEW
 70
     1
  0
VIEW
  2
ALL
 70
     0
 40
270.0
 10
220.99159663865541
 20
135.0
 41
0.0
 11
0.0
 21
0.0
 31
1.0
 12
0.0
 22
0.0
 32
0.0
 42
0.0
 43
0.0
 44
0.0
 50
0.0
 71
     0
  0
ENDTAB
  0
TABLE
  2
UCS
 70
     0
  0
ENDTAB
  0
TABLE
  2
APPID
 70
     1
  0
APPID
  2
ACAD
 70
     0
  0
ENDTAB
  0
TABLE
  2
DIMSTYLE
 70
     1
  0
DIMSTYLE
  2
STANDARD
 70
     0
  3

  4

  5

  6

  7

 40
1.0
 41
0.18
 42
0.0625
 43
0.38
 44
0.18
 45
0.0
 46
0.0
 47
0.0
 48
0.0
140
0.18
141
0.09
142
0.0
143
25.399999999999999
144
1.0
145
0.0
146
1.0
147
0.09
 71
     0
 72
     0
 73
     1
 74
     1
 75
     0
 76
     0
 77
     0
 78
     0
170
     0
171
     2
172
     0
173
     0
174
     0
175
     0
176
     0
177
     0
178
     0
  0
ENDTAB
  0
ENDSEC
  0
SECTION
  2
BLOCKS
  0
BLOCK
  8
0
  2
$MODEL_SPACE
 70
     0
 10
0.0
 20
0.0
 30
0.0
  3
$MODEL_SPACE
  1

  0
ENDBLK
  5
1A5
  8
0
  0
BLOCK
 67
     1
  8
0
  2
$PAPER_SPACE
 70
     0
 10
0.0
 20
0.0
 30
0.0
  3
$PAPER_SPACE
  1

  0
ENDBLK
  5
1A3
 67
     1
  8
0
  0
ENDSEC
  0
SECTION
  2
ENTITIES
  0
CIRCLE
  5
36
  8
0
 10
260.0
 20
180.0
 30
0.0
 40
40.0
  0
LINE
  5
37
  8
1
 10
215.0
 20
180.0
 30
0.0
 11
305.0
 21
180.0
 31
0.0
  0
LINE
  5
38
  8
1
 10
260.0
 20
225.0
 30
0.0
 11
260.0
 21
135.0
 31
0.0
  0
LINE
  5
39
  8
0
 10
272.25
 20
204.68172400785639
 30
0.0
 11
272.25
 21
155.31827599214341
 31
0.0
  0
LINE
  5
3A
  8
0
 10
247.75
 20
204.6817240078563
 30
0.0
 11
247.75
 21
155.31827599214361
 31
0.0
  0
ARC
  5
3B
  8
0
 10
260.0
 20
180.0
 30
0.0
 40
11.5
 50
307.49524976455791
 51
55.682845237021553
  0
ARC
  5
3C
  8
0
 10
260.0
 20
180.0
 30
0.0
 40
10.0
 50
314.42700400080452
 51
49.094998662144583
  0
ARC
  5
3D
  8
0
 10
260.0
 20
180.0
 30
0.0
 40
8.5
 50
324.99686970334449
 51
38.82143516264059
  0
ARC
  5
3E
  8
0
 10
274.25
 20
204.68172400785639
 30
0.0
 40
2.0
 50
60.000000000000099
 51
180.0
  0
ARC
  5
3F
  8
0
 10
245.75
 20
204.6817240078563
 30
0.0
 40
2.0
 50
0.0000000000000254
 51
119.9999999999999
  0
ARC
  5
40
  8
0
 10
245.75
 20
155.31827599214361
 30
0.0
 40
2.0
 50
240.00000000000011
 51
0.0
  0
ARC
  5
41
  8
0
 10
274.25
 20
155.31827599214341
 30
0.0
 40
2.0
 50
180.0
 51
299.99999999999989
  0
ARC
  5
42
  8
0
 10
260.0
 20
180.0
 30
0.0
 40
30.5
 50
299.99999961212319
 51
60.00000038787659
  0
LINE
  5
43
  8
2
 10
360.3910061002976
 20
184.0
 30
0.0
 11
343.8910061002976
 21
184.0
 31
0.0
  0
LINE
  5
44
  8
0
 10
360.8910061002976
 20
189.0
 30
0.0
 11
360.5910061002977
 21
189.0
 31
0.0
  0
LINE
  5
45
  8
2
 10
343.8910061002976
 20
188.49999999999989
 30
0.0
 11
341.8910061002976
 21
188.49999999999989
 31
0.0
  0
LINE
  5
46
  8
2
 10
343.39100610029772
 20
191.5
 30
0.0
 11
341.8910061002976
 21
190.0
 31
0.0
  0
LINE
  5
47
  8
0
 10
360.59100610029759
 20
168.5
 30
0.0
 11
354.88468140309629
 21
168.5
 31
0.0
  0
LINE
  5
48
  8
0
 10
360.8910061002976
 20
171.0
 30
0.0
 11
360.59100610029759
 21
171.0
 31
0.0
  0
LINE
  5
49
  8
0
 10
343.8910061002976
 20
143.0473718388171
 30
0.0
 11
343.8910061002976
 21
216.9526296690743
 31
0.0
  0
LINE
  5
4A
  8
0
 10
360.59100610029759
 20
168.5
 30
0.0
 11
360.5910061002977
 21
191.5
 31
0.0
  0
LINE
  5
4B
  8
1
 10
365.8910061002976
 20
180.0
 30
0.0
 11
320.8910061002976
 21
180.0
 31
0.0
  0
LINE
  5
4C
  8
0
 10
360.8910061002976
 20
171.0
 30
0.0
 11
360.8910061002976
 21
189.0
 31
0.0
  0
ARC
  5
4D
  8
0
 10
328.59100610029759
 20
215.5
 30
0.0
 40
3.0
 50
106.3704533983914
 51
154.1580672368145
  0
ARC
  5
4E
  8
0
 10
339.01933290760479
 20
180.0
 30
0.0
 40
40.0
 50
87.100411802822435
 51
106.3704509686865
  0
ARC
  5
4F
  8
0
 10
340.8910061002976
 20
216.9526296690743
 30
0.0
 40
3.0
 50
0.0000000000000254
 51
87.100411802822549
  0
LINE
  5
50
  8
0
 10
358.59100610029759
 20
173.87596849691229
 30
0.0
 11
358.5910061002977
 21
186.12403150308759
 31
0.0
  0
ARC
  5
51
  8
0
 10
340.8910061002976
 20
143.04737033092559
 30
0.0
 40
3.0
 50
272.89958819717748
 51
0.0
  0
ARC
  5
52
  8
0
 10
339.01933290760479
 20
179.99999999999989
 30
0.0
 40
40.0
 50
253.62954903131339
 51
272.89958819717748
  0
ARC
  5
53
  8
0
 10
328.59100610029759
 20
144.49999999999989
 30
0.0
 40
3.0
 50
205.8419327631855
 51
253.62954660160861
  0
LINE
  5
54
  8
0
 10
343.89100610029749
 20
152.55383852694879
 30
0.0
 11
358.5910061002977
 21
173.87596849691229
 31
0.0
  0
LINE
  5
55
  8
0
 10
360.59100610029759
 20
191.5
 30
0.0
 11
354.88468140309629
 21
191.5
 31
0.0
  0
LINE
  5
56
  8
1
 10
348.8910061002976
 20
209.0
 30
0.0
 11
316.8910061002976
 21
209.0
 31
0.0
  0
LINE
  5
57
  8
2
 10
341.8910061002976
 20
170.0
 30
0.0
 11
341.8910061002976
 21
190.0
 31
0.0
  0
LINE
  5
58
  8
1
 10
269.0
 20
209.0
 30
0.0
 11
250.99999999999989
 21
209.0
 31
0.0
  0
ARC
  5
59
  8
0
 10
260.0
 20
212.90000000000001
 30
0.0
 40
11.0
 50
302.96931145143338
 51
339.86977784501852
  0
ARC
  5
5A
  8
0
 10
260.0
 20
212.90000000000001
 30
0.0
 40
11.0
 50
200.13022215498151
 51
237.03068854856639
  0
ARC
  5
5B
  8
0
 10
260.0
 20
180.0
 30
0.0
 40
31.39074155987846
 50
110.4590790274264
 51
69.540920972573574
  0
ARC
  5
5C
  8
0
 10
260.0
 20
180.0
 30
0.0
 40
30.5
 50
119.9999999999999
 51
239.99999999999969
  0
ARC
  5
5D
  8
0
 10
270.79749776558327
 20
208.94221753980551
 30
0.0
 40
0.5
 50
69.540920972574185
 51
159.8697778450198
  0
ARC
  5
5E
  8
0
 10
249.20250223441661
 20
208.94221753980551
 30
0.0
 40
0.5
 50
20.13022215498016
 51
110.4590790274258
  0
CIRCLE
  5
5F
  8
0
 10
260.0
 20
180.0
 30
0.0
 40
37.78421674774458
  0
LINE
  5
60
  8
0
 10
264.0
 20
213.0
 30
0.0
 11
256.0
 21
213.0
 31
0.0
  0
LINE
  5
61
  8
0
 10
267.65441049330349
 20
205.0
 30
0.0
 11
252.34558950669631
 21
205.0
 31
0.0
  0
LINE
  5
62
  8
0
 10
264.0
 20
213.0
 30
0.0
 11
264.0
 21
204.0
 31
0.0
  0
LINE
  5
63
  8
0
 10
256.0
 20
213.0
 30
0.0
 11
255.99999999999989
 21
204.0
 31
0.0
  0
ARC
  5
64
  8
0
 10
260.0
 20
209.0
 30
0.0
 40
3.0
 50
294.6243183521641
 51
245.37568164783639
  0
LINE
  5
65
  8
0
 10
261.25
 20
213.0
 30
0.0
 11
261.25
 21
204.99999999999989
 31
0.0
  0
LINE
  5
66
  8
0
 10
258.74999999999989
 20
213.0
 30
0.0
 11
258.74999999999989
 21
204.99999999999989
 31
0.0
  0
LINE
  5
67
  8
0
 10
265.5163889660065
 20
204.0
 30
0.0
 11
254.48361103399341
 21
204.0
 31
0.0
  0
LINE
  5
68
  8
0
 10
267.0
 20
174.0
 30
0.0
 11
252.99999999999989
 21
174.0
 31
0.0
  0
LINE
  5
69
  8
0
 10
266.0161114194961
 20
203.5166574151163
 30
0.0
 11
267.0
 21
174.0
 31
0.0
  0
LINE
  5
6A
  8
0
 10
253.98388858050379
 20
203.5166574151163
 30
0.0
 11
253.0
 21
174.0
 31
0.0
  0
ARC
  5
6B
  8
0
 10
265.5163889660065
 20
203.5
 30
0.0
 40
0.5
 50
1.9091524329964531
 51
89.999999999999886
  0
ARC
  5
6C
  8
0
 10
254.48361103399341
 20
203.5
 30
0.0
 40
0.5
 50
89.999999999999986
 51
178.09084756700369
  0
LINE
  5
6D
  8
0
 10
265.99999999999989
 20
154.0
 30
0.0
 11
253.99999999999989
 21
154.0
 31
0.0
  0
LINE
  5
6E
  8
0
 10
267.0
 20
174.0
 30
0.0
 11
266.99999999999989
 21
155.0
 31
0.0
  0
LINE
  5
6F
  8
0
 10
252.99999999999989
 20
174.0
 30
0.0
 11
252.99999999999989
 21
155.0
 31
0.0
  0
ARC
  5
70
  8
0
 10
260.0
 20
180.0
 30
0.0
 40
10.0
 50
130.90500133785221
 51
225.572995999195
  0
ARC
  5
71
  8
0
 10
260.0
 20
180.0
 30
0.0
 40
11.5
 50
124.3171547629765
 51
232.50475023544169
  0
ARC
  5
72
  8
0
 10
265.99999999999989
 20
155.0
 30
0.0
 40
1.0
 50
270.0
 51
359.99999999999977
  0
ARC
  5
73
  8
0
 10
253.99999999999989
 20
155.0
 30
0.0
 40
1.0
 50
179.99999999999989
 51
270.0
  0
LINE
  5
74
  8
2
 10
342.8910061002976
 20
171.5
 30
0.0
 11
342.8910061002976
 21
188.49999999999989
 31
0.0
  0
LINE
  5
75
  8
2
 10
360.3910061002976
 20
184.0
 30
0.0
 11
360.3910061002976
 21
176.0
 31
0.0
  0
LINE
  5
76
  8
2
 10
360.3910061002976
 20
184.0
 30
0.0
 11
360.8910061002976
 21
184.49999999999989
 31
0.0
  0
LINE
  5
77
  8
0
 10
325.8910061002976
 20
205.0
 30
0.0
 11
324.8910061002976
 21
205.0
 31
0.0
  0
LINE
  5
78
  8
1
 10
328.8910061002976
 20
217.99999999999989
 30
0.0
 11
328.8910061002976
 21
149.0
 31
0.0
  0
LINE
  5
79
  8
0
 10
325.8910061002976
 20
216.80766968305349
 30
0.0
 11
325.8910061002976
 21
143.1923303169377
 31
0.0
  0
LINE
  5
7A
  8
0
 10
321.8910061002976
 20
211.72717802865881
 30
0.0
 11
321.8910061002976
 21
206.27282197134099
 31
0.0
  0
LINE
  5
7B
  8
0
 10
321.8910061002976
 20
211.72717802865881
 30
0.0
 11
325.8910061002976
 21
211.72717802865881
 31
0.0
  0
LINE
  5
7C
  8
0
 10
321.8910061002976
 20
206.27282197134099
 30
0.0
 11
325.8910061002976
 21
206.2728219713409
 31
0.0
  0
LINE
  5
7D
  8
0
 10
324.8910061002976
 20
205.0
 30
0.0
 11
324.8910061002976
 21
204.0
 31
0.0
  0
LINE
  5
7E
  8
0
 10
325.8910061002976
 20
204.0
 30
0.0
 11
323.37461713429099
 21
204.0
 31
0.0
  0
LINE
  5
7F
  8
0
 10
325.8910061002976
 20
174.0
 30
0.0
 11
321.89100610029749
 21
174.0
 31
0.0
  0
LINE
  5
80
  8
0
 10
322.8748946808015
 20
203.5166574151163
 30
0.0
 11
321.8910061002976
 21
174.0
 31
0.0
  0
ARC
  5
81
  8
0
 10
323.37461713429099
 20
203.5
 30
0.0
 40
0.5
 50
89.999999999999986
 51
178.09084756700369
  0
LINE
  5
82
  8
0
 10
325.8910061002976
 20
154.0
 30
0.0
 11
322.89100610029749
 21
154.0
 31
0.0
  0
LINE
  5
83
  8
0
 10
321.8910061002976
 20
174.0
 30
0.0
 11
321.89100610029749
 21
155.0
 31
0.0
  0
ARC
  5
84
  8
0
 10
322.89100610029749
 20
155.0
 30
0.0
 40
1.0
 50
179.99999999999989
 51
270.0
  0
LINE
  5
8E
  8
0
  6
CONTINUOUS
 10
50.108993899702341
 20
205.0
 30
0.0
 11
50.108993899702341
 21
204.0
 31
0.0
  0
LINE
  5
8F
  8
0
 10
49.108993899702348
 20
216.80766968306179
 30
0.0
 11
49.108993899702341
 21
143.1923303169377
 31
0.0
  0
LINE
  5
90
  8
0
  6
PHA-05
 10
49.108993899702341
 20
213.0
 30
0.0
 11
50.108993899702277
 21
213.0
 31
0.0
  0
LINE
  5
91
  8
0
  6
CONTINUOUS
 10
50.108993899702277
 20
203.4836110339933
 30
0.0
 11
50.108993899702277
 21
214.5163889660065
 31
0.0
  0
LINE
  5
92
  8
0
  6
CONTINUOUS
 10
80.108993899702341
 20
202.0
 30
0.0
 11
80.108993899702341
 21
216.0
 31
0.0
  0
LINE
  5
93
  8
0
  6
CONTINUOUS
 10
50.592336484585978
 20
202.98388858050379
 30
0.0
 11
80.108993899702341
 21
202.0
 31
0.0
  0
LINE
  5
94
  8
0
  6
CONTINUOUS
 10
50.592336484585978
 20
215.0161114194961
 30
0.0
 11
80.108993899702284
 21
215.99999999999989
 31
0.0
  0
ARC
  5
95
  8
0
  6
CONTINUOUS
 10
50.608993899702277
 20
203.4836110339933
 30
0.0
 40
0.5
 50
180.00000000000011
 51
268.09084756700349
  0
ARC
  5
96
  8
0
  6
CONTINUOUS
 10
50.608993899702277
 20
214.5163889660065
 30
0.0
 40
0.5
 50
91.909152432996308
 51
180.0
  0
LINE
  5
97
  8
0
  6
CONTINUOUS
 10
100.1089938997023
 20
203.0
 30
0.0
 11
100.1089938997023
 21
215.0
 31
0.0
  0
LINE
  5
98
  8
0
  6
CONTINUOUS
 10
80.108993899702341
 20
202.0
 30
0.0
 11
99.108993899702341
 21
202.0
 31
0.0
  0
LINE
  5
99
  8
0
  6
CONTINUOUS
 10
80.108993899702284
 20
216.0
 30
0.0
 11
99.108993899702341
 21
216.00000000000011
 31
0.0
  0
ARC
  5
9A
  8
0
  6
CONTINUOUS
 10
99.108993899702341
 20
203.0
 30
0.0
 40
1.0
 50
270.00000000000011
 51
0.0000000000000509
  0
ARC
  5
9B
  8
0
  6
CONTINUOUS
 10
99.108993899702341
 20
215.0
 30
0.0
 40
1.0
 50
0.0000000000000509
 51
90.000000000000085
  0
LINE
  5
9C
  8
1
 10
46.108993899702341
 20
217.99999999999989
 30
0.0
 11
46.108993899702341
 21
200.0
 31
0.0
  0
LINE
  5
9D
  8
0
 10
49.108993899702348
 20
205.0
 30
0.0
 11
50.108993899702341
 21
205.0
 31
0.0
  0
LINE
  5
9E
  8
1
 10
26.108993899702341
 20
209.0
 30
0.0
 11
105.1089938997023
 21
209.0
 31
0.0
  0
ARC
  5
9F
  8
0
 10
46.408993899702352
 20
144.49999999999989
 30
0.0
 40
3.0
 50
286.37045339839142
 51
334.15806723681442
  0
ARC
  5
A0
  8
0
 10
35.980667092395151
 20
179.99999999999989
 30
0.0
 40
40.0
 50
267.10041180282241
 51
286.3704509686865
  0
ARC
  5
A1
  8
0
 10
34.108993899702341
 20
143.04737033092559
 30
0.0
 40
3.0
 50
180.0
 51
267.10041180282252
  0
ARC
  5
A2
  8
0
 10
34.108993899702341
 20
216.9526296690743
 30
0.0
 40
3.0
 50
92.899588197177479
 51
180.0
  0
ARC
  5
A3
  8
0
 10
35.980667092395151
 20
180.0
 30
0.0
 40
40.0
 50
73.629549031313431
 51
92.899588197177565
  0
ARC
  5
A4
  8
0
 10
46.408993899702352
 20
215.5
 30
0.0
 40
3.0
 50
25.841932763185518
 51
73.629546601608595
  0
LINE
  5
A5
  8
1
 10
9.1089938997023392
 20
180.0
 30
0.0
 11
54.108993899702341
 21
180.0
 31
0.0
  0
LINE
  5
A6
  8
0
 10
31.108993899702341
 20
143.0473718388171
 30
0.0
 11
31.108993899702341
 21
216.9526296690743
 31
0.0
  0
LINE
  5
A7
  8
0
 10
343.89100610029749
 20
207.44616147305109
 30
0.0
 11
358.5910061002977
 21
186.12403150308759
 31
0.0
  0
LINE
  5
A8
  8
2
 10
360.3910061002976
 20
176.0
 30
0.0
 11
360.8910061002976
 21
175.5
 31
0.0
  0
LINE
  5
A9
  8
2
 10
343.39100610029772
 20
168.5
 30
0.0
 11
341.8910061002976
 21
170.0
 31
0.0
  0
LINE
  5
AA
  8
2
 10
343.8910061002976
 20
171.5
 30
0.0
 11
341.8910061002976
 21
171.5
 31
0.0
  0
LINE
  5
AB
  8
2
 10
360.3910061002976
 20
176.0
 30
0.0
 11
343.8910061002976
 21
176.0
 31
0.0
  0
LINE
  5
AC
  8
2
 10
343.8910061002976
 20
171.5
 30
0.0
 11
343.8910061002976
 21
189.0
 31
0.0
  0
LINE
  5
AD
  8
2
 10
354.88468140309629
 20
191.5
 30
0.0
 11
343.3910061002976
 21
191.5
 31
0.0
  0
LINE
  5
AE
  8
2
 10
360.5910061002977
 20
189.0
 30
0.0
 11
343.8910061002976
 21
189.0
 31
0.0
  0
LINE
  5
AF
  8
2
 10
354.88468140309629
 20
168.49999999999989
 30
0.0
 11
343.3910061002976
 21
168.49999999999989
 31
0.0
  0
LINE
  5
B0
  8
2
 10
360.5910061002977
 20
170.99999999999989
 30
0.0
 11
343.8910061002976
 21
170.99999999999989
 31
0.0
  0
LINE
  5
B1
  8
0
 10
343.8910061002976
 20
186.0944686656598
 30
0.0
 11
345.2049659720829
 21
180.0
 31
0.0
  0
LINE
  5
B2
  8
0
 10
343.8910061002976
 20
173.90553133434011
 30
0.0
 11
345.2049659720829
 21
180.0
 31
0.0
  0
LINE
  5
B3
  8
0
 10
162.6544104933036
 20
205.0
 30
0.0
 11
160.74456264653799
 21
205.0
 31
0.0
  0
CIRCLE
  5
B4
  8
0
 10
155.0
 20
180.0
 30
0.0
 40
37.78421674774458
  0
ARC
  5
B5
  8
0
 10
144.20250223441661
 20
208.94221753980551
 30
0.0
 40
0.5
 50
20.13022215498016
 51
110.4590790274258
  0
ARC
  5
B6
  8
0
 10
165.7974977655833
 20
208.94221753980551
 30
0.0
 40
0.5
 50
69.540920972574185
 51
159.8697778450198
  0
ARC
  5
B7
  8
0
 10
155.0
 20
180.0
 30
0.0
 40
30.5
 50
119.9999999999999
 51
239.99999999999969
  0
ARC
  5
B8
  8
0
 10
155.0
 20
180.0
 30
0.0
 40
31.39074155987846
 50
110.4590790274264
 51
69.540920972573574
  0
LINE
  5
B9
  8
1
 10
167.0
 20
209.0
 30
0.0
 11
143.0
 21
209.0
 31
0.0
  0
ARC
  5
BA
  8
0
 10
155.0
 20
180.0
 30
0.0
 40
30.5
 50
299.99999961212319
 51
60.00000038787659
  0
ARC
  5
BB
  8
0
 10
169.25
 20
155.31827599214341
 30
0.0
 40
2.0
 50
180.0
 51
299.99999999999989
  0
ARC
  5
BC
  8
0
 10
140.74999999999989
 20
155.31827599214361
 30
0.0
 40
2.0
 50
240.00000000000011
 51
0.0
  0
ARC
  5
BD
  8
0
 10
140.74999999999989
 20
204.6817240078563
 30
0.0
 40
2.0
 50
0.0000000000000254
 51
119.9999999999999
  0
ARC
  5
BE
  8
0
 10
169.25
 20
204.68172400785639
 30
0.0
 40
2.0
 50
60.000000000000099
 51
180.0
  0
LINE
  5
BF
  8
0
 10
142.75
 20
204.6817240078563
 30
0.0
 11
142.75
 21
155.31827599214361
 31
0.0
  0
LINE
  5
C0
  8
0
 10
167.25
 20
204.68172400785639
 30
0.0
 11
167.25
 21
155.31827599214341
 31
0.0
  0
LINE
  5
C1
  8
1
 10
155.0
 20
225.0
 30
0.0
 11
155.0
 21
135.0
 31
0.0
  0
LINE
  5
C2
  8
1
 10
110.0
 20
180.0
 30
0.0
 11
200.0
 21
180.0
 31
0.0
  0
CIRCLE
  5
C3
  8
0
 10
155.0
 20
180.0
 30
0.0
 40
40.0
  0
CIRCLE
  5
C4
  8
0
 10
155.0
 20
180.0
 30
0.0
 40
11.50000000000002
  0
CIRCLE
  5
C5
  8
0
 10
155.0
 20
180.0
 30
0.0
 40
10.0
  0
CIRCLE
  5
C6
  8
0
 10
155.0
 20
180.0
 30
0.0
 40
8.5
  0
ARC
  5
C7
  8
0
 10
155.0
 20
212.90000000000001
 30
0.0
 40
11.0
 50
200.13021832092701
 51
339.86978167907301
  0
CIRCLE
  5
C8
  8
0
 10
155.0
 20
209.0
 30
0.0
 40
6.9999999999999707
  0
LINE
  5
C9
  8
0
 10
149.2554373534619
 20
205.0
 30
0.0
 11
147.34558950669631
 21
205.0
 31
0.0
  0
LINE
  5
CA
  8
0
 10
31.108993899702341
 20
173.90553133434011
 30
0.0
 11
29.795034027917101
 21
180.0
 31
0.0
  0
LINE
  5
CB
  8
0
 10
31.108993899702341
 20
186.0944686656598
 30
0.0
 11
29.795034027917101
 21
180.0
 31
0.0
  0
LINE
  5
CC
  8
2
 10
14.40899389970229
 20
170.99999999999989
 30
0.0
 11
31.108993899702341
 21
170.99999999999989
 31
0.0
  0
LINE
  5
CD
  8
2
 10
20.115318596903641
 20
168.49999999999989
 30
0.0
 11
31.608993899702341
 21
168.49999999999989
 31
0.0
  0
LINE
  5
CE
  8
2
 10
14.40899389970229
 20
189.0
 30
0.0
 11
31.108993899702341
 21
189.0
 31
0.0
  0
LINE
  5
CF
  8
2
 10
20.115318596903641
 20
191.5
 30
0.0
 11
31.608993899702341
 21
191.5
 31
0.0
  0
LINE
  5
D0
  8
2
 10
31.108993899702341
 20
171.5
 30
0.0
 11
31.108993899702341
 21
189.0
 31
0.0
  0
LINE
  5
D1
  8
2
 10
14.608993899702339
 20
176.0
 30
0.0
 11
31.108993899702341
 21
176.0
 31
0.0
  0
LINE
  5
D2
  8
2
 10
31.108993899702341
 20
171.5
 30
0.0
 11
33.108993899702341
 21
171.5
 31
0.0
  0
LINE
  5
D3
  8
2
 10
31.608993899702281
 20
168.5
 30
0.0
 11
33.108993899702341
 21
170.0
 31
0.0
  0
LINE
  5
D4
  8
2
 10
14.608993899702339
 20
176.0
 30
0.0
 11
14.108993899702339
 21
175.5
 31
0.0
  0
LINE
  5
D5
  8
0
 10
31.108993899702391
 20
207.44616147305109
 30
0.0
 11
16.408993899702288
 21
186.12403150308759
 31
0.0
  0
LINE
  5
D6
  8
2
 10
14.608993899702339
 20
184.0
 30
0.0
 11
14.108993899702339
 21
184.49999999999989
 31
0.0
  0
LINE
  5
D7
  8
2
 10
14.608993899702339
 20
184.0
 30
0.0
 11
14.608993899702339
 21
176.0
 31
0.0
  0
LINE
  5
D8
  8
2
 10
32.108993899702341
 20
171.5
 30
0.0
 11
32.108993899702341
 21
188.49999999999989
 31
0.0
  0
LINE
  5
D9
  8
2
 10
33.108993899702341
 20
170.0
 30
0.0
 11
33.108993899702341
 21
190.0
 31
0.0
  0
LINE
  5
DA
  8
0
 10
14.408993899702351
 20
191.5
 30
0.0
 11
20.115318596903641
 21
191.5
 31
0.0
  0
LINE
  5
DB
  8
0
 10
31.108993899702391
 20
152.55383852694879
 30
0.0
 11
16.408993899702288
 21
173.87596849691229
 31
0.0
  0
LINE
  5
DC
  8
0
 10
16.408993899702349
 20
173.87596849691229
 30
0.0
 11
16.408993899702239
 21
186.12403150308759
 31
0.0
  0
LINE
  5
DD
  8
0
 10
14.108993899702339
 20
171.0
 30
0.0
 11
14.108993899702391
 21
189.0
 31
0.0
  0
LINE
  5
DE
  8
0
 10
14.408993899702351
 20
168.5
 30
0.0
 11
14.40899389970229
 21
191.5
 31
0.0
  0
LINE
  5
DF
  8
0
 10
14.108993899702339
 20
171.0
 30
0.0
 11
14.408993899702351
 21
171.0
 31
0.0
  0
LINE
  5
E0
  8
0
 10
14.408993899702351
 20
168.5
 30
0.0
 11
20.115318596903641
 21
168.5
 31
0.0
  0
LINE
  5
E1
  8
2
 10
31.608993899702281
 20
191.5
 30
0.0
 11
33.108993899702341
 21
190.0
 31
0.0
  0
LINE
  5
E2
  8
2
 10
31.108993899702341
 20
188.49999999999989
 30
0.0
 11
33.108993899702341
 21
188.49999999999989
 31
0.0
  0
LINE
  5
E3
  8
0
 10
14.108993899702339
 20
189.0
 30
0.0
 11
14.40899389970229
 21
189.0
 31
0.0
  0
LINE
  5
E4
  8
2
 10
14.608993899702339
 20
184.0
 30
0.0
 11
31.108993899702341
 21
184.0
 31
0.0
  0
LINE
  5
E5
  8
2
 10
151.0
 20
34.608993899702348
 30
0.0
 11
151.0
 21
51.108993899702341
 31
0.0
  0
LINE
  5
E6
  8
0
 10
146.0
 20
34.108993899702341
 30
0.0
 11
146.0
 21
34.408993899702303
 31
0.0
  0
LINE
  5
E7
  8
2
 10
146.5
 20
51.108993899702341
 30
0.0
 11
146.5
 21
53.108993899702341
 31
0.0
  0
LINE
  5
E8
  8
2
 10
143.5
 20
51.608993899702291
 30
0.0
 11
145.0
 21
53.108993899702341
 31
0.0
  0
LINE
  5
E9
  8
0
 10
166.5
 20
34.408993899702359
 30
0.0
 11
166.5
 21
36.408993899702402
 31
0.0
  0
LINE
  5
EA
  8
0
 10
164.0
 20
34.108993899702341
 30
0.0
 11
164.0
 21
34.408993899702359
 31
0.0
  0
LINE
  5
EB
  8
0
 10
166.5
 20
34.408993899702359
 30
0.0
 11
143.5
 21
34.408993899702303
 31
0.0
  0
LINE
  5
EC
  8
0
 10
164.0
 20
34.108993899702341
 30
0.0
 11
146.0
 21
34.108993899702398
 31
0.0
  0
LINE
  5
ED
  8
0
 10
167.25
 20
36.408993899702409
 30
0.0
 11
163.25
 21
36.408993899702367
 31
0.0
  0
LINE
  5
EE
  8
0
 10
143.5
 20
34.408993899702359
 30
0.0
 11
143.5
 21
36.408993899702189
 31
0.0
  0
LINE
  5
EF
  8
2
 10
165.0
 20
53.108993899702341
 30
0.0
 11
145.0
 21
53.108993899702341
 31
0.0
  0
LINE
  5
F0
  8
2
 10
163.49999999999989
 20
52.108993899702341
 30
0.0
 11
146.5
 21
52.108993899702341
 31
0.0
  0
LINE
  5
F1
  8
2
 10
151.0
 20
34.608993899702348
 30
0.0
 11
159.0
 21
34.608993899702348
 31
0.0
  0
LINE
  5
F2
  8
2
 10
151.0
 20
34.608993899702348
 30
0.0
 11
150.5
 21
34.108993899702341
 31
0.0
  0
LINE
  5
F3
  8
0
 10
146.75
 20
47.67102129962062
 30
0.0
 11
163.25
 21
47.67102129962062
 31
0.0
  0
LINE
  5
F4
  8
2
 10
159.0
 20
34.608993899702348
 30
0.0
 11
159.49999999999989
 21
34.108993899702341
 31
0.0
  0
LINE
  5
F5
  8
2
 10
166.5
 20
51.608993899702291
 30
0.0
 11
165.0
 21
53.108993899702341
 31
0.0
  0
LINE
  5
F6
  8
2
 10
163.49999999999989
 20
51.108993899702341
 30
0.0
 11
163.49999999999989
 21
53.108993899702341
 31
0.0
  0
LINE
  5
F7
  8
2
 10
159.0
 20
34.608993899702348
 30
0.0
 11
159.0
 21
51.108993899702341
 31
0.0
  0
LINE
  5
F8
  8
2
 10
163.49999999999989
 20
51.108993899702341
 30
0.0
 11
146.0
 21
51.108993899702341
 31
0.0
  0
LINE
  5
F9
  8
2
 10
143.5
 20
36.408993899702189
 30
0.0
 11
143.5
 21
51.608993899702341
 31
0.0
  0
LINE
  5
FA
  8
2
 10
146.0
 20
34.408993899702303
 30
0.0
 11
146.0
 21
51.108993899702341
 31
0.0
  0
LINE
  5
FB
  8
2
 10
166.5
 20
36.408993899702402
 30
0.0
 11
166.5
 21
51.608993899702341
 31
0.0
  0
LINE
  5
FC
  8
2
 10
164.0
 20
34.408993899702303
 30
0.0
 11
164.0
 21
51.108993899702341
 31
0.0
  0
LINE
  5
FD
  8
0
 10
191.9526281611829
 20
51.108993899702341
 30
0.0
 11
118.0473703309256
 21
51.108993899702341
 31
0.0
  0
LINE
  5
FE
  8
1
 10
155.0
 20
29.108993899702341
 30
0.0
 11
155.0
 21
125.1089938997023
 31
0.0
  0
ARC
  5
FF
  8
0
 10
119.5
 20
66.408993899702352
 30
0.0
 40
3.0
 50
115.8419327631855
 51
163.62954660160861
  0
ARC
  5
100
  8
0
 10
154.99999999999989
 20
55.980667092395151
 30
0.0
 40
40.0
 50
163.62954903131339
 51
182.89958819717751
  0
ARC
  5
101
  8
0
 10
118.0473703309256
 20
54.108993899702341
 30
0.0
 40
3.0
 50
182.89958819717739
 51
270.0
  0
ARC
  5
102
  8
0
 10
191.9526296690743
 20
54.108993899702341
 30
0.0
 40
3.0
 50
270.0
 51
357.10041180282252
  0
ARC
  5
103
  8
0
 10
155.0
 20
55.980667092395151
 30
0.0
 40
40.0
 50
357.10041180282229
 51
16.370450968686558
  0
ARC
  5
104
  8
0
 10
190.5
 20
66.408993899702352
 30
0.0
 40
3.0
 50
16.370453398391408
 51
64.15806723681446
  0
LINE
  5
105
  8
0
 10
159.0
 20
69.108993899702355
 30
0.0
 11
159.0
 21
70.108993899702341
 31
0.0
  0
LINE
  5
106
  8
1
 10
148.75
 20
66.108993899702341
 30
0.0
 11
161.25
 21
66.108993899702341
 31
0.0
  0
ARC
  5
107
  8
0
  6
CONTINUOUS
 10
148.99999999999989
 20
119.1089938997023
 30
0.0
 40
1.0
 50
90.000000000000057
 51
180.00000000000011
  0
ARC
  5
108
  8
0
  6
CONTINUOUS
 10
161.0
 20
119.1089938997023
 30
0.0
 40
1.0
 50
0.0000000000001386
 51
90.000000000000057
  0
LINE
  5
109
  8
0
  6
CONTINUOUS
 10
148.0
 20
100.1089938997022
 30
0.0
 11
147.99999999999989
 21
119.1089938997023
 31
0.0
  0
LINE
  5
10A
  8
0
  6
CONTINUOUS
 10
162.0
 20
100.1089938997023
 30
0.0
 11
162.0
 21
119.1089938997023
 31
0.0
  0
LINE
  5
10B
  8
0
  6
CONTINUOUS
 10
161.0
 20
120.1089938997023
 30
0.0
 11
148.99999999999989
 21
120.1089938997023
 31
0.0
  0
ARC
  5
10C
  8
0
  6
CONTINUOUS
 10
149.48361103399341
 20
70.608993899702284
 30
0.0
 40
0.5
 50
181.90915243299631
 51
270.0
  0
ARC
  5
10D
  8
0
  6
CONTINUOUS
 10
160.51638896600659
 20
70.608993899702284
 30
0.0
 40
0.5
 50
270.00000000000011
 51
358.09084756700349
  0
LINE
  5
10E
  8
0
  6
CONTINUOUS
 10
148.9838885805039
 20
70.592336484585985
 30
0.0
 11
148.0
 21
100.1089938997022
 31
0.0
  0
LINE
  5
10F
  8
0
  6
CONTINUOUS
 10
161.01611141949621
 20
70.592336484585985
 30
0.0
 11
162.0
 21
100.1089938997023
 31
0.0
  0
LINE
  5
110
  8
0
  6
CONTINUOUS
 10
162.0
 20
100.1089938997023
 30
0.0
 11
148.0
 21
100.1089938997023
 31
0.0
  0
LINE
  5
111
  8
0
  6
CONTINUOUS
 10
160.51638896600659
 20
70.108993899702284
 30
0.0
 11
149.48361103399341
 21
70.108993899702284
 31
0.0
  0
LINE
  5
112
  8
0
  6
PHA-05
 10
151.0
 20
69.108993899702341
 30
0.0
 11
151.0
 21
70.108993899702284
 31
0.0
  0
LINE
  5
113
  8
0
 10
118.1923303169381
 20
69.108993899702355
 30
0.0
 11
191.80766968306219
 21
69.108993899702341
 31
0.0
  0
LINE
  5
114
  8
0
  6
CONTINUOUS
 10
159.0
 20
70.108993899702341
 30
0.0
 11
160.0
 21
70.108993899702341
 31
0.0
  0
LINE
  5
115
  8
0
 10
257.27282197134087
 20
73.108993899702298
 30
0.0
 11
257.27282197134087
 21
72.555892378816836
 31
0.0
  0
LINE
  5
116
  8
0
 10
262.72717802865873
 20
73.108993899702298
 30
0.0
 11
262.72717802865873
 21
72.555892378814576
 31
0.0
  0
LINE
  5
117
  8
0
 10
262.72717802865873
 20
73.108993899702298
 30
0.0
 11
257.27282197134087
 21
73.108993899702298
 31
0.0
  0
LINE
  5
118
  8
0
 10
296.80766968305352
 20
69.108993899702313
 30
0.0
 11
223.1923303169377
 21
69.108993899702313
 31
0.0
  0
LINE
  5
119
  8
1
 10
272.0
 20
66.108993899702313
 30
0.0
 11
248.0
 21
66.108993899702313
 31
0.0
  0
ARC
  5
11A
  8
0
 10
224.5
 20
66.408993899702324
 30
0.0
 40
3.0
 50
115.8419327631855
 51
163.62954660160861
  0
ARC
  5
11B
  8
0
 10
259.99999999999989
 20
55.980667092395123
 30
0.0
 40
40.0
 50
163.6295490313133
 51
182.89958819717759
  0
ARC
  5
11C
  8
0
 10
223.04737033092559
 20
54.108993899702313
 30
0.0
 40
3.0
 50
182.89958819717739
 51
270.0
  0
ARC
  5
11D
  8
0
 10
296.95262966907438
 20
54.108993899702313
 30
0.0
 40
3.0
 50
270.0
 51
357.10041180282252
  0
ARC
  5
11E
  8
0
 10
260.0
 20
55.980667092395123
 30
0.0
 40
40.0
 50
357.10041180282241
 51
16.370450968686558
  0
ARC
  5
11F
  8
0
 10
295.5
 20
66.408993899702324
 30
0.0
 40
3.0
 50
16.370453398391408
 51
64.158067236814517
  0
LINE
  5
120
  8
1
 10
260.0
 20
29.108993899702309
 30
0.0
 11
260.0
 21
74.108993899702313
 31
0.0
  0
LINE
  5
121
  8
0
 10
223.0473718388171
 20
51.108993899702313
 30
0.0
 11
296.95262966907438
 21
51.108993899702313
 31
0.0
  0
LINE
  5
122
  8
0
 10
142.75
 20
51.108993899702341
 30
0.0
 11
142.75
 21
36.408993899702182
 31
0.0
  0
LINE
  5
123
  8
0
 10
167.25
 20
51.108993899702341
 30
0.0
 11
167.25
 21
36.408993899702409
 31
0.0
  0
LINE
  5
124
  8
0
 10
163.25
 20
51.108993899702341
 30
0.0
 11
163.25
 21
36.408993899702409
 31
0.0
  0
LINE
  5
125
  8
0
 10
146.75
 20
51.108993899702341
 30
0.0
 11
146.75
 21
36.408993899702182
 31
0.0
  0
LINE
  5
126
  8
0
 10
146.75
 20
36.408993899702217
 30
0.0
 11
142.75
 21
36.408993899702182
 31
0.0
  0
LINE
  5
127
  8
0
 10
251.75
 20
36.408993899702217
 30
0.0
 11
247.75
 21
36.408993899702182
 31
0.0
  0
LINE
  5
128
  8
0
 10
251.75
 20
51.108993899702341
 30
0.0
 11
251.75
 21
36.408993899702182
 31
0.0
  0
LINE
  5
129
  8
0
 10
268.25
 20
51.108993899702341
 30
0.0
 11
268.25
 21
36.408993899702409
 31
0.0
  0
LINE
  5
12A
  8
0
 10
272.25
 20
51.108993899702341
 30
0.0
 11
272.25
 21
36.408993899702409
 31
0.0
  0
LINE
  5
12B
  8
0
 10
247.75
 20
51.108993899702341
 30
0.0
 11
247.75
 21
36.408993899702182
 31
0.0
  0
LINE
  5
12C
  8
2
 10
269.0
 20
34.408993899702303
 30
0.0
 11
269.0
 21
51.108993899702341
 31
0.0
  0
LINE
  5
12D
  8
2
 10
271.49999999999989
 20
36.408993899702402
 30
0.0
 11
271.49999999999989
 21
51.608993899702341
 31
0.0
  0
LINE
  5
12E
  8
2
 10
250.99999999999989
 20
34.408993899702303
 30
0.0
 11
250.99999999999989
 21
51.108993899702341
 31
0.0
  0
LINE
  5
12F
  8
2
 10
248.49999999999989
 20
36.408993899702189
 30
0.0
 11
248.49999999999989
 21
51.608993899702341
 31
0.0
  0
LINE
  5
130
  8
2
 10
268.5
 20
51.108993899702341
 30
0.0
 11
250.99999999999989
 21
51.108993899702341
 31
0.0
  0
LINE
  5
131
  8
2
 10
264.0
 20
34.608993899702348
 30
0.0
 11
264.0
 21
51.108993899702341
 31
0.0
  0
LINE
  5
132
  8
2
 10
268.5
 20
51.108993899702341
 30
0.0
 11
268.5
 21
53.108993899702341
 31
0.0
  0
LINE
  5
133
  8
2
 10
271.49999999999989
 20
51.608993899702291
 30
0.0
 11
270.0
 21
53.108993899702341
 31
0.0
  0
LINE
  5
134
  8
2
 10
264.0
 20
34.608993899702348
 30
0.0
 11
264.5
 21
34.108993899702341
 31
0.0
  0
LINE
  5
135
  8
0
 10
251.75
 20
47.67102129962062
 30
0.0
 11
268.25
 21
47.67102129962062
 31
0.0
  0
LINE
  5
136
  8
2
 10
255.99999999999989
 20
34.608993899702348
 30
0.0
 11
255.49999999999989
 21
34.108993899702341
 31
0.0
  0
LINE
  5
137
  8
2
 10
255.99999999999989
 20
34.608993899702348
 30
0.0
 11
264.0
 21
34.608993899702348
 31
0.0
  0
LINE
  5
138
  8
2
 10
268.5
 20
52.108993899702341
 30
0.0
 11
251.49999999999989
 21
52.108993899702341
 31
0.0
  0
LINE
  5
139
  8
2
 10
270.0
 20
53.108993899702341
 30
0.0
 11
249.99999999999989
 21
53.108993899702341
 31
0.0
  0
LINE
  5
13A
  8
0
 10
248.49999999999989
 20
34.408993899702359
 30
0.0
 11
248.49999999999989
 21
36.408993899702189
 31
0.0
  0
LINE
  5
13B
  8
0
 10
272.25
 20
36.408993899702409
 30
0.0
 11
268.25
 21
36.408993899702367
 31
0.0
  0
LINE
  5
13C
  8
0
 10
269.0
 20
34.108993899702341
 30
0.0
 11
250.99999999999989
 21
34.108993899702398
 31
0.0
  0
LINE
  5
13D
  8
0
 10
271.49999999999989
 20
34.408993899702359
 30
0.0
 11
248.49999999999989
 21
34.408993899702303
 31
0.0
  0
LINE
  5
13E
  8
0
 10
269.0
 20
34.108993899702341
 30
0.0
 11
269.0
 21
34.408993899702359
 31
0.0
  0
LINE
  5
13F
  8
0
 10
271.49999999999989
 20
34.408993899702359
 30
0.0
 11
271.49999999999989
 21
36.408993899702402
 31
0.0
  0
LINE
  5
140
  8
2
 10
248.49999999999989
 20
51.608993899702291
 30
0.0
 11
249.99999999999989
 21
53.108993899702341
 31
0.0
  0
LINE
  5
141
  8
2
 10
251.49999999999989
 20
51.108993899702341
 30
0.0
 11
251.49999999999989
 21
53.108993899702341
 31
0.0
  0
LINE
  5
142
  8
0
 10
250.99999999999989
 20
34.108993899702341
 30
0.0
 11
250.99999999999989
 21
34.408993899702303
 31
0.0
  0
LINE
  5
143
  8
2
 10
255.99999999999989
 20
34.608993899702348
 30
0.0
 11
255.99999999999989
 21
51.108993899702341
 31
0.0
  0
ARC
  5
144
  8
0
 10
260.0
 20
66.108993899702313
 30
0.0
 40
7.0000000000001128
 50
25.37693352515236
 51
154.62306647484769
  0
ENDSEC
  0
EOF
