  0
SECTION
  2
HEADER
  9
$ACADVER
  1
AC1009
  9
$INSBASE
 10
0.0
 20
0.0
 30
0.0
  9
$EXTMIN
 10
79.948428878500636
 20
199.9456814582758
 30
-0.0015258207003583
  9
$EXTMAX
 10
1440.078738774263
 20
886.56372299250654
 30
0.0000000349246037
  9
$LIMMIN
 10
0.0
 20
0.0
  9
$LIMMAX
 10
1500.0
 20
1080.0
  9
$ORTHOMODE
 70
     1
  9
$REGENMODE
 70
     1
  9
$FILLMODE
 70
     1
  9
$QTEXTMODE
 70
     0
  9
$MIRRTEXT
 70
     0
  9
$DRAGMODE
 70
     2
  9
$LTSCALE
 40
40.0
  9
$OSMODE
 70
   231
  9
$ATTMODE
 70
     1
  9
$TEXTSIZE
 40
0.2
  9
$TRACEWID
 40
0.05
  9
$TEXTSTYLE
  7
STANDARD
  9
$CLAYER
  8
0
  9
$CELTYPE
  6
BYLAYER
  9
$CECOLOR
 62
   256
  9
$DIMSCALE
 40
4.0
  9
$DIMASZ
 40
3.0
  9
$DIMEXO
 40
2.0
  9
$DIMDLI
 40
0.38
  9
$DIMRND
 40
0.0
  9
$DIMDLE
 40
0.0
  9
$DIMEXE
 40
2.0
  9
$DIMTP
 40
0.0
  9
$DIMTM
 40
0.0
  9
$DIMTXT
 40
3.2000000000000002
  9
$DIMCEN
 40
0.0
  9
$DIMTSZ
 40
0.0
  9
$DIMTOL
 70
     0
  9
$DIMLIM
 70
     0
  9
$DIMTIH
 70
     0
  9
$DIMTOH
 70
     0
  9
$DIMSE1
 70
     0
  9
$DIMSE2
 70
     0
  9
$DIMTAD
 70
     1
  9
$DIMZIN
 70
     0
  9
$DIMBLK
  1

  9
$DIMASO
 70
     1
  9
$DIMSHO
 70
     0
  9
$DIMPOST
  1

  9
$DIMAPOST
  1

  9
$DIMALT
 70
     0
  9
$DIMALTD
 70
     2
  9
$DIMALTF
 40
25.399999999999999
  9
$DIMLFAC
 40
1.0
  9
$DIMTOFL
 70
     1
  9
$DIMTVP
 40
1.6000000000000001
  9
$DIMTIX
 70
     1
  9
$DIMSOXD
 70
     0
  9
$DIMSAH
 70
     0
  9
$DIMBLK1
  1

  9
$DIMBLK2
  1

  9
$DIMSTYLE
  2
STANDARD
  9
$DIMCLRD
 70
     0
  9
$DIMCLRE
 70
     0
  9
$DIMCLRT
 70
     0
  9
$DIMTFAC
 40
1.0
  9
$DIMGAP
 40
0.09
  9
$LUNITS
 70
     2
  9
$LUPREC
 70
     4
  9
$SKETCHINC
 40
0.1
  9
$FILLETRAD
 40
6.0
  9
$AUNITS
 70
     1
  9
$AUPREC
 70
     4
  9
$MENU
  1
E:\r13\win\SUPPORT\ACAD
  9
$ELEVATION
 40
0.0
  9
$PELEVATION
 40
0.0
  9
$THICKNESS
 40
0.0
  9
$LIMCHECK
 70
     0
  9
$BLIPMODE
 70
     1
  9
$CHAMFERA
 40
0.0
  9
$CHAMFERB
 40
0.0
  9
$SKPOLY
 70
     0
  9
$TDCREATE
 40
2449839.780243055
  9
$TDUPDATE
 40
2453236.7748770248
  9
$TDINDWG
 40
0.0001470486
  9
$TDUSRTIMER
 40
0.0001470486
  9
$USRTIMER
 70
     1
  9
$ANGBASE
 50
0.0
  9
$ANGDIR
 70
     0
  9
$PDMODE
 70
     0
  9
$PDSIZE
 40
0.0
  9
$PLINEWID
 40
0.0
  9
$COORDS
 70
     0
  9
$SPLFRAME
 70
     0
  9
$SPLINETYPE
 70
     6
  9
$SPLINESEGS
 70
     8
  9
$ATTDIA
 70
     0
  9
$ATTREQ
 70
     1
  9
$HANDLING
 70
-16383
  9
$HANDSEED
  5
1EA
  9
$SURFTAB1
 70
     6
  9
$SURFTAB2
 70
     6
  9
$SURFTYPE
 70
     6
  9
$SURFU
 70
     6
  9
$SURFV
 70
     6
  9
$UCSNAME
  2

  9
$UCSORG
 10
0.0
 20
0.0
 30
0.0
  9
$UCSXDIR
 10
1.0
 20
0.0
 30
0.0
  9
$UCSYDIR
 10
0.0
 20
1.0
 30
0.0
  9
$PUCSNAME
  2

  9
$PUCSORG
 10
0.0
 20
0.0
 30
0.0
  9
$PUCSXDIR
 10
1.0
 20
0.0
 30
0.0
  9
$PUCSYDIR
 10
0.0
 20
1.0
 30
0.0
  9
$USERI1
 70
     0
  9
$USERI2
 70
     1
  9
$USERI3
 70
     1
  9
$USERI4
 70
     0
  9
$USERI5
 70
     0
  9
$USERR1
 40
0.0
  9
$USERR2
 40
0.0
  9
$USERR3
 40
0.0
  9
$USERR4
 40
0.0
  9
$USERR5
 40
0.0
  9
$WORLDVIEW
 70
     1
  9
$SHADEDGE
 70
     3
  9
$SHADEDIF
 70
    70
  9
$TILEMODE
 70
     1
  9
$MAXACTVP
 70
    16
  9
$PLIMCHECK
 70
     0
  9
$PEXTMIN
 10
1.0000000000000000E+020
 20
1.0000000000000000E+020
 30
1.0000000000000000E+020
  9
$PEXTMAX
 10
-1.0000000000000000E+020
 20
-1.0000000000000000E+020
 30
-1.0000000000000000E+020
  9
$PLIMMIN
 10
0.0
 20
0.0
  9
$PLIMMAX
 10
12.0
 20
9.0
  9
$UNITMODE
 70
     0
  9
$VISRETAIN
 70
     0
  9
$PLINEGEN
 70
     0
  9
$PSLTSCALE
 70
     0
  0
ENDSEC
  0
SECTION
  2
TABLES
  0
TABLE
  2
VPORT
 70
     3
  0
VPORT
  2
*ACTIVE
 70
     0
 10
0.0
 20
0.0
 11
1.0
 21
1.0
 12
760.01358382638216
 22
543.25470222539116
 13
0.0
 23
0.0
 14
40.0
 24
40.0
 15
40.0
 25
40.0
 16
0.0
 26
0.0
 36
1.0
 17
0.0
 27
0.0
 37
0.0
 40
1619.985383495115
 41
0.9407114624505929
 42
50.0
 43
0.0
 44
0.0
 50
0.0
 51
0.0
 71
     0
 72
   500
 73
     1
 74
     0
 75
     0
 76
     0
 77
     0
 78
     2
  0
ENDTAB
  0
TABLE
  2
LTYPE
 70
     3
  0
LTYPE
  2
CONTINUOUS
 70
     0
  3
Solid Line
 72
    65
 73
     0
 40
0.0
  0
LTYPE
  2
CENTER
 70
     0
  3
____ _ ____ _ ____ _ ____ _ ____ _ ____ _ ____
 72
    65
 73
     4
 40
2.0
 49
1.25
 49
-0.25
 49
0.25
 49
-0.25
  0
LTYPE
  2
HIDDEN
 70
     0
  3
_ _ _ _ _ _ _ _ _ _ _ _ _ _ _ _ _ _ _ _ _ _ _
 72
    65
 73
     2
 40
0.375
 49
0.25
 49
-0.125
  0
ENDTAB
  0
TABLE
  2
LAYER
 70
     3
  0
LAYER
  2
0
 70
     0
 62
     7
  6
CONTINUOUS
  0
LAYER
  2
1
 70
     0
 62
     1
  6
CENTER
  0
LAYER
  2
2
 70
     0
 62
     2
  6
HIDDEN
  0
ENDTAB
  0
TABLE
  2
STYLE
 70
     1
  0
STYLE
  2
STANDARD
 70
     0
 40
0.0
 41
1.0
 50
0.0
 71
     0
 42
0.2
  3
TXT
  4
BIGFONT
  0
ENDTAB
  0
TABLE
  2
VIEW
 70
     1
  0
VIEW
  2
ALL
 70
     0
 40
1080.0
 10
883.96638655462186
 20
540.0
 41
0.0
 11
0.0
 21
0.0
 31
1.0
 12
0.0
 22
0.0
 32
0.0
 42
0.0
 43
0.0
 44
0.0
 50
0.0
 71
     0
  0
ENDTAB
  0
TABLE
  2
UCS
 70
     0
  0
ENDTAB
  0
TABLE
  2
APPID
 70
     1
  0
APPID
  2
ACAD
 70
     0
  0
ENDTAB
  0
TABLE
  2
DIMSTYLE
 70
     1
  0
DIMSTYLE
  2
STANDARD
 70
     0
  3

  4

  5

  6

  7

 40
1.0
 41
0.18
 42
0.0625
 43
0.38
 44
0.18
 45
0.0
 46
0.0
 47
0.0
 48
0.0
140
0.18
141
0.09
142
0.0
143
25.399999999999999
144
1.0
145
0.0
146
1.0
147
0.09
 71
     0
 72
     0
 73
     1
 74
     1
 75
     0
 76
     0
 77
     0
 78
     0
170
     0
171
     2
172
     0
173
     0
174
     0
175
     0
176
     0
177
     0
178
     0
  0
ENDTAB
  0
ENDSEC
  0
SECTION
  2
BLOCKS
  0
BLOCK
  8
0
  2
$MODEL_SPACE
 70
     0
 10
0.0
 20
0.0
 30
0.0
  3
$MODEL_SPACE
  1

  0
ENDBLK
  5
192
  8
0
  0
BLOCK
 67
     1
  8
0
  2
$PAPER_SPACE
 70
     0
 10
0.0
 20
0.0
 30
0.0
  3
$PAPER_SPACE
  1

  0
ENDBLK
  5
190
 67
     1
  8
0
  0
ENDSEC
  0
SECTION
  2
ENTITIES
  0
CIRCLE
  5
35
  8
0
 10
1040.0
 20
680.0
 30
0.0
 40
186.5
  0
LINE
  5
36
  8
1
 10
838.49999999999989
 20
680.0
 30
0.0
 11
1241.5
 21
680.0
 31
0.0
  0
LINE
  5
37
  8
1
 10
1040.0
 20
881.49999999999989
 30
0.0
 11
1040.0
 21
478.5
 31
0.0
  0
LINE
  5
38
  8
0
 10
1076.5
 20
834.01400098692318
 30
0.0
 11
1076.5
 21
525.98599901307671
 31
0.0
  0
LINE
  5
39
  8
0
 10
1003.5
 20
834.01400098692318
 30
0.0
 11
1003.5
 21
525.98599901307705
 31
0.0
  0
CIRCLE
  5
3A
  8
0
 10
1040.0
 20
680.0
 30
0.0
 40
35.0
  0
ARC
  5
3B
  8
0
 10
1080.5
 20
525.98599901307671
 30
0.0
 40
4.0
 50
180.0
 51
284.73312457534928
  0
ARC
  5
3C
  8
0
 10
999.5
 20
525.98599901307705
 30
0.0
 40
4.0
 50
255.2668754246518
 51
0.0000000000000254
  0
ARC
  5
3D
  8
0
 10
1040.0
 20
680.0
 30
0.0
 40
163.25
 50
284.73312457534831
 51
75.26687542465146
  0
CIRCLE
  5
3E
  8
0
 10
1040.0
 20
680.0
 30
0.0
 40
33.5
  0
CIRCLE
  5
3F
  8
0
 10
1040.0
 20
680.0
 30
0.0
 40
21.0
  0
LINE
  5
40
  8
1
 10
1440.0
 20
680.0
 30
0.0
 11
1317.0
 21
680.00000000000011
 31
0.0
  0
ARC
  5
41
  8
0
 10
1362.737857022259
 20
805.0
 30
0.0
 40
61.5
 50
83.001669976842905
 51
110.4738117355631
  0
ARC
  5
42
  8
0
 10
1369.5
 20
860.08650853292977
 30
0.0
 40
6.0
 50
0.0000000000000254
 51
83.001669976843019
  0
ARC
  5
43
  8
0
 10
1343.5
 20
856.52576886559791
 30
0.0
 40
6.5
 50
110.473811735563
 51
180.0
  0
ARC
  5
44
  8
0
 10
1343.5
 20
503.47423113440209
 30
0.0
 40
6.5
 50
180.0
 51
249.52618826443691
  0
ARC
  5
45
  8
0
 10
1369.5
 20
499.91349146707017
 30
0.0
 40
6.0
 50
276.998330023157
 51
0.0
  0
ARC
  5
46
  8
0
 10
1362.737857022259
 20
555.0
 30
0.0
 40
61.5
 50
249.52618826443691
 51
276.99833002315711
  0
ARC
  5
47
  8
0
 10
1040.0
 20
853.79999999999995
 30
0.0
 40
25.0
 50
288.99349093275441
 51
335.41238199027981
  0
ARC
  5
48
  8
0
 10
1040.0
 20
853.79999999999995
 30
0.0
 40
25.0
 50
204.5876180097201
 51
252.17576417534809
  0
ARC
  5
49
  8
0
 10
1040.0
 20
680.0
 30
0.0
 40
166.0477777563616
 50
98.420944125980753
 51
81.579055874019289
  0
ARC
  5
4A
  8
0
 10
1040.0
 20
680.0
 30
0.0
 40
163.25
 50
104.7331245753486
 51
255.26687542465129
  0
ARC
  5
4B
  8
0
 10
1064.0971402931759
 20
842.77376629619403
 30
0.0
 40
1.5
 50
81.579055874020497
 51
155.41238199028021
  0
ARC
  5
4C
  8
0
 10
1015.9028597068231
 20
842.77376629619403
 30
0.0
 40
1.5
 50
24.58761800971979
 51
98.420944125979545
  0
ARC
  5
4D
  8
0
 10
1080.5
 20
834.01400098692318
 30
0.0
 40
4.0
 50
75.266875424652156
 51
180.0
  0
ARC
  5
4E
  8
0
 10
999.5
 20
834.01400098692318
 30
0.0
 40
4.0
 50
0.0000000000000254
 51
104.73312457534939
  0
LINE
  5
4F
  8
1
 10
1395.5
 20
842.30000000000007
 30
0.0
 11
1337.4999999999991
 21
842.29999999999995
 31
0.0
  0
LINE
  5
50
  8
1
 10
1371.9799919935931
 20
840.29999999999995
 30
0.0
 11
1317.0
 21
840.29999999999995
 31
0.0
  0
LINE
  5
51
  8
1
 10
1012.0
 20
840.29999999999995
 30
0.0
 11
1068.0
 21
840.29999999999995
 31
0.0
  0
ARC
  5
52
  8
0
 10
1040.0
 20
840.29999999999995
 30
0.0
 40
13.0
 50
307.59830507767288
 51
232.40169492232741
  0
ARC
  5
53
  8
0
 10
1040.0
 20
840.29999999999995
 30
0.0
 40
6.5
 50
307.97987244482118
 51
232.02012755517879
  0
LINE
  5
54
  8
0
 10
1044.0
 20
845.42347538298554
 30
0.0
 11
1044.0
 21
830.0
 31
0.0
  0
LINE
  5
55
  8
0
 10
1036.0
 20
845.42347538298554
 30
0.0
 11
1036.0
 21
830.0
 31
0.0
  0
LINE
  5
56
  8
0
 10
1033.8
 20
830.0
 30
0.0
 11
1033.5
 21
825.5
 31
0.0
  0
LINE
  5
57
  8
0
 10
1047.652450587887
 20
830.0
 30
0.0
 11
1032.3475494121119
 21
830.0
 31
0.0
  0
LINE
  5
58
  8
0
 10
1046.4999999999991
 20
825.5
 30
0.0
 11
1046.2
 21
830.0
 31
0.0
  0
ARC
  5
59
  8
0
 10
1030.1597606950079
 20
823.95000000000005
 30
0.0
 40
1.25
 50
90.000000000000327
 51
175.7108466711808
  0
ARC
  5
5A
  8
0
 10
1049.840239304991
 20
823.95000000000005
 30
0.0
 40
1.25
 50
4.28915332881897
 51
90.000000000000313
  0
LINE
  5
5B
  8
0
 10
1028.913261557647
 20
824.04348743530215
 30
0.0
 11
1026.0
 21
785.19999999999982
 31
0.0
  0
LINE
  5
5C
  8
0
 10
1054.0
 20
785.19999999999982
 30
0.0
 11
1051.086738442352
 21
824.04348743530215
 31
0.0
  0
LINE
  5
5D
  8
0
 10
1031.0
 20
825.5
 30
0.0
 11
1031.0
 21
825.20000000000005
 31
0.0
  0
LINE
  5
5E
  8
0
 10
1049.0
 20
825.5
 30
0.0
 11
1049.0
 21
825.20000000000005
 31
0.0
  0
ARC
  5
5F
  8
0
 10
1040.0
 20
785.19999999999993
 30
0.0
 40
50.0
 50
255.989171925123
 51
284.01082807487688
  0
LINE
  5
60
  8
0
 10
1026.0
 20
785.19999999999993
 30
0.0
 11
1026.0
 21
739.1131255127882
 31
0.0
  0
LINE
  5
61
  8
0
 10
1054.0
 20
785.19999999999993
 30
0.0
 11
1054.0
 21
739.1131255127882
 31
0.0
  0
LINE
  5
62
  8
0
 10
1054.0
 20
785.19999999999993
 30
0.0
 11
1026.0
 21
785.19999999999993
 31
0.0
  0
LINE
  5
63
  8
0
 10
1049.840239304991
 20
825.20000000000016
 30
0.0
 11
1030.1597606950079
 21
825.20000000000016
 31
0.0
  0
LINE
  5
64
  8
0
 10
1049.0
 20
825.5
 30
0.0
 11
1031.0
 21
825.5
 31
0.0
  0
ARC
  5
65
  8
0
 10
1040.0
 20
839.299999999997
 30
0.0
 40
5.000000000000056
 50
36.869897645844041
 51
143.13010235415601
  0
LINE
  5
66
  8
0
 10
1043.8999999999951
 20
845.5
 30
0.0
 11
1036.100000000004
 21
845.5
 31
0.0
  0
LINE
  5
67
  8
1
 10
1347.0
 20
864.30000000000268
 30
0.0
 11
1347.0
 21
715.49999999999704
 31
0.0
  0
LINE
  5
68
  8
0
 10
1337.0
 20
856.52579044478432
 30
0.0
 11
1337.0
 21
503.47422218814393
 31
0.0
  0
ARC
  5
69
  8
0
 10
1028.4999999999991
 20
739.1131255127882
 30
0.0
 40
2.5
 50
180.00000000000131
 51
255.989171925124
  0
ARC
  5
6A
  8
0
 10
1051.5
 20
739.1131255127882
 30
0.0
 40
2.5
 50
284.01082807487597
 51
359.99999999999869
  0
LINE
  5
6B
  8
0
 10
1049.8488578017959
 20
737.19999999999993
 30
0.0
 11
1030.1511421982041
 21
737.19999999999993
 31
0.0
  0
LINE
  5
6C
  8
0
 10
1375.5
 20
499.91349146707017
 30
0.0
 11
1375.5
 21
860.08651932252303
 31
0.0
  0
CIRCLE
  5
6D
  8
0
 10
1040.0
 20
680.0
 30
0.0
 40
176.52577781185599
  0
ARC
  5
6E
  8
0
 10
1335.5
 20
739.41312551278861
 30
0.0
 40
2.5
 50
180.00000000000131
 51
255.98917192512269
  0
ARC
  5
6F
  8
0
 10
1337.1597606950079
 20
824.25000000000045
 30
0.0
 40
1.25
 50
97.342975438323762
 51
175.7108466711808
  0
LINE
  5
70
  8
0
 10
1335.913261557647
 20
824.34348743530256
 30
0.0
 11
1333.0
 21
785.50000000000023
 31
0.0
  0
ARC
  5
71
  8
0
 10
1347.0
 20
785.50000000000034
 30
0.0
 40
50.0
 50
255.98917192512289
 51
258.46304096718558
  0
LINE
  5
72
  8
0
 10
1333.0
 20
785.50000000000034
 30
0.0
 11
1333.0
 21
739.41312551278861
 31
0.0
  0
LINE
  5
73
  8
0
 10
1336.9999999999991
 20
785.50000000000034
 30
0.0
 11
1333.0
 21
785.50000000000034
 31
0.0
  0
LINE
  5
74
  8
0
 10
1419.9999999999991
 20
660.0
 30
0.0
 11
1419.9999999999991
 21
699.99999999999989
 31
0.0
  0
LINE
  5
75
  8
0
 10
1419.6999999999989
 20
645.0
 30
0.0
 11
1419.6999999999989
 21
715.0
 31
0.0
  0
LINE
  5
76
  8
0
 10
1419.6999999999989
 20
715.0
 30
0.0
 11
1407.088858462208
 21
715.0
 31
0.0
  0
LINE
  5
77
  8
0
 10
1419.6999999999989
 20
645.0
 30
0.0
 11
1407.088858462208
 21
645.0
 31
0.0
  0
LINE
  5
78
  8
0
 10
1419.9999999999991
 20
660.0
 30
0.0
 11
1419.6999999999989
 21
660.0
 31
0.0
  0
LINE
  5
79
  8
2
 10
1373.9999999999991
 20
646.50000000000023
 30
0.0
 11
1374.0
 21
713.49999999999989
 31
0.0
  0
LINE
  5
7A
  8
2
 10
1375.5
 20
715.0
 30
0.0
 11
1374.0
 21
713.49999999999989
 31
0.0
  0
LINE
  5
7B
  8
0
 10
1419.9999999999991
 20
699.99999999999989
 30
0.0
 11
1419.6999999999989
 21
699.99999999999989
 31
0.0
  0
LINE
  5
7C
  8
2
 10
1419.9999999999991
 20
693.0
 30
0.0
 11
1376.9999999999991
 21
693.0
 31
0.0
  0
LINE
  5
7D
  8
2
 10
1377.0
 20
701.0
 30
0.0
 11
1373.9999999999991
 21
701.0
 31
0.0
  0
LINE
  5
7E
  8
0
 10
1413.799999999999
 20
664.67631837430395
 30
0.0
 11
1413.799999999999
 21
695.32368162569674
 31
0.0
  0
LINE
  5
7F
  8
0
 10
1413.8
 20
664.67631837430395
 30
0.0
 11
1375.4999999999991
 21
552.38499066317831
 31
0.0
  0
LINE
  5
80
  8
2
 10
1376.0
 20
659.0
 30
0.0
 11
1375.9999999999991
 21
701.0
 31
0.0
  0
LINE
  5
81
  8
0
 10
1375.4999999999991
 20
622.55447478753103
 30
0.0
 11
1381.842045026875
 21
680.0
 31
0.0
  0
LINE
  5
82
  8
2
 10
1376.9999999999991
 20
659.0
 30
0.0
 11
1377.0
 21
701.0
 31
0.0
  0
LINE
  5
83
  8
0
 10
1375.4999999999991
 20
737.44552521246897
 30
0.0
 11
1381.842045026875
 21
680.0
 31
0.0
  0
LINE
  5
84
  8
0
 10
1413.8
 20
695.32368162569605
 30
0.0
 11
1375.4999999999991
 21
807.61500933682157
 31
0.0
  0
LINE
  5
85
  8
2
 10
1419.6999999999989
 20
699.99999999999989
 30
0.0
 11
1377.0
 21
699.99999999999989
 31
0.0
  0
LINE
  5
86
  8
2
 10
1407.088858462208
 20
715.0
 30
0.0
 11
1375.5
 21
715.0
 31
0.0
  0
LINE
  5
87
  8
2
 10
1407.088858462208
 20
645.0
 30
0.0
 11
1375.5
 21
645.0
 31
0.0
  0
LINE
  5
88
  8
2
 10
1375.5
 20
645.0
 30
0.0
 11
1374.0
 21
646.49999999999989
 31
0.0
  0
LINE
  5
89
  8
2
 10
1419.6999999999989
 20
660.00000000000011
 30
0.0
 11
1377.0
 21
660.00000000000011
 31
0.0
  0
LINE
  5
8A
  8
2
 10
1419.9999999999991
 20
667.0
 30
0.0
 11
1376.9999999999991
 21
667.0
 31
0.0
  0
LINE
  5
8B
  8
2
 10
1377.0
 20
659.0
 30
0.0
 11
1373.9999999999991
 21
659.0
 31
0.0
  0
LINE
  5
8C
  8
2
 10
1019.0
 20
262.99999999999972
 30
0.0
 11
1019.0
 21
265.99999999999977
 31
0.0
  0
LINE
  5
8D
  8
2
 10
1027.0
 20
220.0
 30
0.0
 11
1027.0
 21
262.99999999999989
 31
0.0
  0
LINE
  5
8E
  8
2
 10
1020.0
 20
220.2999999999999
 30
0.0
 11
1020.0
 21
262.99999999999972
 31
0.0
  0
LINE
  5
8F
  8
2
 10
1005.0
 20
264.49999999999972
 30
0.0
 11
1006.499999999999
 21
265.99999999999972
 31
0.0
  0
LINE
  5
90
  8
2
 10
1005.0
 20
226.19999999999999
 30
0.0
 11
1005.0
 21
264.4999999999996
 31
0.0
  0
LINE
  5
91
  8
2
 10
1075.0
 20
226.19999999999999
 30
0.0
 11
1075.0
 21
264.4999999999996
 31
0.0
  0
LINE
  5
92
  8
2
 10
1060.0
 20
220.2999999999999
 30
0.0
 11
1060.0
 21
262.99999999999972
 31
0.0
  0
LINE
  5
93
  8
0
 10
1068.9000000000001
 20
254.27520777804361
 30
0.0
 11
1011.099999999999
 21
254.27520777804361
 31
0.0
  0
LINE
  5
94
  8
2
 10
1019.0
 20
263.0
 30
0.0
 11
1061.0
 21
262.99999999999972
 31
0.0
  0
LINE
  5
95
  8
2
 10
1019.0
 20
263.99999999999972
 30
0.0
 11
1061.0
 21
264.0
 31
0.0
  0
LINE
  5
96
  8
0
 10
859.91349146707034
 20
264.5
 30
0.0
 11
1220.086508532929
 21
264.49999999999989
 31
0.0
  0
ARC
  5
97
  8
0
 10
915.0
 20
277.26214297774021
 30
0.0
 40
61.5
 50
159.5261882644368
 51
186.998330023157
  0
ARC
  5
98
  8
0
 10
859.91349146707034
 20
270.5
 30
0.0
 40
6.0
 50
186.99833002315691
 51
270.0
  0
ARC
  5
99
  8
0
 10
863.47423113440209
 20
296.49999999999989
 30
0.0
 40
6.5
 50
89.999999999999986
 51
159.5261882644368
  0
LINE
  5
9A
  8
0
 10
1003.5
 20
226.19999999999999
 30
0.0
 11
1011.099999999999
 21
226.19999999999999
 31
0.0
  0
ARC
  5
9B
  8
0
 10
1216.525768865597
 20
296.49999999999989
 30
0.0
 40
6.5
 50
20.473811735563078
 51
89.999999999999986
  0
ARC
  5
9C
  8
0
 10
1220.086508532929
 20
270.49999999999989
 30
0.0
 40
6.0
 50
270.0
 51
353.001669976843
  0
ARC
  5
9D
  8
0
 10
1165.0
 20
277.26214297774021
 30
0.0
 40
61.5
 50
353.00166997684289
 51
20.473811735563132
  0
LINE
  5
9E
  8
2
 10
1061.0
 20
262.99999999999972
 30
0.0
 11
1061.0
 21
265.99999999999977
 31
0.0
  0
LINE
  5
9F
  8
2
 10
1053.0
 20
220.0
 30
0.0
 11
1053.0
 21
262.99999999999989
 31
0.0
  0
LINE
  5
A0
  8
0
 10
1060.0
 20
220.0
 30
0.0
 11
1060.0
 21
220.2999999999999
 31
0.0
  0
LINE
  5
A1
  8
2
 10
1075.0
 20
264.49999999999972
 30
0.0
 11
1073.4999999999991
 21
265.99999999999972
 31
0.0
  0
LINE
  5
A2
  8
2
 10
1006.5
 20
266.0
 30
0.0
 11
1073.4999999999991
 21
265.99999999999972
 31
0.0
  0
LINE
  5
A3
  8
0
 10
1020.0
 20
220.0
 30
0.0
 11
1020.0
 21
220.2999999999999
 31
0.0
  0
LINE
  5
A4
  8
0
 10
1005.0
 20
220.2999999999999
 30
0.0
 11
1005.0
 21
226.19999999999999
 31
0.0
  0
LINE
  5
A5
  8
0
 10
1075.0
 20
220.2999999999999
 30
0.0
 11
1075.0
 21
226.19999999999999
 31
0.0
  0
LINE
  5
A6
  8
0
 10
1005.0
 20
220.2999999999999
 30
0.0
 11
1075.0
 21
220.2999999999999
 31
0.0
  0
LINE
  5
A7
  8
1
 10
1040.0
 20
200.0
 30
0.0
 11
1040.0
 21
327.00000000000063
 31
0.0
  0
LINE
  5
A8
  8
0
 10
1216.525768865597
 20
302.99999999999989
 30
0.0
 11
863.47422218814381
 21
303.0
 31
0.0
  0
LINE
  5
A9
  8
0
 10
1020.0
 20
220.0
 30
0.0
 11
1060.0
 21
220.0
 31
0.0
  0
LINE
  5
AA
  8
0
 10
1003.5
 20
264.5
 30
0.0
 11
1003.5
 21
226.19999999999999
 31
0.0
  0
LINE
  5
AB
  8
0
 10
1076.5
 20
264.49999999999989
 30
0.0
 11
1076.5
 21
226.19999999999999
 31
0.0
  0
LINE
  5
AC
  8
0
 10
1011.099999999999
 20
264.5
 30
0.0
 11
1011.099999999999
 21
226.19999999999999
 31
0.0
  0
LINE
  5
AD
  8
0
 10
1068.9000000000001
 20
264.49999999999989
 30
0.0
 11
1068.9000000000001
 21
226.19999999999999
 31
0.0
  0
LINE
  5
AE
  8
0
 10
1068.9000000000001
 20
226.19999999999999
 30
0.0
 11
1076.5
 21
226.19999999999999
 31
0.0
  0
LINE
  5
B8
  8
0
 10
144.5
 20
499.91349146707017
 30
0.0
 11
144.5
 21
860.08650853292977
 31
0.0
  0
ARC
  5
B9
  8
0
  6
CONTINUOUS
 10
269.38687448721168
 20
851.79999999999995
 30
0.0
 40
2.5
 50
14.01082807487724
 51
89.999999999998721
  0
ARC
  5
BA
  8
0
  6
CONTINUOUS
 10
269.38687448721168
 20
828.79999999999995
 30
0.0
 40
2.5
 50
270.00000000000131
 51
345.98917192512272
  0
LINE
  5
BB
  8
0
  6
CONTINUOUS
 10
271.30000000000013
 20
830.4511421982038
 30
0.0
 11
271.30000000000013
 21
850.148857801796
 31
0.0
  0
LINE
  5
BC
  8
0
 10
183.0
 20
856.52576886559791
 30
0.0
 11
183.0
 21
503.47422218814393
 31
0.0
  0
LINE
  5
BD
  8
1
 10
172.99999999999989
 20
864.30000000000041
 30
0.0
 11
173.0
 21
810.30000000000052
 31
0.0
  0
ARC
  5
BE
  8
0
  6
CONTINUOUS
 10
184.5499999999997
 20
850.14023930499161
 30
0.0
 40
1.25
 50
94.289153328819197
 51
179.99999999999969
  0
ARC
  5
BF
  8
0
  6
CONTINUOUS
 10
184.5499999999997
 20
830.45976069500819
 30
0.0
 40
1.25
 50
179.99999999999969
 51
265.71084667118112
  0
LINE
  5
C0
  8
0
  6
CONTINUOUS
 10
184.4565125646977
 20
851.38673844235211
 30
0.0
 11
223.3000000000001
 21
854.30000000000007
 31
0.0
  0
LINE
  5
C1
  8
0
  6
CONTINUOUS
 10
223.3000000000001
 20
826.30000000000007
 30
0.0
 11
184.4565125646977
 21
829.21326155764746
 31
0.0
  0
LINE
  5
C2
  8
0
  6
CONTINUOUS
 10
183.0
 20
849.29999999999995
 30
0.0
 11
183.2999999999999
 21
849.29999999999995
 31
0.0
  0
LINE
  5
C3
  8
0
  6
CONTINUOUS
 10
183.0
 20
831.29999999999995
 30
0.0
 11
183.2999999999999
 21
831.29999999999995
 31
0.0
  0
ARC
  5
C4
  8
0
  6
CONTINUOUS
 10
223.3000000000001
 20
840.29999999999995
 30
0.0
 40
50.0
 50
345.989171925123
 51
14.010828074877031
  0
LINE
  5
C5
  8
0
  6
CONTINUOUS
 10
223.3000000000001
 20
854.30000000000007
 30
0.0
 11
269.38687448721168
 21
854.29999999999995
 31
0.0
  0
LINE
  5
C6
  8
0
  6
CONTINUOUS
 10
223.3000000000001
 20
826.30000000000007
 30
0.0
 11
269.38687448721168
 21
826.30000000000007
 31
0.0
  0
LINE
  5
C7
  8
0
  6
CONTINUOUS
 10
223.3000000000001
 20
826.30000000000007
 30
0.0
 11
223.3000000000001
 21
854.30000000000007
 31
0.0
  0
LINE
  5
C8
  8
0
  6
CONTINUOUS
 10
183.2999999999997
 20
830.45976069500819
 30
0.0
 11
183.2999999999997
 21
850.14023930499161
 31
0.0
  0
LINE
  5
C9
  8
1
 10
148.02000800640411
 20
840.29999999999995
 30
0.0
 11
293.29999999999922
 21
840.29999999999995
 31
0.0
  0
LINE
  5
CA
  8
1
 10
124.5
 20
842.29999999999995
 30
0.0
 11
182.5000000000004
 21
842.29999999999984
 31
0.0
  0
ARC
  5
CB
  8
0
 10
157.26214297774021
 20
555.0
 30
0.0
 40
61.5
 50
263.00166997684289
 51
290.47381173556312
  0
ARC
  5
CC
  8
0
 10
150.5
 20
499.91349146707017
 30
0.0
 40
6.0
 50
180.0
 51
263.001669976843
  0
ARC
  5
CD
  8
0
 10
176.5
 20
503.47423113440209
 30
0.0
 40
6.5
 50
290.47381173556312
 51
0.0
  0
ARC
  5
CE
  8
0
 10
176.5
 20
856.52576886559791
 30
0.0
 40
6.5
 50
0.0
 51
69.526188264436911
  0
ARC
  5
CF
  8
0
 10
150.5
 20
860.08650853292977
 30
0.0
 40
6.0
 50
96.99833002315701
 51
180.0
  0
ARC
  5
D0
  8
0
 10
157.26214297774021
 20
805.0
 30
0.0
 40
61.5
 50
69.526188264436868
 51
96.998330023157109
  0
LINE
  5
D1
  8
1
 10
80.000000000000028
 20
680.0
 30
0.0
 11
203.0
 21
680.00000000000023
 31
0.0
  0
CIRCLE
  5
D2
  8
0
 10
520.0
 20
680.0
 30
0.0
 40
176.52577781185599
  0
LINE
  5
D3
  8
1
 10
486.00000000000341
 20
840.29999999999995
 30
0.0
 11
553.99999999999659
 21
840.29999999999995
 31
0.0
  0
ARC
  5
D4
  8
0
 10
479.49999999999989
 20
834.01400098692318
 30
0.0
 40
4.0
 50
0.0000000000000254
 51
104.73312457534939
  0
ARC
  5
D5
  8
0
 10
560.5
 20
834.01400098692318
 30
0.0
 40
4.0
 50
75.266875424652156
 51
180.0
  0
ARC
  5
D6
  8
0
 10
495.90285970682328
 20
842.77376629619403
 30
0.0
 40
1.5
 50
24.58761800971979
 51
98.420944125979545
  0
ARC
  5
D7
  8
0
 10
544.09714029317684
 20
842.77376629619403
 30
0.0
 40
1.5
 50
81.579055874020497
 51
155.41238199028021
  0
ARC
  5
D8
  8
0
 10
520.0
 20
680.0
 30
0.0
 40
163.25
 50
104.7331245753486
 51
255.26687542465129
  0
ARC
  5
D9
  8
0
 10
520.0
 20
680.0
 30
0.0
 40
166.0477777563616
 50
98.420944125980753
 51
81.579055874019289
  0
ARC
  5
DA
  8
0
 10
520.0
 20
853.79999999999995
 30
0.0
 40
25.0
 50
204.5876180097201
 51
244.8982112921737
  0
ARC
  5
DB
  8
0
 10
520.0
 20
853.79999999999995
 30
0.0
 40
25.0
 50
295.10178870782619
 51
335.41238199027981
  0
CIRCLE
  5
DC
  8
0
 10
520.0
 20
680.0
 30
0.0
 40
21.0
  0
CIRCLE
  5
DD
  8
0
 10
520.0
 20
680.0
 30
0.0
 40
33.5
  0
ARC
  5
DE
  8
0
 10
520.0
 20
680.0
 30
0.0
 40
163.25
 50
284.73312457534831
 51
75.26687542465146
  0
ARC
  5
DF
  8
0
 10
479.5
 20
525.98599901307705
 30
0.0
 40
4.0
 50
255.2668754246518
 51
0.0000000000000254
  0
ARC
  5
E0
  8
0
 10
560.5
 20
525.98599901307671
 30
0.0
 40
4.0
 50
180.0
 51
284.73312457534928
  0
CIRCLE
  5
E1
  8
0
 10
520.0
 20
680.0
 30
0.0
 40
35.0
  0
LINE
  5
E2
  8
0
 10
483.49999999999989
 20
834.01400098692318
 30
0.0
 11
483.49999999999989
 21
525.98599901307705
 31
0.0
  0
LINE
  5
E3
  8
0
 10
556.5
 20
834.01400098692318
 30
0.0
 11
556.5
 21
525.98599901307671
 31
0.0
  0
CIRCLE
  5
E4
  8
0
 10
520.0
 20
680.0
 30
0.0
 40
186.5
  0
LINE
  5
E5
  8
1
 10
313.5
 20
680.0
 30
0.0
 11
726.5
 21
680.0
 31
0.0
  0
LINE
  5
E6
  8
1
 10
520.0
 20
886.5
 30
0.0
 11
520.0
 21
473.5
 31
0.0
  0
LINE
  5
E7
  8
1
 10
1074.0
 20
293.0
 30
0.0
 11
1006.0
 21
293.0
 31
0.0
  0
ARC
  5
E8
  8
0
 10
1040.0
 20
293.0
 30
0.0
 40
13.999999999999879
 50
45.584691402807103
 51
134.4153085971935
  0
LINE
  5
E9
  8
0
 10
100.0
 20
660.0
 30
0.0
 11
100.0
 21
699.99999999999989
 31
0.0
  0
LINE
  5
EA
  8
0
 10
100.2999999999999
 20
645.0
 30
0.0
 11
100.2999999999999
 21
715.0
 31
0.0
  0
LINE
  5
EB
  8
0
 10
100.2999999999999
 20
715.0
 30
0.0
 11
112.911141537791
 21
715.0
 31
0.0
  0
LINE
  5
EC
  8
0
 10
100.2999999999999
 20
645.0
 30
0.0
 11
112.911141537791
 21
645.0
 31
0.0
  0
LINE
  5
ED
  8
0
 10
100.0
 20
660.0
 30
0.0
 11
100.2999999999999
 21
660.0
 31
0.0
  0
LINE
  5
EE
  8
2
 10
146.0
 20
646.50000000000023
 30
0.0
 11
145.99999999999969
 21
713.49999999999989
 31
0.0
  0
LINE
  5
EF
  8
2
 10
144.49999999999969
 20
715.0
 30
0.0
 11
145.99999999999969
 21
713.49999999999989
 31
0.0
  0
LINE
  5
F0
  8
0
 10
100.0
 20
699.99999999999989
 30
0.0
 11
100.2999999999999
 21
699.99999999999989
 31
0.0
  0
LINE
  5
F1
  8
2
 10
100.0
 20
693.0
 30
0.0
 11
143.0
 21
693.0
 31
0.0
  0
LINE
  5
F2
  8
2
 10
142.99999999999969
 20
701.0
 30
0.0
 11
146.0
 21
701.0
 31
0.0
  0
LINE
  5
F3
  8
0
 10
106.2
 20
664.67631837430395
 30
0.0
 11
106.2
 21
695.32368162569674
 31
0.0
  0
LINE
  5
F4
  8
0
 10
106.1999999999998
 20
664.67631837430395
 30
0.0
 11
144.5000000000002
 21
552.38499066317831
 31
0.0
  0
LINE
  5
F5
  8
2
 10
143.99999999999969
 20
659.0
 30
0.0
 11
144.0
 21
701.0
 31
0.0
  0
LINE
  5
F6
  8
0
 10
144.5
 20
622.55447478753103
 30
0.0
 11
138.15795497312411
 21
680.0
 31
0.0
  0
LINE
  5
F7
  8
2
 10
143.0
 20
659.0
 30
0.0
 11
142.99999999999969
 21
701.0
 31
0.0
  0
LINE
  5
F8
  8
0
 10
144.5
 20
737.44552521246897
 30
0.0
 11
138.15795497312411
 21
680.0
 31
0.0
  0
LINE
  5
F9
  8
0
 10
106.1999999999998
 20
695.32368162569605
 30
0.0
 11
144.5000000000002
 21
807.61500933682157
 31
0.0
  0
LINE
  5
FA
  8
2
 10
100.2999999999999
 20
699.99999999999989
 30
0.0
 11
142.99999999999969
 21
699.99999999999989
 31
0.0
  0
LINE
  5
FB
  8
2
 10
112.911141537791
 20
715.0
 30
0.0
 11
144.49999999999949
 21
715.0
 31
0.0
  0
LINE
  5
FC
  8
2
 10
112.911141537791
 20
645.0
 30
0.0
 11
144.49999999999949
 21
645.0
 31
0.0
  0
LINE
  5
FD
  8
2
 10
144.49999999999969
 20
645.0
 30
0.0
 11
145.99999999999969
 21
646.49999999999989
 31
0.0
  0
LINE
  5
FE
  8
2
 10
100.2999999999999
 20
660.00000000000011
 30
0.0
 11
142.99999999999969
 21
660.00000000000011
 31
0.0
  0
LINE
  5
FF
  8
2
 10
100.0
 20
667.0
 30
0.0
 11
143.0
 21
667.0
 31
0.0
  0
LINE
  5
100
  8
2
 10
142.99999999999969
 20
659.0
 30
0.0
 11
146.0
 21
659.0
 31
0.0
  0
LINE
  5
101
  8
1
 10
520.0
 20
200.0
 30
0.0
 11
519.99999999999955
 21
413.30000000000013
 31
0.0
  0
ARC
  5
102
  8
0
 10
395.0
 20
277.26214297774021
 30
0.0
 40
61.5
 50
159.5261882644368
 51
186.99833002315711
  0
ARC
  5
103
  8
0
 10
339.91349146707017
 20
270.5
 30
0.0
 40
6.0
 50
186.998330023157
 51
270.0
  0
ARC
  5
104
  8
0
 10
343.47423113440198
 20
296.49999999999989
 30
0.0
 40
6.5
 50
90.0
 51
159.52618826443691
  0
ARC
  5
105
  8
0
 10
696.52576886559791
 20
296.49999999999989
 30
0.0
 40
6.5
 50
20.473811735563078
 51
90.0
  0
ARC
  5
106
  8
0
 10
700.08650853292966
 20
270.5
 30
0.0
 40
6.0
 50
270.0
 51
353.001669976843
  0
ARC
  5
107
  8
0
 10
645.0
 20
277.26214297774021
 30
0.0
 40
61.5
 50
353.00166997684289
 51
20.473811735563132
  0
LINE
  5
108
  8
0
  6
CONTINUOUS
 10
529.84023930499154
 20
303.30000000000001
 30
0.0
 11
510.159760695008
 21
303.30000000000001
 31
0.0
  0
LINE
  5
109
  8
0
  6
CONTINUOUS
 10
533.99999999999955
 20
343.30000000000041
 30
0.0
 11
505.9999999999996
 21
343.30000000000041
 31
0.0
  0
LINE
  5
10A
  8
0
  6
CONTINUOUS
 10
533.99999999999955
 20
343.30000000000041
 30
0.0
 11
533.99999999999955
 21
389.38687448721203
 31
0.0
  0
LINE
  5
10B
  8
0
  6
CONTINUOUS
 10
505.9999999999996
 20
343.30000000000041
 30
0.0
 11
505.99999999999972
 21
389.38687448721203
 31
0.0
  0
ARC
  5
10C
  8
0
  6
CONTINUOUS
 10
519.99999999999966
 20
343.30000000000041
 30
0.0
 40
50.0
 50
75.989171925123046
 51
104.010828074877
  0
LINE
  5
10D
  8
0
  6
CONTINUOUS
 10
528.99999999999955
 20
303.00000000000023
 30
0.0
 11
528.99999999999955
 21
303.30000000000018
 31
0.0
  0
LINE
  5
10E
  8
0
  6
CONTINUOUS
 10
510.99999999999972
 20
303.00000000000023
 30
0.0
 11
510.99999999999972
 21
303.30000000000018
 31
0.0
  0
LINE
  5
10F
  8
0
  6
CONTINUOUS
 10
533.99999999999955
 20
343.30000000000041
 30
0.0
 11
531.08673844235204
 21
304.45651256469802
 31
0.0
  0
LINE
  5
110
  8
0
  6
CONTINUOUS
 10
508.9132615576475
 20
304.45651256469802
 30
0.0
 11
505.9999999999996
 21
343.30000000000041
 31
0.0
  0
ARC
  5
111
  8
0
  6
CONTINUOUS
 10
529.84023930499154
 20
304.55000000000001
 30
0.0
 40
1.25
 50
269.99999999999972
 51
355.71084667118112
  0
ARC
  5
112
  8
0
  6
CONTINUOUS
 10
510.159760695008
 20
304.55000000000001
 30
0.0
 40
1.25
 50
184.2891533288192
 51
269.99999999999972
  0
LINE
  5
113
  8
1
 10
495.99999999999989
 20
293.00000000000028
 30
0.0
 11
543.99999999999966
 21
293.00000000000023
 31
0.0
  0
LINE
  5
114
  8
0
 10
343.47423113440198
 20
303.0
 30
0.0
 11
696.52577781185596
 21
303.0
 31
0.0
  0
LINE
  5
115
  8
0
  6
CONTINUOUS
 10
529.84885780179582
 20
391.30000000000041
 30
0.0
 11
510.15114219820367
 21
391.30000000000041
 31
0.0
  0
ARC
  5
116
  8
0
  6
CONTINUOUS
 10
531.49999999999955
 20
389.38687448721203
 30
0.0
 40
2.5
 50
0.00000000000136
 51
75.989171925122747
  0
ARC
  5
117
  8
0
  6
CONTINUOUS
 10
508.4999999999996
 20
389.38687448721203
 30
0.0
 40
2.5
 50
104.0108280748772
 51
179.99999999999869
  0
LINE
  5
118
  8
0
 10
700.08650853292966
 20
264.5
 30
0.0
 11
339.91349146707017
 21
264.5
 31
0.0
  0
LINE
  5
119
  8
0
 10
548.89999999999975
 20
226.19999999999899
 30
0.0
 11
556.49999999999966
 21
226.19999999999899
 31
0.0
  0
LINE
  5
11A
  8
0
 10
548.89999999999975
 20
264.49999999999892
 30
0.0
 11
548.89999999999975
 21
226.19999999999899
 31
0.0
  0
LINE
  5
11B
  8
0
 10
491.09999999999962
 20
264.49999999999892
 30
0.0
 11
491.09999999999962
 21
226.19999999999899
 31
0.0
  0
LINE
  5
11C
  8
0
 10
556.49999999999966
 20
264.49999999999892
 30
0.0
 11
556.49999999999966
 21
226.19999999999899
 31
0.0
  0
LINE
  5
11D
  8
0
 10
483.49999999999977
 20
264.49999999999892
 30
0.0
 11
483.49999999999977
 21
226.19999999999899
 31
0.0
  0
LINE
  5
11E
  8
0
 10
499.99999999999977
 20
219.99999999999889
 30
0.0
 11
539.99999999999966
 21
219.99999999999889
 31
0.0
  0
LINE
  5
11F
  8
0
 10
484.99999999999972
 20
220.2999999999989
 30
0.0
 11
554.99999999999977
 21
220.2999999999989
 31
0.0
  0
LINE
  5
120
  8
0
 10
554.99999999999977
 20
220.2999999999989
 30
0.0
 11
554.99999999999977
 21
226.19999999999899
 31
0.0
  0
LINE
  5
121
  8
0
 10
484.99999999999972
 20
220.2999999999989
 30
0.0
 11
484.99999999999972
 21
226.19999999999899
 31
0.0
  0
LINE
  5
122
  8
0
 10
499.99999999999977
 20
219.99999999999889
 30
0.0
 11
499.99999999999977
 21
220.2999999999989
 31
0.0
  0
LINE
  5
123
  8
2
 10
486.5
 20
265.99999999999892
 30
0.0
 11
553.49999999999966
 21
265.99999999999869
 31
0.0
  0
LINE
  5
124
  8
2
 10
554.99999999999977
 20
264.49999999999869
 30
0.0
 11
553.49999999999966
 21
265.99999999999869
 31
0.0
  0
LINE
  5
125
  8
0
 10
539.99999999999966
 20
219.99999999999889
 30
0.0
 11
539.99999999999966
 21
220.2999999999989
 31
0.0
  0
LINE
  5
126
  8
2
 10
532.99999999999966
 20
219.99999999999889
 30
0.0
 11
532.99999999999966
 21
262.99999999999881
 31
0.0
  0
LINE
  5
127
  8
2
 10
540.99999999999966
 20
262.99999999999869
 30
0.0
 11
540.99999999999966
 21
265.99999999999881
 31
0.0
  0
LINE
  5
128
  8
0
 10
483.49999999999977
 20
226.19999999999899
 30
0.0
 11
491.09999999999962
 21
226.19999999999899
 31
0.0
  0
LINE
  5
129
  8
2
 10
498.99999999999972
 20
263.99999999999869
 30
0.0
 11
540.99999999999966
 21
263.99999999999892
 31
0.0
  0
LINE
  5
12A
  8
2
 10
498.99999999999972
 20
262.99999999999892
 30
0.0
 11
540.99999999999966
 21
262.99999999999869
 31
0.0
  0
LINE
  5
12B
  8
0
 10
548.89999999999975
 20
254.27520777804261
 30
0.0
 11
491.09999999999962
 21
254.27520777804261
 31
0.0
  0
LINE
  5
12C
  8
2
 10
539.99999999999966
 20
220.2999999999989
 30
0.0
 11
539.99999999999966
 21
262.99999999999869
 31
0.0
  0
LINE
  5
12D
  8
2
 10
554.99999999999977
 20
226.19999999999899
 30
0.0
 11
554.99999999999977
 21
264.49999999999858
 31
0.0
  0
LINE
  5
12E
  8
2
 10
484.99999999999972
 20
226.19999999999899
 30
0.0
 11
484.99999999999972
 21
264.49999999999858
 31
0.0
  0
LINE
  5
12F
  8
2
 10
484.99999999999972
 20
264.49999999999869
 30
0.0
 11
486.49999999999972
 21
265.99999999999869
 31
0.0
  0
LINE
  5
130
  8
2
 10
499.99999999999977
 20
220.2999999999989
 30
0.0
 11
499.99999999999977
 21
262.99999999999869
 31
0.0
  0
LINE
  5
131
  8
2
 10
506.99999999999972
 20
219.99999999999889
 30
0.0
 11
506.99999999999972
 21
262.99999999999881
 31
0.0
  0
LINE
  5
132
  8
2
 10
498.99999999999972
 20
262.99999999999869
 30
0.0
 11
498.99999999999972
 21
265.99999999999881
 31
0.0
  0
CIRCLE
  5
133
  8
0
 10
520.0
 20
840.29999999999995
 30
0.0
 40
14.0
  0
ENDSEC
  0
EOF
