  0
SECTION
  2
HEADER
  9
$ACADVER
  1
AC1009
  9
$INSBASE
 10
0.0
 20
0.0
 30
0.0
  9
$EXTMIN
 10
36.701205054648653
 20
111.7062398089401
 30
-0.0015258207003583
  9
$EXTMAX
 10
1103.319170684925
 20
674.00711232331457
 30
0.0000000349246037
  9
$LIMMIN
 10
0.0
 20
0.0
  9
$LIMMAX
 10
1125.0
 20
810.0
  9
$ORTHOMODE
 70
     1
  9
$REGENMODE
 70
     1
  9
$FILLMODE
 70
     1
  9
$QTEXTMODE
 70
     0
  9
$MIRRTEXT
 70
     0
  9
$DRAGMODE
 70
     2
  9
$LTSCALE
 40
30.0
  9
$OSMODE
 70
   231
  9
$ATTMODE
 70
     1
  9
$TEXTSIZE
 40
10.00000000000049
  9
$TRACEWID
 40
0.05
  9
$TEXTSTYLE
  7
STANDARD
  9
$CLAYER
  8
0
  9
$CELTYPE
  6
BYLAYER
  9
$CECOLOR
 62
   256
  9
$DIMSCALE
 40
3.0
  9
$DIMASZ
 40
3.0
  9
$DIMEXO
 40
2.0
  9
$DIMDLI
 40
0.3799999999999999
  9
$DIMRND
 40
0.0
  9
$DIMDLE
 40
0.0
  9
$DIMEXE
 40
2.0
  9
$DIMTP
 40
0.0
  9
$DIMTM
 40
0.0
  9
$DIMTXT
 40
3.2000000000000002
  9
$DIMCEN
 40
0.09
  9
$DIMTSZ
 40
0.0
  9
$DIMTOL
 70
     0
  9
$DIMLIM
 70
     0
  9
$DIMTIH
 70
     0
  9
$DIMTOH
 70
     0
  9
$DIMSE1
 70
     0
  9
$DIMSE2
 70
     0
  9
$DIMTAD
 70
     1
  9
$DIMZIN
 70
     0
  9
$DIMBLK
  1

  9
$DIMASO
 70
     1
  9
$DIMSHO
 70
     0
  9
$DIMPOST
  1

  9
$DIMAPOST
  1

  9
$DIMALT
 70
     0
  9
$DIMALTD
 70
     2
  9
$DIMALTF
 40
25.399999999999999
  9
$DIMLFAC
 40
1.0
  9
$DIMTOFL
 70
     0
  9
$DIMTVP
 40
1.6000000000000001
  9
$DIMTIX
 70
     1
  9
$DIMSOXD
 70
     0
  9
$DIMSAH
 70
     0
  9
$DIMBLK1
  1

  9
$DIMBLK2
  1

  9
$DIMSTYLE
  2
STANDARD
  9
$DIMCLRD
 70
     0
  9
$DIMCLRE
 70
     0
  9
$DIMCLRT
 70
     0
  9
$DIMTFAC
 40
1.0
  9
$DIMGAP
 40
0.09
  9
$LUNITS
 70
     2
  9
$LUPREC
 70
     4
  9
$SKETCHINC
 40
0.1
  9
$FILLETRAD
 40
0.0
  9
$AUNITS
 70
     0
  9
$AUPREC
 70
     0
  9
$MENU
  1
E:\r13\win\SUPPORT\ACAD
  9
$ELEVATION
 40
0.0
  9
$PELEVATION
 40
0.0
  9
$THICKNESS
 40
0.0
  9
$LIMCHECK
 70
     0
  9
$BLIPMODE
 70
     1
  9
$CHAMFERA
 40
0.0
  9
$CHAMFERB
 40
0.0
  9
$SKPOLY
 70
     0
  9
$TDCREATE
 40
2449839.7802083329
  9
$TDUPDATE
 40
2453236.774782442
  9
$TDINDWG
 40
0.0001573495
  9
$TDUSRTIMER
 40
0.0001573495
  9
$USRTIMER
 70
     1
  9
$ANGBASE
 50
0.0
  9
$ANGDIR
 70
     0
  9
$PDMODE
 70
     0
  9
$PDSIZE
 40
0.0
  9
$PLINEWID
 40
0.0
  9
$COORDS
 70
     0
  9
$SPLFRAME
 70
     0
  9
$SPLINETYPE
 70
     6
  9
$SPLINESEGS
 70
     8
  9
$ATTDIA
 70
     0
  9
$ATTREQ
 70
     1
  9
$HANDLING
 70
-16383
  9
$HANDSEED
  5
1FC
  9
$SURFTAB1
 70
     6
  9
$SURFTAB2
 70
     6
  9
$SURFTYPE
 70
     6
  9
$SURFU
 70
     6
  9
$SURFV
 70
     6
  9
$UCSNAME
  2

  9
$UCSORG
 10
0.0
 20
0.0
 30
0.0
  9
$UCSXDIR
 10
1.0
 20
0.0
 30
0.0
  9
$UCSYDIR
 10
0.0
 20
1.0
 30
0.0
  9
$PUCSNAME
  2

  9
$PUCSORG
 10
0.0
 20
0.0
 30
0.0
  9
$PUCSXDIR
 10
1.0
 20
0.0
 30
0.0
  9
$PUCSYDIR
 10
0.0
 20
1.0
 30
0.0
  9
$USERI1
 70
     0
  9
$USERI2
 70
     1
  9
$USERI3
 70
     1
  9
$USERI4
 70
     0
  9
$USERI5
 70
     0
  9
$USERR1
 40
0.0
  9
$USERR2
 40
0.0
  9
$USERR3
 40
0.0
  9
$USERR4
 40
0.0
  9
$USERR5
 40
0.0
  9
$WORLDVIEW
 70
     1
  9
$SHADEDGE
 70
     3
  9
$SHADEDIF
 70
    70
  9
$TILEMODE
 70
     1
  9
$MAXACTVP
 70
    16
  9
$PLIMCHECK
 70
     0
  9
$PEXTMIN
 10
1.0000000000000000E+020
 20
1.0000000000000000E+020
 30
1.0000000000000000E+020
  9
$PEXTMAX
 10
-1.0000000000000000E+020
 20
-1.0000000000000000E+020
 30
-1.0000000000000000E+020
  9
$PLIMMIN
 10
0.0
 20
0.0
  9
$PLIMMAX
 10
12.0
 20
9.0
  9
$UNITMODE
 70
     0
  9
$VISRETAIN
 70
     0
  9
$PLINEGEN
 70
     0
  9
$PSLTSCALE
 70
     0
  0
ENDSEC
  0
SECTION
  2
TABLES
  0
TABLE
  2
VPORT
 70
     3
  0
VPORT
  2
*ACTIVE
 70
     0
 10
0.0
 20
0.0
 11
1.0
 21
1.0
 12
570.01018786978693
 22
392.85667606612742
 13
0.0
 23
0.0
 14
30.0
 24
30.0
 15
30.0
 25
30.0
 16
0.0
 26
0.0
 36
1.0
 17
0.0
 27
0.0
 37
0.0
 40
1270.397035874279
 41
0.9407114624505929
 42
50.0
 43
0.0
 44
0.0
 50
0.0
 51
0.0
 71
     0
 72
   500
 73
     1
 74
     0
 75
     0
 76
     0
 77
     0
 78
     2
  0
ENDTAB
  0
TABLE
  2
LTYPE
 70
     3
  0
LTYPE
  2
CONTINUOUS
 70
     0
  3
Solid Line
 72
    65
 73
     0
 40
0.0
  0
LTYPE
  2
CENTER
 70
     0
  3
____ _ ____ _ ____ _ ____ _ ____ _ ____ _ ____
 72
    65
 73
     4
 40
2.0
 49
1.25
 49
-0.25
 49
0.25
 49
-0.25
  0
LTYPE
  2
HIDDEN
 70
     0
  3
_ _ _ _ _ _ _ _ _ _ _ _ _ _ _ _ _ _ _ _ _ _ _
 72
    65
 73
     2
 40
0.375
 49
0.25
 49
-0.125
  0
ENDTAB
  0
TABLE
  2
LAYER
 70
     3
  0
LAYER
  2
0
 70
     0
 62
     7
  6
CONTINUOUS
  0
LAYER
  2
1
 70
     0
 62
     1
  6
CENTER
  0
LAYER
  2
2
 70
     0
 62
     2
  6
HIDDEN
  0
ENDTAB
  0
TABLE
  2
STYLE
 70
     1
  0
STYLE
  2
STANDARD
 70
     0
 40
0.0
 41
1.0
 50
0.0
 71
     0
 42
10.00000000000049
  3
TXT
  4
BIGFONT
  0
ENDTAB
  0
TABLE
  2
VIEW
 70
     1
  0
VIEW
  2
ALL
 70
     0
 40
810.0
 10
662.97478991596643
 20
405.0
 41
0.0
 11
0.0
 21
0.0
 31
1.0
 12
0.0
 22
0.0
 32
0.0
 42
0.0
 43
0.0
 44
0.0
 50
0.0
 71
     0
  0
ENDTAB
  0
TABLE
  2
UCS
 70
     0
  0
ENDTAB
  0
TABLE
  2
APPID
 70
     1
  0
APPID
  2
ACAD
 70
     0
  0
ENDTAB
  0
TABLE
  2
DIMSTYLE
 70
     1
  0
DIMSTYLE
  2
STANDARD
 70
     0
  3

  4

  5

  6

  7

 40
1.0
 41
0.18
 42
0.0625
 43
0.38
 44
0.18
 45
0.0
 46
0.0
 47
0.0
 48
0.0
140
0.18
141
0.09
142
0.0
143
25.399999999999999
144
1.0
145
0.0
146
1.0
147
0.09
 71
     0
 72
     0
 73
     1
 74
     1
 75
     0
 76
     0
 77
     0
 78
     0
170
     0
171
     2
172
     0
173
     0
174
     0
175
     0
176
     0
177
     0
178
     0
  0
ENDTAB
  0
ENDSEC
  0
SECTION
  2
BLOCKS
  0
BLOCK
  8
0
  2
$MODEL_SPACE
 70
     0
 10
0.0
 20
0.0
 30
0.0
  3
$MODEL_SPACE
  1

  0
ENDBLK
  5
1A4
  8
0
  0
BLOCK
 67
     1
  8
0
  2
$PAPER_SPACE
 70
     0
 10
0.0
 20
0.0
 30
0.0
  3
$PAPER_SPACE
  1

  0
ENDBLK
  5
1A2
 67
     1
  8
0
  0
ENDSEC
  0
SECTION
  2
ENTITIES
  0
CIRCLE
  5
35
  8
0
 10
795.0
 20
510.0
 30
0.0
 40
143.0
  0
ARC
  5
36
  8
0
 10
795.0
 20
510.0
 30
0.0
 40
127.0
 50
108.24060822573161
 51
251.75939177426829
  0
ARC
  5
37
  8
0
 10
795.0
 20
510.0
 30
0.0
 40
129.0
 50
100.68717164439821
 51
79.312828355601823
  0
ARC
  5
38
  8
0
 10
795.0
 20
510.0
 30
0.0
 40
33.0
 50
115.10272075594909
 51
64.897279244051575
  0
ARC
  5
39
  8
0
 10
795.0
 20
510.0
 30
0.0
 40
31.5
 50
116.3877999612438
 51
63.612200038757052
  0
LINE
  5
3A
  8
0
 10
829.49999999999989
 20
510.0
 30
0.0
 11
829.49999999999989
 21
626.81930491147432
 31
0.0
  0
LINE
  5
3B
  8
0
 10
760.5
 20
626.81930491147432
 30
0.0
 11
760.5
 21
393.18069508852568
 31
0.0
  0
ARC
  5
3C
  8
0
 10
795.0
 20
510.0
 30
0.0
 40
127.0
 50
288.24060822573159
 51
71.759391774268309
  0
ARC
  5
3D
  8
0
 10
833.5
 20
626.81930491147432
 30
0.0
 40
4.0
 50
71.759391774268309
 51
180.0
  0
ARC
  5
3E
  8
0
 10
756.5
 20
626.81930491147432
 30
0.0
 40
4.0
 50
0.0
 51
108.24060822573161
  0
CIRCLE
  5
3F
  8
0
 10
795.0
 20
510.0
 30
0.0
 40
149.0
  0
ARC
  5
40
  8
0
 10
756.5
 20
393.18069508852568
 30
0.0
 40
4.0
 50
251.75939177426821
 51
360.0
  0
LINE
  5
41
  8
0
 10
829.49999999999989
 20
510.0
 30
0.0
 11
829.49999999999989
 21
393.18069508852568
 31
0.0
  0
ARC
  5
42
  8
0
 10
833.5
 20
393.18069508852568
 30
0.0
 40
4.0
 50
180.0
 51
288.24060822573159
  0
LINE
  5
43
  8
1
 10
959.0
 20
510.0
 30
0.0
 11
631.0
 21
510.0
 31
0.0
  0
LINE
  5
44
  8
1
 10
795.0
 20
674.0
 30
0.0
 11
795.0
 21
346.0
 31
0.0
  0
LINE
  5
45
  8
1
 10
823.0
 20
633.70000000000005
 30
0.0
 11
767.0
 21
633.70000000000005
 31
0.0
  0
ARC
  5
46
  8
0
 10
795.0
 20
633.70000000000005
 30
0.0
 40
13.0
 50
298.94564298770661
 51
241.05435701229129
  0
ARC
  5
47
  8
0
 10
795.0
 20
648.0
 30
0.0
 40
25.0
 50
292.5175550049201
 51
330.72537115517991
  0
ARC
  5
48
  8
0
 10
771.44828095744856
 20
634.79710144927526
 30
0.0
 40
2.0
 50
29.274628844820299
 51
100.6871716443997
  0
ARC
  5
49
  8
0
 10
818.55171904255121
 20
634.79710144927526
 30
0.0
 40
2.0
 50
79.312828355601937
 51
150.72537115517889
  0
ARC
  5
4A
  8
0
 10
795.0
 20
633.70000000000005
 30
0.0
 40
6.5
 50
307.9798724448674
 51
232.02012755513249
  0
LINE
  5
4B
  8
0
 10
799.0
 20
638.82347538297688
 30
0.0
 11
799.00000000000011
 21
623.69999999999982
 31
0.0
  0
LINE
  5
4C
  8
0
 10
791.0
 20
638.82347538297688
 30
0.0
 11
791.0
 21
623.69999999999993
 31
0.0
  0
LINE
  5
4D
  8
0
 10
788.79999999999995
 20
623.70000000000005
 30
0.0
 11
788.49999999999989
 21
619.20000000000005
 31
0.0
  0
LINE
  5
4E
  8
0
 10
801.20000000000005
 20
623.70000000000005
 30
0.0
 11
801.5
 21
619.20000000000005
 31
0.0
  0
LINE
  5
4F
  8
0
 10
786.0
 20
619.20000000000005
 30
0.0
 11
786.0
 21
618.89999999999998
 31
0.0
  0
LINE
  5
50
  8
0
 10
804.0
 20
619.20000000000005
 30
0.0
 11
804.0
 21
618.89999999999998
 31
0.0
  0
ARC
  5
51
  8
0
 10
785.15976069500812
 20
617.64999999999998
 30
0.0
 40
1.25
 50
90.000000000000028
 51
175.710846671181
  0
ARC
  5
52
  8
0
 10
804.84023930499166
 20
617.64999999999998
 30
0.0
 40
1.25
 50
4.2891533288190731
 51
90.000000000000028
  0
LINE
  5
53
  8
0
 10
783.91326155764762
 20
617.74348743530197
 30
0.0
 11
781.0
 21
578.89999999999986
 31
0.0
  0
LINE
  5
54
  8
0
 10
806.08673844235216
 20
617.74348743530197
 30
0.0
 11
809.0
 21
578.89999999999975
 31
0.0
  0
ARC
  5
55
  8
0
 10
783.49999999999989
 20
532.81312551278836
 30
0.0
 40
2.5
 50
180.0
 51
255.98917192512309
  0
ARC
  5
56
  8
0
 10
806.49999999999989
 20
532.81312551278836
 30
0.0
 40
2.5
 50
284.01082807487688
 51
0.0000000000000254
  0
LINE
  5
57
  8
0
 10
781.0
 20
578.89999999999986
 30
0.0
 11
781.0
 21
532.81312551278836
 31
0.0
  0
LINE
  5
58
  8
0
 10
809.0
 20
578.89999999999986
 30
0.0
 11
809.0
 21
532.81312551278836
 31
0.0
  0
ARC
  5
59
  8
0
 10
795.0
 20
578.89999999999986
 30
0.0
 40
50.0
 50
255.989171925123
 51
284.010828074877
  0
LINE
  5
5A
  8
0
 10
809.0
 20
578.89999999999975
 30
0.0
 11
781.0
 21
578.89999999999986
 31
0.0
  0
LINE
  5
5B
  8
0
 10
804.84023930499166
 20
618.89999999999998
 30
0.0
 11
785.15976069500812
 21
618.89999999999998
 31
0.0
  0
LINE
  5
5C
  8
0
 10
804.0
 20
619.20000000000005
 30
0.0
 11
786.0
 21
619.20000000000005
 31
0.0
  0
LINE
  5
5D
  8
0
 10
801.20000000000005
 20
623.69999999999993
 30
0.0
 11
788.79999999999995
 21
623.70000000000005
 31
0.0
  0
ARC
  5
5E
  8
0
 10
795.0
 20
648.0
 30
0.0
 40
25.0
 50
209.27462884482
 51
247.4824449950799
  0
ARC
  5
5F
  8
0
 10
795.0
 20
633.6999999999997
 30
0.0
 40
5.0
 50
36.869897645933683
 51
143.13010235433359
  0
LINE
  5
60
  8
0
 10
798.46410161515462
 20
639.19999999999993
 30
0.0
 11
791.53589838486221
 21
639.19999999999993
 31
0.0
  0
LINE
  5
61
  8
0
 10
804.8488578017982
 20
530.90000000000032
 30
0.0
 11
785.15114219820225
 21
530.90000000000009
 31
0.0
  0
LINE
  5
62
  8
0
 10
1010.0
 20
371.09812034502642
 30
0.0
 11
1010.0
 21
648.90187965497353
 31
0.0
  0
LINE
  5
63
  8
1
 10
1103.24
 20
510.0
 30
0.0
 11
995.0
 21
510.00000000000011
 31
0.0
  0
LINE
  5
64
  8
0
 10
1046.0
 20
367.26260181492279
 30
0.0
 11
1046.0
 21
652.7374134438661
 31
0.0
  0
ARC
  5
65
  8
0
 10
1035.2
 20
411.0
 30
0.0
 40
50.0
 50
243.7239363185451
 51
276.26291312613921
  0
ARC
  5
66
  8
0
 10
1040.0
 20
367.26260181492279
 30
0.0
 40
6.0
 50
276.2629131261391
 51
0.0000000000000254
  0
ARC
  5
67
  8
0
 10
1015.5
 20
371.09812034502642
 30
0.0
 40
5.5
 50
180.0
 51
243.7239363185451
  0
ARC
  5
68
  8
0
 10
1015.5
 20
648.90187965497353
 30
0.0
 40
5.5
 50
116.2760636814549
 51
180.0
  0
ARC
  5
69
  8
0
 10
1040.0
 20
652.73739818507715
 30
0.0
 40
6.0
 50
0.0000000000000254
 51
83.737086873861003
  0
ARC
  5
6A
  8
0
 10
1035.2
 20
609.0
 30
0.0
 40
50.0
 50
83.73708687386079
 51
116.2760636814549
  0
LINE
  5
6B
  8
1
 10
994.99999999999989
 20
633.70000000000005
 30
0.0
 11
1039.974984355438
 21
633.70000000000005
 31
0.0
  0
LINE
  5
6C
  8
1
 10
1015.0
 20
635.70000000000005
 30
0.0
 11
1061.0
 21
635.70000000000005
 31
0.0
  0
LINE
  5
6D
  8
1
 10
1020.0
 20
513.89999999999816
 30
0.0
 11
1020.0
 21
652.69999999999698
 31
0.0
  0
ARC
  5
6E
  8
0
 10
795.0
 20
510.0
 30
0.0
 40
21.499999999999989
 50
113.86179324489009
 51
66.138206755109934
  0
ARC
  5
6F
  8
0
 10
1010.159760695008
 20
617.64999999999998
 30
0.0
 40
1.25
 50
97.342975438588496
 51
175.710846671181
  0
LINE
  5
70
  8
0
 10
1008.913261557647
 20
617.74348743530197
 30
0.0
 11
1006.0
 21
578.89999999999986
 31
0.0
  0
ARC
  5
71
  8
0
 10
1008.5
 20
532.81312551278836
 30
0.0
 40
2.5
 50
180.0
 51
255.98917192512309
  0
LINE
  5
72
  8
0
 10
1006.0
 20
578.89999999999986
 30
0.0
 11
1006.0
 21
532.81312551278836
 31
0.0
  0
ARC
  5
73
  8
0
 10
1020.0
 20
578.89999999999986
 30
0.0
 40
50.0
 50
255.98917106616679
 51
258.4630409671849
  0
LINE
  5
74
  8
0
 10
1010.0
 20
578.89999999999998
 30
0.0
 11
1006.0
 21
578.89999999999986
 31
0.0
  0
LINE
  5
75
  8
0
 10
769.0
 20
159.95999999999989
 30
0.0
 11
821.0
 21
159.95999999999981
 31
0.0
  0
LINE
  5
76
  8
0
 10
829.0
 20
169.0
 30
0.0
 11
828.99999999999966
 21
133.95999999999989
 31
0.0
  0
LINE
  5
77
  8
0
 10
761.0
 20
169.0
 30
0.0
 11
761.0
 21
133.95999999999989
 31
0.0
  0
LINE
  5
78
  8
0
 10
821.0
 20
133.9599999999997
 30
0.0
 11
821.0
 21
169.00000000000011
 31
0.0
  0
LINE
  5
79
  8
0
 10
769.00000000000023
 20
133.9599999999997
 30
0.0
 11
769.0
 21
169.00000000000011
 31
0.0
  0
LINE
  5
7A
  8
0
 10
827.99999999999966
 20
133.95999999999981
 30
0.0
 11
827.99999999999966
 21
126.95999999999979
 31
0.0
  0
LINE
  5
7B
  8
0
 10
762.0
 20
133.95999999999981
 30
0.0
 11
762.0
 21
126.95999999999979
 31
0.0
  0
LINE
  5
7C
  8
1
 10
795.0
 20
223.99999999999849
 30
0.0
 11
795.0
 21
111.75999999999991
 31
0.0
  0
LINE
  5
7D
  8
0
 10
938.03999999999985
 20
169.0
 30
0.0
 11
651.95999065593799
 21
169.0
 31
0.0
  0
ARC
  5
7E
  8
0
 10
938.03999999999985
 20
174.96000000000001
 30
0.0
 40
5.9599999999999991
 50
270.00000000000011
 51
0.0
  0
ARC
  5
7F
  8
0
 10
878.51495999146016
 20
179.67443624558169
 30
0.0
 40
65.671440497683832
 50
355.46779788902052
 51
19.936254815030651
  0
ARC
  5
80
  8
0
 10
711.48504004041661
 20
179.6744362467584
 30
0.0
 40
65.671440529554118
 50
160.06374586755439
 51
184.5322021098051
  0
ARC
  5
81
  8
0
 10
651.96000000000004
 20
174.96000000000001
 30
0.0
 40
5.9599999999999991
 50
180.0
 51
269.99999999999977
  0
ARC
  5
82
  8
0
 10
653.94666666666672
 20
200.52999999999989
 30
0.0
 40
4.4699999999999989
 50
89.999931311316203
 51
159.8923343821248
  0
LINE
  5
83
  8
0
 10
936.05333333333226
 20
205.0
 30
0.0
 11
653.94666762034103
 21
205.0
 31
0.0
  0
LINE
  5
84
  8
2
 10
776.5
 20
170.75999999999971
 30
0.0
 11
776.5
 21
169.75999999999991
 31
0.0
  0
LINE
  5
85
  8
2
 10
762.0
 20
170.25999999999971
 30
0.0
 11
763.49999999999989
 21
172.75999999999971
 31
0.0
  0
LINE
  5
86
  8
0
 10
762.0
 20
126.95999999999979
 30
0.0
 11
828.0
 21
126.95999999999979
 31
0.0
  0
LINE
  5
87
  8
0
 10
815.0
 20
126.75999999999991
 30
0.0
 11
775.0
 21
126.75999999999971
 31
0.0
  0
LINE
  5
88
  8
0
 10
829.0
 20
133.95999999999981
 30
0.0
 11
820.99999999999989
 21
133.95999999999981
 31
0.0
  0
LINE
  5
89
  8
0
 10
815.0
 20
126.95999999999979
 30
0.0
 11
815.0
 21
126.75999999999991
 31
0.0
  0
LINE
  5
8A
  8
2
 10
763.49999999999989
 20
172.75999999999971
 30
0.0
 11
826.49999999999955
 21
172.76000000000039
 31
0.0
  0
LINE
  5
8B
  8
2
 10
775.0
 20
169.75999999999991
 30
0.0
 11
776.5
 21
169.75999999999991
 31
0.0
  0
LINE
  5
8C
  8
2
 10
776.5
 20
169.75999999999991
 30
0.0
 11
782.0
 21
169.75999999999971
 31
0.0
  0
LINE
  5
8D
  8
2
 10
782.0
 20
169.75999999999971
 30
0.0
 11
815.0
 21
169.75999999999971
 31
0.0
  0
ARC
  5
8E
  8
0
 10
936.05333333333226
 20
200.52999999999989
 30
0.0
 40
4.4699999999999989
 50
20.10766628450051
 51
90.0
  0
LINE
  5
8F
  8
2
 10
776.5
 20
170.75999999999971
 30
0.0
 11
813.49999999999989
 21
170.75999999999971
 31
0.0
  0
LINE
  5
90
  8
2
 10
776.5
 20
170.75999999999971
 30
0.0
 11
776.5
 21
172.75999999999991
 31
0.0
  0
LINE
  5
91
  8
2
 10
828.0
 20
170.25999999999971
 30
0.0
 11
826.5
 21
172.75999999999971
 31
0.0
  0
LINE
  5
92
  8
2
 10
813.49999999999989
 20
170.75999999999971
 30
0.0
 11
813.49999999999989
 21
172.75999999999991
 31
0.0
  0
LINE
  5
93
  8
2
 10
762.00000000000023
 20
133.9599999999997
 30
0.0
 11
762.0
 21
170.25999999999971
 31
0.0
  0
LINE
  5
94
  8
2
 10
775.0
 20
126.95999999999979
 30
0.0
 11
775.0
 21
169.75999999999991
 31
0.0
  0
LINE
  5
95
  8
2
 10
782.0
 20
126.75999999999981
 30
0.0
 11
782.0
 21
169.75999999999971
 31
0.0
  0
LINE
  5
96
  8
2
 10
828.0
 20
133.9599999999997
 30
0.0
 11
828.0
 21
170.25999999999971
 31
0.0
  0
LINE
  5
97
  8
2
 10
815.0
 20
126.95999999999979
 30
0.0
 11
815.0
 21
169.75999999999991
 31
0.0
  0
LINE
  5
98
  8
2
 10
808.0
 20
126.75999999999991
 30
0.0
 11
808.0
 21
169.75999999999971
 31
0.0
  0
LINE
  5
99
  8
0
 10
828.0
 20
126.95999999999979
 30
0.0
 11
828.0
 21
133.95999999999981
 31
0.0
  0
LINE
  5
A1
  8
1
 10
120.0
 20
608.69999999999993
 30
0.0
 11
119.9999999999999
 21
652.70000000000005
 31
0.0
  0
LINE
  5
A2
  8
1
 10
125.0
 20
635.70000000000005
 30
0.0
 11
79.0
 21
635.70000000000005
 31
0.0
  0
LINE
  5
A3
  8
1
 10
235.29999999999981
 20
633.70000000000005
 30
0.0
 11
100.02501564455891
 21
633.70000000000005
 31
0.0
  0
LINE
  5
A4
  8
0
  6
CONTINUOUS
 10
218.2999999999997
 20
623.85114219820184
 30
0.0
 11
218.30000000000021
 21
643.54885780179768
 31
0.0
  0
LINE
  5
A5
  8
0
  6
CONTINUOUS
 10
130.0
 20
642.70000000000005
 30
0.0
 11
130.3000000000001
 21
642.70000000000005
 31
0.0
  0
LINE
  5
A6
  8
0
  6
CONTINUOUS
 10
130.0
 20
624.70000000000005
 30
0.0
 11
130.3000000000001
 21
624.70000000000005
 31
0.0
  0
ARC
  5
A7
  8
0
  6
CONTINUOUS
 10
131.5499999999999
 20
643.54023930499193
 30
0.0
 40
1.25
 50
94.289153328818969
 51
180.0
  0
ARC
  5
A8
  8
0
  6
CONTINUOUS
 10
131.5499999999999
 20
623.85976069500839
 30
0.0
 40
1.25
 50
180.0
 51
265.710846671181
  0
LINE
  5
A9
  8
0
  6
CONTINUOUS
 10
131.4565125646979
 20
644.78673844235254
 30
0.0
 11
170.3000000000001
 21
647.70000000000005
 31
0.0
  0
LINE
  5
AA
  8
0
  6
CONTINUOUS
 10
131.4565125646979
 20
622.61326155764766
 30
0.0
 11
170.3000000000001
 21
619.70000000000005
 31
0.0
  0
ARC
  5
AB
  8
0
  6
CONTINUOUS
 10
216.38687448721149
 20
645.20000000000005
 30
0.0
 40
2.5
 50
14.01082807487693
 51
90.000000000000057
  0
ARC
  5
AC
  8
0
  6
CONTINUOUS
 10
216.38687448721149
 20
622.20000000000005
 30
0.0
 40
2.5
 50
270.0
 51
345.989171925123
  0
LINE
  5
AD
  8
0
  6
CONTINUOUS
 10
170.3000000000001
 20
647.70000000000005
 30
0.0
 11
216.38687448721149
 21
647.70000000000005
 31
0.0
  0
LINE
  5
AE
  8
0
  6
CONTINUOUS
 10
170.3000000000001
 20
619.70000000000005
 30
0.0
 11
216.38687448721149
 21
619.70000000000005
 31
0.0
  0
ARC
  5
AF
  8
0
  6
CONTINUOUS
 10
170.3000000000001
 20
633.70000000000005
 30
0.0
 40
50.0
 50
345.98917278407919
 51
14.010828933833199
  0
LINE
  5
B0
  8
0
  6
CONTINUOUS
 10
170.3000000000001
 20
619.70000000000005
 30
0.0
 11
170.3000000000001
 21
647.70000000000005
 31
0.0
  0
LINE
  5
B1
  8
0
  6
CONTINUOUS
 10
130.2999999999999
 20
623.85976069500839
 30
0.0
 11
130.2999999999999
 21
643.54023930499193
 31
0.0
  0
ARC
  5
B2
  8
0
 10
104.7999999999999
 20
609.0
 30
0.0
 40
50.0
 50
63.723936318545121
 51
96.262913126139225
  0
ARC
  5
B3
  8
0
 10
100.0
 20
652.73739818507715
 30
0.0
 40
6.0
 50
96.262913126139026
 51
180.0
  0
ARC
  5
B4
  8
0
 10
124.5
 20
648.90187965497353
 30
0.0
 40
5.5
 50
360.0
 51
63.723936318545121
  0
ARC
  5
B5
  8
0
 10
124.5
 20
371.09812034502642
 30
0.0
 40
5.5
 50
296.27606368145479
 51
0.0
  0
ARC
  5
B6
  8
0
 10
100.0
 20
367.26260181492279
 30
0.0
 40
6.0
 50
180.0
 51
263.7370868738609
  0
ARC
  5
B7
  8
0
 10
104.7999999999999
 20
411.0
 30
0.0
 40
50.0
 50
263.73708687386068
 51
296.27606368145479
  0
LINE
  5
B8
  8
0
 10
94.0
 20
367.26260181492279
 30
0.0
 11
94.0
 21
652.73739818507715
 31
0.0
  0
LINE
  5
B9
  8
1
 10
36.7599999999997
 20
509.99999999999989
 30
0.0
 11
145.0
 21
510.0
 31
0.0
  0
LINE
  5
BA
  8
0
 10
130.0
 20
371.09812034502642
 30
0.0
 11
130.0
 21
648.90187965497353
 31
0.0
  0
LINE
  5
BB
  8
2
 10
95.759999999999735
 20
528.5
 30
0.0
 11
94.759999999999977
 21
528.5
 31
0.0
  0
LINE
  5
BC
  8
2
 10
95.259999999999735
 20
543.0
 30
0.0
 11
97.759999999999735
 21
541.5
 31
0.0
  0
LINE
  5
BD
  8
0
 10
93.759999999999948
 20
389.18069508852579
 30
0.0
 11
58.959999999999781
 21
485.00000000000011
 31
0.0
  0
LINE
  5
BE
  8
0
 10
51.959999999999781
 20
477.00000000000011
 30
0.0
 11
61.865468791045679
 21
477.00000000000011
 31
0.0
  0
LINE
  5
BF
  8
0
 10
51.959999999999781
 20
543.0
 30
0.0
 11
51.959999999999781
 21
477.00000000000011
 31
0.0
  0
LINE
  5
C0
  8
0
 10
51.759999999999728
 20
490.00000000000011
 30
0.0
 11
51.759999999999728
 21
530.0
 31
0.0
  0
LINE
  5
C1
  8
0
 10
58.959999999999781
 20
485.00000000000011
 30
0.0
 11
58.959999999999781
 21
535.0
 31
0.0
  0
LINE
  5
C2
  8
0
 10
51.959999999999781
 20
490.00000000000011
 30
0.0
 11
51.759999999999728
 21
490.00000000000011
 31
0.0
  0
LINE
  5
C3
  8
0
 10
89.441095263786536
 20
510.00000000000011
 30
0.0
 11
93.759999999999948
 21
468.90836629659663
 31
0.0
  0
LINE
  5
C4
  8
0
 10
51.959999999999781
 20
543.0
 30
0.0
 11
61.865468791045679
 21
543.0
 31
0.0
  0
LINE
  5
C5
  8
2
 10
97.759999999999735
 20
541.5
 30
0.0
 11
97.76000000000019
 21
478.5000000000004
 31
0.0
  0
LINE
  5
C6
  8
2
 10
94.759999999999735
 20
530.0
 30
0.0
 11
94.759999999999977
 21
528.5
 31
0.0
  0
LINE
  5
C7
  8
2
 10
94.759999999999977
 20
528.5
 30
0.0
 11
94.759999999999735
 21
523.0
 31
0.0
  0
LINE
  5
C8
  8
2
 10
94.759999999999735
 20
523.0
 30
0.0
 11
94.759999999999735
 21
490.0
 31
0.0
  0
LINE
  5
C9
  8
2
 10
95.759999999999735
 20
528.50000000000011
 30
0.0
 11
95.759999999999735
 21
491.5
 31
0.0
  0
LINE
  5
CA
  8
2
 10
95.759999999999735
 20
528.5
 30
0.0
 11
97.759999999999735
 21
528.5
 31
0.0
  0
LINE
  5
CB
  8
0
 10
89.441095263786536
 20
510.0
 30
0.0
 11
93.759999999999948
 21
551.09163370340343
 31
0.0
  0
LINE
  5
CC
  8
2
 10
95.259999999999735
 20
477.0
 30
0.0
 11
97.759999999999735
 21
478.50000000000011
 31
0.0
  0
LINE
  5
CD
  8
2
 10
95.759999999999735
 20
491.5
 30
0.0
 11
97.759999999999735
 21
491.5
 31
0.0
  0
LINE
  5
CE
  8
0
 10
93.759999999999948
 20
630.81930491147432
 30
0.0
 11
58.959999999999781
 21
535.0
 31
0.0
  0
LINE
  5
CF
  8
2
 10
61.865468791045679
 20
543.0
 30
0.0
 11
95.259999999999735
 21
543.0
 31
0.0
  0
LINE
  5
D0
  8
2
 10
51.959999999999788
 20
530.00000000000023
 30
0.0
 11
94.759999999999735
 21
530.0
 31
0.0
  0
LINE
  5
D1
  8
2
 10
51.759999999999742
 20
523.00000000000011
 30
0.0
 11
94.759999999999735
 21
523.00000000000011
 31
0.0
  0
LINE
  5
D2
  8
2
 10
61.865468791045679
 20
477.00000000000011
 30
0.0
 11
95.259999999999735
 21
477.0
 31
0.0
  0
LINE
  5
D3
  8
2
 10
51.959999999999788
 20
489.99999999999989
 30
0.0
 11
94.759999999999735
 21
490.0
 31
0.0
  0
LINE
  5
D4
  8
2
 10
51.759999999999742
 20
497.0
 30
0.0
 11
94.759999999999735
 21
497.0
 31
0.0
  0
LINE
  5
D5
  8
0
 10
51.959999999999781
 20
477.0
 30
0.0
 11
61.865468791045679
 21
477.00000000000011
 31
0.0
  0
ARC
  5
D6
  8
0
 10
390.0
 20
648.0
 30
0.0
 40
25.0
 50
209.27462884482
 51
242.37483394563631
  0
ARC
  5
D7
  8
0
 10
413.5517190425511
 20
634.79710144927526
 30
0.0
 40
2.0
 50
79.312828355601937
 51
150.72537115517889
  0
ARC
  5
D8
  8
0
 10
366.44828095744867
 20
634.79710144927526
 30
0.0
 40
2.0
 50
29.274628844820299
 51
100.6871716443997
  0
ARC
  5
D9
  8
0
 10
390.0
 20
648.0
 30
0.0
 40
25.0
 50
297.62516605436372
 51
330.72537115517991
  0
LINE
  5
DA
  8
1
 10
419.00000000000102
 20
633.70000000000005
 30
0.0
 11
360.99999999999898
 21
633.70000000000005
 31
0.0
  0
LINE
  5
DB
  8
1
 10
554.0
 20
510.0
 30
0.0
 11
226.0
 21
510.0
 31
0.0
  0
ARC
  5
DC
  8
0
 10
428.5
 20
393.18069508852568
 30
0.0
 40
4.0
 50
180.0
 51
288.24060822573159
  0
LINE
  5
DD
  8
0
 10
424.5
 20
510.0
 30
0.0
 11
424.5
 21
393.18069508852568
 31
0.0
  0
ARC
  5
DE
  8
0
 10
351.5
 20
393.18069508852568
 30
0.0
 40
4.0
 50
251.75939177426821
 51
360.0
  0
CIRCLE
  5
DF
  8
0
 10
390.0
 20
510.0
 30
0.0
 40
149.0
  0
ARC
  5
E0
  8
0
 10
351.5
 20
626.81930491147432
 30
0.0
 40
4.0
 50
0.0
 51
108.24060822573161
  0
ARC
  5
E1
  8
0
 10
428.5
 20
626.81930491147432
 30
0.0
 40
4.0
 50
71.759391774268309
 51
180.0
  0
ARC
  5
E2
  8
0
 10
390.0
 20
510.0
 30
0.0
 40
127.0
 50
288.24060822573159
 51
71.759391774268309
  0
LINE
  5
E3
  8
0
 10
355.5
 20
626.81930491147432
 30
0.0
 11
355.5
 21
393.18069508852568
 31
0.0
  0
LINE
  5
E4
  8
0
 10
424.5
 20
510.0
 30
0.0
 11
424.5
 21
626.81930491147432
 31
0.0
  0
ARC
  5
E5
  8
0
 10
390.0
 20
510.0
 30
0.0
 40
129.0
 50
100.68717164439821
 51
79.312828355601823
  0
ARC
  5
E6
  8
0
 10
390.0
 20
510.0
 30
0.0
 40
127.0
 50
108.24060822573161
 51
251.75939177426829
  0
CIRCLE
  5
E7
  8
0
 10
390.0
 20
510.0
 30
0.0
 40
143.0
  0
LINE
  5
E8
  8
1
 10
390.0
 20
674.0
 30
0.0
 11
390.0
 21
346.0
 31
0.0
  0
LINE
  5
E9
  8
0
 10
1088.04
 20
477.0
 30
0.0
 11
1078.1345312089541
 21
477.00000000000011
 31
0.0
  0
LINE
  5
EA
  8
2
 10
1088.24
 20
497.0
 30
0.0
 11
1045.24
 21
497.0
 31
0.0
  0
LINE
  5
EB
  8
2
 10
1088.04
 20
489.99999999999989
 30
0.0
 11
1045.24
 21
490.0
 31
0.0
  0
LINE
  5
EC
  8
2
 10
1078.1345312089541
 20
477.00000000000011
 30
0.0
 11
1044.74
 21
477.0
 31
0.0
  0
LINE
  5
ED
  8
2
 10
1088.24
 20
523.0
 30
0.0
 11
1045.24
 21
523.00000000000011
 31
0.0
  0
LINE
  5
EE
  8
2
 10
1088.04
 20
530.00000000000023
 30
0.0
 11
1045.24
 21
530.0
 31
0.0
  0
LINE
  5
EF
  8
2
 10
1078.1345312089541
 20
543.0
 30
0.0
 11
1044.74
 21
543.0
 31
0.0
  0
LINE
  5
F0
  8
0
 10
1046.2399999999991
 20
630.81930491147432
 30
0.0
 11
1081.0399999999991
 21
535.0
 31
0.0
  0
LINE
  5
F1
  8
2
 10
1044.24
 20
491.5
 30
0.0
 11
1042.24
 21
491.5
 31
0.0
  0
LINE
  5
F2
  8
2
 10
1044.74
 20
477.0
 30
0.0
 11
1042.24
 21
478.50000000000011
 31
0.0
  0
LINE
  5
F3
  8
0
 10
1050.558904736213
 20
510.0
 30
0.0
 11
1046.2399999999991
 21
551.09163370340343
 31
0.0
  0
LINE
  5
F4
  8
2
 10
1044.24
 20
528.5
 30
0.0
 11
1042.24
 21
528.5
 31
0.0
  0
LINE
  5
F5
  8
2
 10
1044.24
 20
528.50000000000011
 30
0.0
 11
1044.24
 21
491.5
 31
0.0
  0
LINE
  5
F6
  8
2
 10
1045.24
 20
523.0
 30
0.0
 11
1045.24
 21
490.0
 31
0.0
  0
LINE
  5
F7
  8
2
 10
1045.2399999999991
 20
528.5
 30
0.0
 11
1045.24
 21
523.0
 31
0.0
  0
LINE
  5
F8
  8
2
 10
1045.24
 20
530.0
 30
0.0
 11
1045.2399999999991
 21
528.5
 31
0.0
  0
LINE
  5
F9
  8
2
 10
1042.24
 20
541.5
 30
0.0
 11
1042.2399999999991
 21
478.5000000000004
 31
0.0
  0
LINE
  5
FA
  8
0
 10
1088.04
 20
543.0
 30
0.0
 11
1078.1345312089541
 21
543.0
 31
0.0
  0
LINE
  5
FB
  8
0
 10
1050.558904736213
 20
510.00000000000011
 30
0.0
 11
1046.2399999999991
 21
468.90836629659663
 31
0.0
  0
LINE
  5
FC
  8
0
 10
1088.04
 20
490.00000000000011
 30
0.0
 11
1088.24
 21
490.00000000000011
 31
0.0
  0
LINE
  5
FD
  8
0
 10
1081.0399999999991
 20
485.00000000000011
 30
0.0
 11
1081.0399999999991
 21
535.0
 31
0.0
  0
LINE
  5
FE
  8
0
 10
1088.24
 20
490.00000000000011
 30
0.0
 11
1088.24
 21
530.0
 31
0.0
  0
LINE
  5
FF
  8
0
 10
1088.04
 20
543.0
 30
0.0
 11
1088.04
 21
477.00000000000011
 31
0.0
  0
LINE
  5
100
  8
0
 10
1088.04
 20
477.00000000000011
 30
0.0
 11
1078.1345312089541
 21
477.00000000000011
 31
0.0
  0
LINE
  5
101
  8
0
 10
1046.2399999999991
 20
389.18069508852579
 30
0.0
 11
1081.0399999999991
 21
485.00000000000011
 31
0.0
  0
LINE
  5
102
  8
2
 10
1044.74
 20
543.0
 30
0.0
 11
1042.24
 21
541.5
 31
0.0
  0
LINE
  5
103
  8
2
 10
1044.24
 20
528.5
 30
0.0
 11
1045.2399999999991
 21
528.5
 31
0.0
  0
LINE
  5
104
  8
1
 10
766.0
 20
195.0
 30
0.0
 11
824.0
 21
195.0
 31
0.0
  0
ARC
  5
105
  8
0
 10
795.0
 20
195.0
 30
0.0
 40
13.99999999999994
 50
45.584691402806769
 51
134.41530859719279
  0
CIRCLE
  5
106
  8
0
 10
390.0
 20
633.70000000000005
 30
0.0
 40
14.0
  0
CIRCLE
  5
107
  8
0
 10
390.0
 20
510.0
 30
0.0
 40
33.000000000000057
  0
CIRCLE
  5
108
  8
0
 10
390.0
 20
510.0
 30
0.0
 40
31.5
  0
CIRCLE
  5
109
  8
0
 10
390.0
 20
510.0
 30
0.0
 40
21.499999999999989
  0
LINE
  5
10A
  8
0
 10
528.90187965497353
 20
205.0
 30
0.0
 11
251.09812034502639
 21
205.0
 31
0.0
  0
LINE
  5
10B
  8
1
 10
390.0
 20
111.75999999999971
 30
0.0
 11
390.0
 21
310.30000000000018
 31
0.0
  0
LINE
  5
10C
  8
0
 10
532.73739818507715
 20
169.0
 30
0.0
 11
247.26260181492279
 21
169.0
 31
0.0
  0
ARC
  5
10D
  8
0
 10
489.0
 20
179.7999999999999
 30
0.0
 40
50.0
 50
353.73708687386068
 51
26.276063681454868
  0
ARC
  5
10E
  8
0
 10
532.73739818507715
 20
175.0
 30
0.0
 40
6.0
 50
270.0
 51
353.7370868738609
  0
ARC
  5
10F
  8
0
 10
528.90187965497353
 20
199.5
 30
0.0
 40
5.5
 50
26.276063681454868
 51
90.0
  0
ARC
  5
110
  8
0
 10
251.09812034502639
 20
199.5
 30
0.0
 40
5.5
 50
89.999999999999986
 51
153.7239363185451
  0
ARC
  5
111
  8
0
 10
247.26260181492279
 20
175.0
 30
0.0
 40
6.0
 50
186.26291312613901
 51
270.0
  0
ARC
  5
112
  8
0
 10
291.0
 20
179.7999999999999
 30
0.0
 40
50.0
 50
153.7239363185451
 51
186.26291312613921
  0
LINE
  5
113
  8
0
  6
CONTINUOUS
 10
399.8402393049916
 20
205.30000000000001
 30
0.0
 11
380.159760695008
 21
205.30000000000001
 31
0.0
  0
LINE
  5
114
  8
0
  6
CONTINUOUS
 10
403.99999999999989
 20
245.30000000000021
 30
0.0
 11
375.99999999999989
 21
245.30000000000021
 31
0.0
  0
ARC
  5
115
  8
0
  6
CONTINUOUS
 10
389.99999999999989
 20
245.30000000000021
 30
0.0
 40
50.0
 50
75.989172784079216
 51
104.0108289338332
  0
LINE
  5
116
  8
0
  6
CONTINUOUS
 10
403.99999999999989
 20
245.30000000000021
 30
0.0
 11
403.99999999999989
 21
291.38687448721163
 31
0.0
  0
LINE
  5
117
  8
0
  6
CONTINUOUS
 10
375.99999999999989
 20
245.30000000000021
 30
0.0
 11
375.99999999999989
 21
291.38687448721163
 31
0.0
  0
ARC
  5
118
  8
0
  6
CONTINUOUS
 10
401.49999999999989
 20
291.38687448721163
 30
0.0
 40
2.5
 50
0.0000000000000368
 51
75.989171925123046
  0
ARC
  5
119
  8
0
  6
CONTINUOUS
 10
378.49999999999989
 20
291.38687448721163
 30
0.0
 40
2.5
 50
104.0108280748769
 51
180.0
  0
LINE
  5
11A
  8
0
  6
CONTINUOUS
 10
401.08673844235221
 20
206.45651256469799
 30
0.0
 11
403.99999999999989
 21
245.30000000000021
 31
0.0
  0
LINE
  5
11B
  8
0
  6
CONTINUOUS
 10
378.91326155764739
 20
206.45651256469799
 30
0.0
 11
375.99999999999989
 21
245.30000000000021
 31
0.0
  0
ARC
  5
11C
  8
0
  6
CONTINUOUS
 10
399.8402393049916
 20
206.55000000000001
 30
0.0
 40
1.25
 50
270.0
 51
355.710846671181
  0
ARC
  5
11D
  8
0
  6
CONTINUOUS
 10
380.159760695008
 20
206.55000000000001
 30
0.0
 40
1.25
 50
184.289153328819
 51
270.0
  0
LINE
  5
11E
  8
0
  6
CONTINUOUS
 10
398.99999999999989
 20
205.0
 30
0.0
 11
398.99999999999989
 21
205.30000000000021
 31
0.0
  0
LINE
  5
11F
  8
0
  6
CONTINUOUS
 10
380.99999999999989
 20
205.0
 30
0.0
 11
380.99999999999989
 21
205.30000000000021
 31
0.0
  0
LINE
  5
120
  8
0
  6
CONTINUOUS
 10
399.84885780179809
 20
293.29999999999978
 30
0.0
 11
380.15114219820208
 21
293.3000000000003
 31
0.0
  0
LINE
  5
121
  8
1
 10
408.99999999999989
 20
195.0
 30
0.0
 11
370.99999999999989
 21
195.0
 31
0.0
  0
LINE
  5
122
  8
0
 10
1088.04
 20
530.00000000000023
 30
0.0
 11
1088.24
 21
530.00000000000023
 31
0.0
  0
LINE
  5
123
  8
0
 10
775.00000000000023
 20
126.95999999999979
 30
0.0
 11
775.00000000000023
 21
126.75999999999991
 31
0.0
  0
LINE
  5
124
  8
0
 10
769.00000000000023
 20
133.95999999999981
 30
0.0
 11
761.0
 21
133.95999999999981
 31
0.0
  0
LINE
  5
125
  8
0
 10
364.00000000000023
 20
133.95999999999989
 30
0.0
 11
356.0
 21
133.95999999999981
 31
0.0
  0
LINE
  5
126
  8
0
 10
370.00000000000023
 20
126.95999999999979
 30
0.0
 11
370.00000000000023
 21
126.76000000000001
 31
0.0
  0
LINE
  5
127
  8
0
 10
423.0
 20
126.95999999999979
 30
0.0
 11
423.0
 21
133.95999999999989
 31
0.0
  0
LINE
  5
128
  8
2
 10
403.0
 20
126.76000000000001
 30
0.0
 11
403.0
 21
169.75999999999979
 31
0.0
  0
LINE
  5
129
  8
2
 10
410.0
 20
126.95999999999979
 30
0.0
 11
410.0
 21
169.75999999999999
 31
0.0
  0
LINE
  5
12A
  8
2
 10
423.0
 20
133.9599999999997
 30
0.0
 11
423.0
 21
170.25999999999979
 31
0.0
  0
LINE
  5
12B
  8
2
 10
377.0
 20
126.75999999999981
 30
0.0
 11
377.0
 21
169.75999999999979
 31
0.0
  0
LINE
  5
12C
  8
2
 10
370.0
 20
126.95999999999979
 30
0.0
 11
370.0
 21
169.75999999999999
 31
0.0
  0
LINE
  5
12D
  8
2
 10
357.00000000000023
 20
133.9599999999997
 30
0.0
 11
357.0
 21
170.25999999999979
 31
0.0
  0
LINE
  5
12E
  8
2
 10
408.49999999999989
 20
170.75999999999979
 30
0.0
 11
408.49999999999989
 21
172.75999999999999
 31
0.0
  0
LINE
  5
12F
  8
2
 10
423.0
 20
170.25999999999979
 30
0.0
 11
421.49999999999989
 21
172.75999999999979
 31
0.0
  0
LINE
  5
130
  8
2
 10
371.49999999999989
 20
170.75999999999979
 30
0.0
 11
371.49999999999989
 21
172.75999999999999
 31
0.0
  0
LINE
  5
131
  8
2
 10
371.49999999999989
 20
170.75999999999979
 30
0.0
 11
408.49999999999989
 21
170.75999999999979
 31
0.0
  0
LINE
  5
132
  8
2
 10
377.0
 20
169.75999999999979
 30
0.0
 11
410.0
 21
169.75999999999979
 31
0.0
  0
LINE
  5
133
  8
2
 10
371.49999999999989
 20
169.75999999999999
 30
0.0
 11
377.0
 21
169.75999999999979
 31
0.0
  0
LINE
  5
134
  8
2
 10
370.0
 20
169.75999999999999
 30
0.0
 11
371.49999999999989
 21
169.75999999999999
 31
0.0
  0
LINE
  5
135
  8
2
 10
358.49999999999989
 20
172.75999999999979
 30
0.0
 11
421.49999999999949
 21
172.7600000000005
 31
0.0
  0
LINE
  5
136
  8
0
 10
410.0
 20
126.95999999999979
 30
0.0
 11
410.0
 21
126.76000000000001
 31
0.0
  0
LINE
  5
137
  8
0
 10
424.0
 20
133.95999999999981
 30
0.0
 11
415.99999999999989
 21
133.95999999999989
 31
0.0
  0
LINE
  5
138
  8
0
 10
410.0
 20
126.76000000000001
 30
0.0
 11
370.0
 21
126.75999999999981
 31
0.0
  0
LINE
  5
139
  8
0
 10
357.0
 20
126.95999999999979
 30
0.0
 11
423.0
 21
126.95999999999979
 31
0.0
  0
LINE
  5
13A
  8
2
 10
357.0
 20
170.25999999999979
 30
0.0
 11
358.49999999999989
 21
172.75999999999979
 31
0.0
  0
LINE
  5
13B
  8
2
 10
371.49999999999989
 20
170.75999999999979
 30
0.0
 11
371.49999999999989
 21
169.75999999999999
 31
0.0
  0
LINE
  5
13C
  8
0
 10
357.0
 20
133.95999999999981
 30
0.0
 11
357.0
 21
126.95999999999979
 31
0.0
  0
LINE
  5
13D
  8
0
 10
422.99999999999972
 20
133.95999999999981
 30
0.0
 11
422.99999999999972
 21
126.95999999999979
 31
0.0
  0
LINE
  5
13E
  8
0
 10
364.00000000000023
 20
133.9599999999997
 30
0.0
 11
364.0
 21
169.00000000000011
 31
0.0
  0
LINE
  5
13F
  8
0
 10
416.0
 20
133.9599999999997
 30
0.0
 11
416.0
 21
169.00000000000011
 31
0.0
  0
LINE
  5
140
  8
0
 10
356.0
 20
169.0
 30
0.0
 11
356.0
 21
133.95999999999989
 31
0.0
  0
LINE
  5
141
  8
0
 10
424.0
 20
169.0
 30
0.0
 11
423.99999999999972
 21
133.95999999999989
 31
0.0
  0
LINE
  5
142
  8
0
 10
364.0
 20
159.95999999999989
 30
0.0
 11
416.0
 21
159.95999999999981
 31
0.0
  0
LINE
  5
143
  8
0
 10
51.959999999999781
 20
529.99999999999977
 30
0.0
 11
51.759999999999728
 21
529.99999999999977
 31
0.0
  0
ENDSEC
  0
EOF
