  0
SECTION
  2
HEADER
  9
$ACADVER
  1
AC1009
  9
$INSBASE
 10
0.0
 20
0.0
 30
0.0
  9
$EXTMIN
 10
73.951723896842395
 20
133.95355428796429
 30
-0.0015258207003583
  9
$EXTMAX
 10
1066.0686518427319
 20
649.53506639638817
 30
0.0000000349246037
  9
$LIMMIN
 10
0.0
 20
0.0
  9
$LIMMAX
 10
1125.0
 20
810.0
  9
$ORTHOMODE
 70
     0
  9
$REGENMODE
 70
     1
  9
$FILLMODE
 70
     1
  9
$QTEXTMODE
 70
     0
  9
$MIRRTEXT
 70
     0
  9
$DRAGMODE
 70
     2
  9
$LTSCALE
 40
30.0
  9
$OSMODE
 70
   231
  9
$ATTMODE
 70
     1
  9
$TEXTSIZE
 40
10.00000000000049
  9
$TRACEWID
 40
0.05
  9
$TEXTSTYLE
  7
STANDARD
  9
$CLAYER
  8
0
  9
$CELTYPE
  6
BYLAYER
  9
$CECOLOR
 62
   256
  9
$DIMSCALE
 40
3.0
  9
$DIMASZ
 40
3.0
  9
$DIMEXO
 40
2.0
  9
$DIMDLI
 40
0.3799999999999999
  9
$DIMRND
 40
0.0
  9
$DIMDLE
 40
0.0
  9
$DIMEXE
 40
2.0
  9
$DIMTP
 40
0.0
  9
$DIMTM
 40
0.0
  9
$DIMTXT
 40
3.2000000000000002
  9
$DIMCEN
 40
0.09
  9
$DIMTSZ
 40
0.0
  9
$DIMTOL
 70
     0
  9
$DIMLIM
 70
     0
  9
$DIMTIH
 70
     0
  9
$DIMTOH
 70
     0
  9
$DIMSE1
 70
     0
  9
$DIMSE2
 70
     0
  9
$DIMTAD
 70
     1
  9
$DIMZIN
 70
     0
  9
$DIMBLK
  1

  9
$DIMASO
 70
     0
  9
$DIMSHO
 70
     0
  9
$DIMPOST
  1

  9
$DIMAPOST
  1

  9
$DIMALT
 70
     0
  9
$DIMALTD
 70
     2
  9
$DIMALTF
 40
25.399999999999999
  9
$DIMLFAC
 40
1.0
  9
$DIMTOFL
 70
     0
  9
$DIMTVP
 40
1.6000000000000001
  9
$DIMTIX
 70
     1
  9
$DIMSOXD
 70
     0
  9
$DIMSAH
 70
     0
  9
$DIMBLK1
  1

  9
$DIMBLK2
  1

  9
$DIMSTYLE
  2
STANDARD
  9
$DIMCLRD
 70
     0
  9
$DIMCLRE
 70
     0
  9
$DIMCLRT
 70
     0
  9
$DIMTFAC
 40
1.0
  9
$DIMGAP
 40
0.09
  9
$LUNITS
 70
     2
  9
$LUPREC
 70
     4
  9
$SKETCHINC
 40
0.1
  9
$FILLETRAD
 40
2.5
  9
$AUNITS
 70
     0
  9
$AUPREC
 70
     0
  9
$MENU
  1
E:\r13\win\SUPPORT\ACAD
  9
$ELEVATION
 40
0.0
  9
$PELEVATION
 40
0.0
  9
$THICKNESS
 40
0.0
  9
$LIMCHECK
 70
     0
  9
$BLIPMODE
 70
     1
  9
$CHAMFERA
 40
0.0
  9
$CHAMFERB
 40
0.0
  9
$SKPOLY
 70
     0
  9
$TDCREATE
 40
2449839.7801851849
  9
$TDUPDATE
 40
2453236.774686411
  9
$TDINDWG
 40
0.0112609722
  9
$TDUSRTIMER
 40
0.0112609722
  9
$USRTIMER
 70
     1
  9
$ANGBASE
 50
0.0
  9
$ANGDIR
 70
     0
  9
$PDMODE
 70
     0
  9
$PDSIZE
 40
0.0
  9
$PLINEWID
 40
0.0
  9
$COORDS
 70
     0
  9
$SPLFRAME
 70
     0
  9
$SPLINETYPE
 70
     6
  9
$SPLINESEGS
 70
     8
  9
$ATTDIA
 70
     0
  9
$ATTREQ
 70
     1
  9
$HANDLING
 70
-16383
  9
$HANDSEED
  5
1EC
  9
$SURFTAB1
 70
     6
  9
$SURFTAB2
 70
     6
  9
$SURFTYPE
 70
     6
  9
$SURFU
 70
     6
  9
$SURFV
 70
     6
  9
$UCSNAME
  2

  9
$UCSORG
 10
0.0
 20
0.0
 30
0.0
  9
$UCSXDIR
 10
1.0
 20
0.0
 30
0.0
  9
$UCSYDIR
 10
0.0
 20
1.0
 30
0.0
  9
$PUCSNAME
  2

  9
$PUCSORG
 10
0.0
 20
0.0
 30
0.0
  9
$PUCSXDIR
 10
1.0
 20
0.0
 30
0.0
  9
$PUCSYDIR
 10
0.0
 20
1.0
 30
0.0
  9
$USERI1
 70
     0
  9
$USERI2
 70
     1
  9
$USERI3
 70
     0
  9
$USERI4
 70
     0
  9
$USERI5
 70
     0
  9
$USERR1
 40
0.0
  9
$USERR2
 40
0.0
  9
$USERR3
 40
0.0
  9
$USERR4
 40
0.0
  9
$USERR5
 40
0.0
  9
$WORLDVIEW
 70
     1
  9
$SHADEDGE
 70
     3
  9
$SHADEDIF
 70
    70
  9
$TILEMODE
 70
     1
  9
$MAXACTVP
 70
    16
  9
$PLIMCHECK
 70
     0
  9
$PEXTMIN
 10
1.0000000000000000E+020
 20
1.0000000000000000E+020
 30
1.0000000000000000E+020
  9
$PEXTMAX
 10
-1.0000000000000000E+020
 20
-1.0000000000000000E+020
 30
-1.0000000000000000E+020
  9
$PLIMMIN
 10
0.0
 20
0.0
  9
$PLIMMAX
 10
12.0
 20
9.0
  9
$UNITMODE
 70
     0
  9
$VISRETAIN
 70
     0
  9
$PLINEGEN
 70
     0
  9
$PSLTSCALE
 70
     0
  0
ENDSEC
  0
SECTION
  2
TABLES
  0
TABLE
  2
VPORT
 70
     3
  0
VPORT
  2
*ACTIVE
 70
     0
 10
0.0
 20
0.0
 11
1.0
 21
1.0
 12
570.01018786978705
 22
391.74431034217622
 13
0.0
 23
0.0
 14
30.0
 24
30.0
 15
30.0
 25
30.0
 16
0.0
 26
0.0
 36
1.0
 17
0.0
 27
0.0
 37
0.0
 40
1181.6624556463189
 41
0.9407114624505929
 42
50.0
 43
0.0
 44
0.0
 50
0.0
 51
0.0
 71
     0
 72
   500
 73
     1
 74
     0
 75
     0
 76
     0
 77
     0
 78
     0
  0
ENDTAB
  0
TABLE
  2
LTYPE
 70
     3
  0
LTYPE
  2
CONTINUOUS
 70
     0
  3
Solid Line
 72
    65
 73
     0
 40
0.0
  0
LTYPE
  2
CENTER
 70
     0
  3
____ _ ____ _ ____ _ ____ _ ____ _ ____ _ ____
 72
    65
 73
     4
 40
2.0
 49
1.25
 49
-0.25
 49
0.25
 49
-0.25
  0
LTYPE
  2
HIDDEN
 70
     0
  3
_ _ _ _ _ _ _ _ _ _ _ _ _ _ _ _ _ _ _ _ _ _ _
 72
    65
 73
     2
 40
0.375
 49
0.25
 49
-0.125
  0
ENDTAB
  0
TABLE
  2
LAYER
 70
     3
  0
LAYER
  2
0
 70
     0
 62
     7
  6
CONTINUOUS
  0
LAYER
  2
1
 70
     0
 62
     1
  6
CENTER
  0
LAYER
  2
2
 70
     0
 62
     2
  6
HIDDEN
  0
ENDTAB
  0
TABLE
  2
STYLE
 70
     1
  0
STYLE
  2
STANDARD
 70
     0
 40
0.0
 41
1.0
 50
0.0
 71
     0
 42
10.00000000000049
  3
TXT
  4
BIGFONT
  0
ENDTAB
  0
TABLE
  2
VIEW
 70
     1
  0
VIEW
  2
ALL
 70
     0
 40
810.0
 10
662.97478991596643
 20
405.0
 41
0.0
 11
0.0
 21
0.0
 31
1.0
 12
0.0
 22
0.0
 32
0.0
 42
0.0
 43
0.0
 44
0.0
 50
0.0
 71
     0
  0
ENDTAB
  0
TABLE
  2
UCS
 70
     0
  0
ENDTAB
  0
TABLE
  2
APPID
 70
     1
  0
APPID
  2
ACAD
 70
     0
  0
ENDTAB
  0
TABLE
  2
DIMSTYLE
 70
     1
  0
DIMSTYLE
  2
STANDARD
 70
     0
  3

  4

  5

  6

  7

 40
1.0
 41
0.18
 42
0.0625
 43
0.38
 44
0.18
 45
0.0
 46
0.0
 47
0.0
 48
0.0
140
0.18
141
0.09
142
0.0
143
25.399999999999999
144
1.0
145
0.0
146
1.0
147
0.09
 71
     0
 72
     0
 73
     1
 74
     1
 75
     0
 76
     0
 77
     0
 78
     0
170
     0
171
     2
172
     0
173
     0
174
     0
175
     0
176
     0
177
     0
178
     0
  0
ENDTAB
  0
ENDSEC
  0
SECTION
  2
BLOCKS
  0
BLOCK
  8
0
  2
$MODEL_SPACE
 70
     0
 10
0.0
 20
0.0
 30
0.0
  3
$MODEL_SPACE
  1

  0
ENDBLK
  5
1AA
  8
0
  0
BLOCK
 67
     1
  8
0
  2
$PAPER_SPACE
 70
     0
 10
0.0
 20
0.0
 30
0.0
  3
$PAPER_SPACE
  1

  0
ENDBLK
  5
1A8
 67
     1
  8
0
  0
ENDSEC
  0
SECTION
  2
ENTITIES
  0
LINE
  5
35
  8
1
 10
640.5
 20
510.0
 30
0.0
 11
919.5
 21
510.0
 31
0.0
  0
LINE
  5
36
  8
1
 10
780.0
 20
644.5
 30
0.0
 11
780.0
 21
510.0
 31
0.0
  0
CIRCLE
  5
37
  8
0
 10
780.0
 20
510.0
 30
0.0
 40
124.5
  0
ARC
  5
38
  8
0
 10
780.0
 20
510.0
 30
0.0
 40
104.40000000000001
 50
109.7943671122608
 51
250.20563288773911
  0
ARC
  5
39
  8
0
 10
780.0
 20
510.0
 30
0.0
 40
29.5
 50
118.3317646745335
 51
61.668235325467549
  0
LINE
  5
3A
  8
1
 10
780.0
 20
649.5
 30
0.0
 11
780.0
 21
370.5
 31
0.0
  0
LINE
  5
3B
  8
0
 10
810.0
 20
510.0
 30
0.0
 11
810.0
 21
604.4677722824033
 31
0.0
  0
LINE
  5
3C
  8
0
 10
750.0
 20
604.4677722824033
 30
0.0
 11
750.0
 21
415.5322277175967
 31
0.0
  0
LINE
  5
3D
  8
0
 10
810.0
 20
415.5322277175967
 30
0.0
 11
810.0
 21
510.0
 31
0.0
  0
ARC
  5
3E
  8
0
 10
780.0
 20
510.0
 30
0.0
 40
104.40000000000001
 50
289.79436711226077
 51
70.205632887739142
  0
ARC
  5
3F
  8
0
 10
814.0
 20
604.4677722824033
 30
0.0
 40
4.0
 50
70.205632887739085
 51
180.0
  0
ARC
  5
40
  8
0
 10
746.0
 20
604.4677722824033
 30
0.0
 40
4.0
 50
0.0
 51
109.7943671122607
  0
ARC
  5
41
  8
0
 10
746.0
 20
415.5322277175967
 30
0.0
 40
4.0
 50
250.20563288773911
 51
0.0
  0
ARC
  5
42
  8
0
 10
814.0
 20
415.5322277175967
 30
0.0
 40
4.0
 50
180.0
 51
289.79436711226123
  0
ARC
  5
43
  8
0
 10
780.0
 20
623.5
 30
0.0
 40
22.0
 50
295.73308655442418
 51
332.8953464418916
  0
LINE
  5
44
  8
1
 10
966.03452464816735
 20
510.0
 30
0.0
 11
1066.034524648167
 21
509.99999999999989
 31
0.0
  0
LINE
  5
45
  8
0
 10
998.27736345848587
 20
385.5
 30
0.0
 11
1008.034524648167
 21
385.5
 31
0.0
  0
LINE
  5
46
  8
0
 10
1013.034524648167
 20
390.5
 30
0.0
 11
1013.034524648167
 21
629.49999999999989
 31
0.0
  0
ARC
  5
47
  8
0
 10
985.53452464816723
 20
392.69999999999987
 30
0.0
 40
4.5
 50
179.9999411367636
 51
251.37225178666611
  0
ARC
  5
48
  8
0
 10
1008.034524648167
 20
390.5
 30
0.0
 40
5.0
 50
270.0
 51
0.0
  0
ARC
  5
49
  8
0
 10
1003.2622422409499
 20
445.2925662898333
 30
0.0
 40
60.0
 50
251.37224862180639
 51
265.23429809933288
  0
ARC
  5
4A
  8
0
 10
1003.2622422409499
 20
574.7074337101667
 30
0.0
 40
60.0
 50
94.765701900667068
 51
108.62775137819359
  0
ARC
  5
4B
  8
0
 10
1008.034524648167
 20
629.49999999999989
 30
0.0
 40
5.0
 50
0.0
 51
90.000000000000014
  0
ARC
  5
4C
  8
0
 10
985.53452464816723
 20
627.29999999999995
 30
0.0
 40
4.5
 50
108.6277482133338
 51
180.0000588632364
  0
LINE
  5
4D
  8
0
 10
998.27736345848587
 20
634.49999999999989
 30
0.0
 11
1008.034524648167
 21
634.49999999999989
 31
0.0
  0
LINE
  5
4E
  8
0
 10
981.03452464816723
 20
392.70000426496108
 30
0.0
 11
981.03452464816723
 21
627.29999537689218
 31
0.0
  0
ARC
  5
4F
  8
0
 10
780.0
 20
510.0
 30
0.0
 40
106.40000000000001
 50
101.5030294174521
 51
78.496970582547888
  0
ARC
  5
50
  8
0
 10
800.91913135541665
 20
612.7929955947136
 30
0.0
 40
1.5
 50
78.496970582547931
 51
152.89534644189209
  0
ARC
  5
51
  8
0
 10
759.08086864458323
 20
612.7929955947136
 30
0.0
 40
1.5
 50
27.104653558107358
 51
101.5030294174509
  0
ARC
  5
52
  8
0
 10
780.0
 20
510.0
 30
0.0
 40
18.0
 50
141.0575587310187
 51
38.942441268987828
  0
ARC
  5
53
  8
0
 10
780.0
 20
510.0
 30
0.0
 40
28.0
 50
120.0
 51
60.000000000001229
  0
LINE
  5
54
  8
1
 10
752.0
 20
612.5
 30
0.0
 11
808.0
 21
612.5
 31
0.0
  0
LINE
  5
55
  8
1
 10
986.03452464816723
 20
614.5
 30
0.0
 11
1028.034524648167
 21
614.49999999999977
 31
0.0
  0
LINE
  5
56
  8
1
 10
966.03452464816712
 20
612.5
 30
0.0
 11
1011.009509003605
 21
612.5
 31
0.0
  0
ARC
  5
57
  8
0
 10
780.0
 20
612.5
 30
0.0
 40
13.0
 50
298.94564298771081
 51
241.05435701229399
  0
ARC
  5
58
  8
0
 10
780.0
 20
612.5
 30
0.0
 40
6.5
 50
307.97987244482118
 51
232.02012755514801
  0
CIRCLE
  5
59
  8
0
 10
780.0
 20
510.0
 30
0.0
 40
117.2999999999999
  0
LINE
  5
5A
  8
0
 10
784.0
 20
617.62347538297956
 30
0.0
 11
784.0
 21
602.5
 31
0.0
  0
LINE
  5
5B
  8
0
 10
776.0
 20
617.62347538297956
 30
0.0
 11
776.0
 21
602.5
 31
0.0
  0
ARC
  5
5C
  8
0
 10
780.0
 20
612.49999999999989
 30
0.0
 40
5.000000000000056
 50
36.869897645977439
 51
143.13010235411161
  0
LINE
  5
5D
  8
0
 10
786.20000000000005
 20
602.5
 30
0.0
 11
773.79999999999995
 21
602.5
 31
0.0
  0
LINE
  5
5E
  8
0
 10
773.79999999999995
 20
602.5
 30
0.0
 11
773.5
 21
598.0
 31
0.0
  0
LINE
  5
5F
  8
0
 10
786.20000000000005
 20
602.5
 30
0.0
 11
786.5
 21
598.0
 31
0.0
  0
ARC
  5
60
  8
0
 10
768.5
 20
511.61312551278797
 30
0.0
 40
2.5
 50
180.0
 51
255.98917192512371
  0
ARC
  5
61
  8
0
 10
791.5
 20
511.61312551278809
 30
0.0
 40
2.5
 50
284.01082807487688
 51
0.0000000000000254
  0
LINE
  5
62
  8
0
 10
789.84885780179695
 20
509.69999999999999
 30
0.0
 11
770.15114219820407
 21
509.69999999999982
 31
0.0
  0
ARC
  5
63
  8
0
 10
770.15976069500834
 20
596.44999999999993
 30
0.0
 40
1.25
 50
89.999999999999915
 51
175.710846671181
  0
ARC
  5
64
  8
0
 10
789.84023930499166
 20
596.44999999999982
 30
0.0
 40
1.25
 50
4.2891533288190979
 51
90.000000000000028
  0
LINE
  5
65
  8
0
 10
768.91326155764773
 20
596.54348743530204
 30
0.0
 11
766.0
 21
557.70000000000005
 31
0.0
  0
LINE
  5
66
  8
0
 10
791.08673844235216
 20
596.54348743530193
 30
0.0
 11
794.0
 21
557.70000000000005
 31
0.0
  0
LINE
  5
67
  8
0
 10
771.0
 20
598.0
 30
0.0
 11
771.0
 21
597.69999999999993
 31
0.0
  0
LINE
  5
68
  8
0
 10
788.99999999999977
 20
598.0
 30
0.0
 11
789.0
 21
597.69999999999993
 31
0.0
  0
LINE
  5
69
  8
0
 10
766.0
 20
557.70000000000005
 30
0.0
 11
766.0
 21
511.61312551278797
 31
0.0
  0
LINE
  5
6A
  8
0
 10
794.0
 20
557.70000000000005
 30
0.0
 11
794.0
 21
511.61312551278809
 31
0.0
  0
ARC
  5
6B
  8
0
 10
780.0
 20
557.70000000000005
 30
0.0
 40
50.0
 50
255.98917192512309
 51
284.01082807487688
  0
LINE
  5
6C
  8
0
 10
766.0
 20
557.70000000000005
 30
0.0
 11
794.0
 21
557.70000000000005
 31
0.0
  0
LINE
  5
6D
  8
0
 10
770.15976069500834
 20
597.69999999999993
 30
0.0
 11
789.84023930499166
 21
597.69999999999982
 31
0.0
  0
LINE
  5
6E
  8
0
 10
771.0
 20
598.0
 30
0.0
 11
789.0
 21
598.0
 31
0.0
  0
LINE
  5
6F
  8
1
 10
991.03452464816712
 20
492.69999999999959
 30
0.0
 11
991.03452464816712
 21
631.49999999999409
 31
0.0
  0
ARC
  5
70
  8
0
 10
780.0
 20
623.5
 30
0.0
 40
22.0
 50
207.1046535581084
 51
244.2669134455758
  0
LINE
  5
71
  8
0
 10
784.0
 20
617.62347538297956
 30
0.0
 11
776.0
 21
617.62347538297956
 31
0.0
  0
ARC
  5
72
  8
0
 10
979.53452464816712
 20
511.61312551278797
 30
0.0
 40
2.5
 50
180.0
 51
255.98917192512371
  0
ARC
  5
73
  8
0
 10
981.19428534317547
 20
596.44999999999993
 30
0.0
 40
1.25
 50
97.342975439148958
 51
175.710846671181
  0
LINE
  5
74
  8
0
 10
979.94778620581496
 20
596.54348743530204
 30
0.0
 11
977.03452464816735
 21
557.70000000000005
 31
0.0
  0
LINE
  5
75
  8
0
 10
977.03452464816735
 20
557.70000000000005
 30
0.0
 11
977.03452464816735
 21
511.61312551278797
 31
0.0
  0
ARC
  5
76
  8
0
 10
991.03452464816712
 20
557.70000000000005
 30
0.0
 40
50.0
 50
255.98917192512309
 51
258.46304096718472
  0
LINE
  5
77
  8
0
 10
977.03452464816735
 20
557.70000000000005
 30
0.0
 11
981.03452464816723
 21
557.70000000000005
 31
0.0
  0
LINE
  5
78
  8
0
 10
756.99999999999989
 20
155.26547535183289
 30
0.0
 11
749.99999999999989
 21
155.26547535183281
 31
0.0
  0
LINE
  5
79
  8
0
 10
802.99999999999989
 20
186.96547535183259
 30
0.0
 11
802.99999999999989
 21
155.26547535183261
 31
0.0
  0
LINE
  5
7A
  8
0
 10
756.99999999999989
 20
186.96547535183271
 30
0.0
 11
756.99999999999989
 21
155.26547535183281
 31
0.0
  0
LINE
  5
7B
  8
0
 10
802.99999999999989
 20
178.7260838192615
 30
0.0
 11
756.99999999999989
 21
178.72608381926139
 31
0.0
  0
LINE
  5
7C
  8
0
 10
809.99999999999989
 20
186.96547535183259
 30
0.0
 11
809.99999999999989
 21
155.26547535183261
 31
0.0
  0
LINE
  5
7D
  8
0
 10
749.99999999999989
 20
186.96547535183271
 30
0.0
 11
749.99999999999989
 21
155.26547535183281
 31
0.0
  0
LINE
  5
7E
  8
1
 10
779.99999999999977
 20
237.96547535183271
 30
0.0
 11
779.99999999999977
 21
133.96547535183271
 31
0.0
  0
LINE
  5
7F
  8
0
 10
904.49999999999989
 20
201.72263654151399
 30
0.0
 11
904.49999999999989
 21
191.96547535183271
 31
0.0
  0
LINE
  5
80
  8
0
 10
899.49999999999989
 20
186.96547535183271
 30
0.0
 11
660.49999999999977
 21
186.96547535183271
 31
0.0
  0
ARC
  5
81
  8
0
 10
897.29999999999984
 20
214.46547535183271
 30
0.0
 40
4.5
 50
18.627748213333859
 51
90.000058863236404
  0
ARC
  5
82
  8
0
 10
899.49999999999989
 20
191.96547535183271
 30
0.0
 40
5.0
 50
270.0
 51
0.0
  0
ARC
  5
83
  8
0
 10
844.70743371016658
 20
196.73775775904889
 30
0.0
 40
60.0
 50
4.7657019006670636
 51
18.62775137819359
  0
ARC
  5
84
  8
0
 10
715.29256628983319
 20
196.73775775904889
 30
0.0
 40
60.0
 50
161.37224862180631
 51
175.2342980993329
  0
ARC
  5
85
  8
0
 10
660.49999999999977
 20
191.96547535183271
 30
0.0
 40
5.0
 50
180.0
 51
270.0
  0
ARC
  5
86
  8
0
 10
662.69999999999993
 20
214.46547535183271
 30
0.0
 40
4.5
 50
89.999941136763596
 51
161.37225178666611
  0
LINE
  5
87
  8
0
 10
655.49999999999977
 20
201.72263654151399
 30
0.0
 11
655.49999999999977
 21
191.96547535183271
 31
0.0
  0
LINE
  5
88
  8
0
 10
761.99999999999989
 20
149.26547535183269
 30
0.0
 11
761.99999999999989
 21
148.96547535183271
 31
0.0
  0
LINE
  5
89
  8
2
 10
762.99999999999989
 20
189.26547535183269
 30
0.0
 11
762.99999999999989
 21
186.96547535183271
 31
0.0
  0
LINE
  5
8A
  8
2
 10
769.99999999999989
 20
186.96547535183271
 30
0.0
 11
769.99999999999989
 21
148.96547535183271
 31
0.0
  0
LINE
  5
8B
  8
2
 10
751.99999999999977
 20
189.26547535183269
 30
0.0
 11
750.49999999999989
 21
187.76547535183269
 31
0.0
  0
LINE
  5
8C
  8
0
 10
809.99999999999989
 20
155.26547535183261
 30
0.0
 11
802.99999999999989
 21
155.26547535183261
 31
0.0
  0
LINE
  5
8D
  8
0
 10
809.49999999999977
 20
149.26547535183269
 30
0.0
 11
809.49999999999977
 21
155.26547535183261
 31
0.0
  0
LINE
  5
8E
  8
0
 10
750.49999999999989
 20
149.26547535183269
 30
0.0
 11
809.49999999999977
 21
149.26547535183269
 31
0.0
  0
LINE
  5
8F
  8
0
 10
797.99999999999977
 20
148.96547535183271
 30
0.0
 11
761.99999999999989
 21
148.96547535183271
 31
0.0
  0
LINE
  5
90
  8
0
 10
750.49999999999989
 20
149.26547535183269
 30
0.0
 11
750.49999999999989
 21
155.26547535183281
 31
0.0
  0
LINE
  5
91
  8
0
 10
897.29999573503881
 20
218.96547535183271
 30
0.0
 11
662.7000046231077
 21
218.96547535183271
 31
0.0
  0
LINE
  5
92
  8
2
 10
751.99999999999977
 20
189.26547535183269
 30
0.0
 11
762.99999999999989
 21
189.26547535183269
 31
0.0
  0
LINE
  5
93
  8
2
 10
762.99999999999989
 20
189.26547535183269
 30
0.0
 11
807.99999999999977
 21
189.26547535183269
 31
0.0
  0
LINE
  5
94
  8
2
 10
761.99999999999989
 20
186.96547535183271
 30
0.0
 11
762.99999999999989
 21
186.96547535183271
 31
0.0
  0
LINE
  5
95
  8
2
 10
762.99999999999989
 20
186.96547535183271
 30
0.0
 11
767.99999999999977
 21
186.96547535183271
 31
0.0
  0
LINE
  5
96
  8
0
 10
797.99999999999977
 20
148.96547535183271
 30
0.0
 11
797.99999999999977
 21
149.26547535183269
 31
0.0
  0
LINE
  5
97
  8
2
 10
807.99999999999977
 20
189.26547535183269
 30
0.0
 11
809.49999999999977
 21
187.76547535183269
 31
0.0
  0
LINE
  5
98
  8
2
 10
796.99999999999977
 20
189.26547535183269
 30
0.0
 11
796.99999999999977
 21
186.96547535183271
 31
0.0
  0
LINE
  5
99
  8
0
 10
797.99999999999977
 20
149.26547535183269
 30
0.0
 11
797.99999999999977
 21
148.96547535183271
 31
0.0
  0
LINE
  5
9A
  8
2
 10
789.99999999999989
 20
186.96547535183271
 30
0.0
 11
789.99999999999989
 21
148.96547535183271
 31
0.0
  0
LINE
  5
9B
  8
2
 10
750.49999999999989
 20
155.26547535183281
 30
0.0
 11
750.49999999999989
 21
187.76547535183269
 31
0.0
  0
LINE
  5
9C
  8
2
 10
809.49999999999977
 20
155.26547535183261
 30
0.0
 11
809.49999999999977
 21
187.76547535183269
 31
0.0
  0
LINE
  5
9D
  8
2
 10
797.99999999999977
 20
149.26547535183269
 30
0.0
 11
797.99999999999977
 21
186.96547535183271
 31
0.0
  0
LINE
  5
9E
  8
2
 10
761.99999999999989
 20
149.26547535183269
 30
0.0
 11
761.99999999999989
 21
186.96547535183271
 31
0.0
  0
LINE
  5
9F
  8
2
 10
762.99999999999989
 20
187.96547535183271
 30
0.0
 11
796.99999999999977
 21
187.96547535183251
 31
0.0
  0
LINE
  5
A0
  8
2
 10
1012.034524648167
 20
526.99999999999977
 30
0.0
 11
1012.034524648167
 21
492.99999999999977
 31
0.0
  0
LINE
  5
A1
  8
2
 10
1050.7345246481671
 20
527.99999999999966
 30
0.0
 11
1013.034524648167
 21
527.99999999999966
 31
0.0
  0
LINE
  5
A2
  8
2
 10
1050.7345246481671
 20
491.99999999999989
 30
0.0
 11
1013.034524648167
 21
491.99999999999989
 31
0.0
  0
LINE
  5
A3
  8
2
 10
1041.395309508353
 20
480.49999999999977
 30
0.0
 11
1012.2345246481671
 21
480.49999999999977
 31
0.0
  0
LINE
  5
A4
  8
2
 10
1041.395309508353
 20
539.49999999999977
 30
0.0
 11
1012.2345246481671
 21
539.49999999999977
 31
0.0
  0
LINE
  5
A5
  8
2
 10
1013.034524648167
 20
499.99999999999989
 30
0.0
 11
1051.034524648167
 21
499.99999999999989
 31
0.0
  0
LINE
  5
A6
  8
0
 10
1050.7345246481671
 20
491.99999999999989
 30
0.0
 11
1051.034524648167
 21
491.99999999999989
 31
0.0
  0
LINE
  5
A7
  8
2
 10
1010.7345246481671
 20
492.99999999999977
 30
0.0
 11
1013.034524648167
 21
492.99999999999977
 31
0.0
  0
LINE
  5
A8
  8
2
 10
1010.7345246481671
 20
481.99999999999989
 30
0.0
 11
1012.2345246481671
 21
480.49999999999977
 31
0.0
  0
LINE
  5
A9
  8
0
 10
1017.314021114165
 20
509.99999999999989
 30
0.0
 11
1013.034524648167
 21
542.49123579334355
 31
0.0
  0
LINE
  5
AA
  8
0
 10
1051.034524648167
 20
491.99999999999989
 30
0.0
 11
1050.7345246481671
 21
491.99999999999989
 31
0.0
  0
LINE
  5
AB
  8
2
 10
1013.034524648167
 20
526.99999999999977
 30
0.0
 11
1013.034524648167
 21
521.99999999999977
 31
0.0
  0
LINE
  5
AC
  8
2
 10
1013.034524648167
 20
527.99999999999989
 30
0.0
 11
1013.034524648167
 21
526.99999999999977
 31
0.0
  0
LINE
  5
AD
  8
2
 10
1010.7345246481671
 20
526.99999999999977
 30
0.0
 11
1010.7345246481671
 21
481.99999999999989
 31
0.0
  0
LINE
  5
AE
  8
2
 10
1010.7345246481671
 20
537.99999999999989
 30
0.0
 11
1010.7345246481671
 21
526.99999999999977
 31
0.0
  0
LINE
  5
AF
  8
0
 10
1050.7345246481671
 20
539.49999999999977
 30
0.0
 11
1041.395309508353
 21
539.49999999999966
 31
0.0
  0
LINE
  5
B0
  8
0
 10
1051.034524648167
 20
491.99999999999989
 30
0.0
 11
1051.034524648167
 21
527.99999999999989
 31
0.0
  0
LINE
  5
B1
  8
0
 10
1050.7345246481671
 20
539.5
 30
0.0
 11
1050.7345246481671
 21
480.49999999999977
 31
0.0
  0
LINE
  5
B2
  8
0
 10
1050.7345246481671
 20
480.49999999999977
 30
0.0
 11
1041.395309508353
 21
480.49999999999977
 31
0.0
  0
LINE
  5
B3
  8
0
 10
1044.7345246481671
 20
487.99999999999989
 30
0.0
 11
1044.7345246481671
 21
531.99999999999955
 31
0.0
  0
LINE
  5
B4
  8
0
 10
1044.7345246481671
 20
487.99999999999989
 30
0.0
 11
1013.034524648167
 21
416.80063426723632
 31
0.0
  0
LINE
  5
B5
  8
0
 10
1017.314021114165
 20
509.99999999999977
 30
0.0
 11
1013.034524648167
 21
477.50876420665622
 31
0.0
  0
LINE
  5
B6
  8
0
 10
1044.7345246481671
 20
531.99999999999966
 30
0.0
 11
1013.034524648163
 21
603.19936573277175
 31
0.0
  0
LINE
  5
B7
  8
2
 10
1010.7345246481671
 20
537.99999999999989
 30
0.0
 11
1012.2345246481671
 21
539.49999999999977
 31
0.0
  0
LINE
  5
B8
  8
2
 10
1013.034524648167
 20
520.0
 30
0.0
 11
1051.034524648167
 21
520.0
 31
0.0
  0
LINE
  5
B9
  8
2
 10
1010.7345246481671
 20
526.99999999999977
 30
0.0
 11
1013.034524648167
 21
526.99999999999977
 31
0.0
  0
LINE
  5
BA
  8
0
 10
1050.7345246481671
 20
527.99999999999989
 30
0.0
 11
1051.034524648167
 21
527.99999999999989
 31
0.0
  0
LINE
  5
C4
  8
0
 10
89.265475351832734
 20
527.99999999999966
 30
0.0
 11
88.965475351832765
 21
527.99999999999966
 31
0.0
  0
LINE
  5
C5
  8
2
 10
129.26547535183269
 20
526.99999999999966
 30
0.0
 11
126.96547535183269
 21
526.99999999999966
 31
0.0
  0
LINE
  5
C6
  8
2
 10
126.96547535183269
 20
519.99999999999966
 30
0.0
 11
88.965475351832765
 21
519.99999999999966
 31
0.0
  0
LINE
  5
C7
  8
2
 10
129.26547535183269
 20
537.99999999999977
 30
0.0
 11
127.76547535183271
 21
539.49999999999966
 31
0.0
  0
LINE
  5
C8
  8
0
 10
95.26547535183272
 20
531.99999999999966
 30
0.0
 11
126.9654753518366
 21
603.19936573277164
 31
0.0
  0
LINE
  5
C9
  8
0
 10
122.685978885835
 20
509.99999999999972
 30
0.0
 11
126.96547535183269
 21
477.50876420665622
 31
0.0
  0
LINE
  5
CA
  8
0
 10
95.26547535183272
 20
487.99999999999977
 30
0.0
 11
126.9654753518325
 21
416.80063426723632
 31
0.0
  0
LINE
  5
CB
  8
0
 10
95.26547535183272
 20
487.99999999999977
 30
0.0
 11
95.26547535183272
 21
531.99999999999955
 31
0.0
  0
LINE
  5
CC
  8
0
 10
89.265475351832734
 20
480.49999999999977
 30
0.0
 11
98.604690491646579
 21
480.49999999999977
 31
0.0
  0
LINE
  5
CD
  8
0
 10
89.265475351832734
 20
539.49999999999966
 30
0.0
 11
89.265475351832734
 21
480.49999999999977
 31
0.0
  0
LINE
  5
CE
  8
0
 10
88.965475351832765
 20
491.99999999999977
 30
0.0
 11
88.965475351832765
 21
527.99999999999966
 31
0.0
  0
LINE
  5
CF
  8
0
 10
89.265475351832734
 20
539.49999999999966
 30
0.0
 11
98.604690491647034
 21
539.49999999999966
 31
0.0
  0
LINE
  5
D0
  8
2
 10
129.26547535183269
 20
537.99999999999977
 30
0.0
 11
129.26547535183269
 21
526.99999999999966
 31
0.0
  0
LINE
  5
D1
  8
2
 10
129.26547535183269
 20
526.99999999999966
 30
0.0
 11
129.26547535183269
 21
481.99999999999977
 31
0.0
  0
LINE
  5
D2
  8
2
 10
126.96547535183269
 20
527.99999999999966
 30
0.0
 11
126.96547535183269
 21
526.99999999999966
 31
0.0
  0
LINE
  5
D3
  8
2
 10
126.96547535183269
 20
526.99999999999966
 30
0.0
 11
126.96547535183269
 21
521.99999999999966
 31
0.0
  0
LINE
  5
D4
  8
0
 10
88.965475351832765
 20
491.99999999999977
 30
0.0
 11
89.265475351832734
 21
491.99999999999977
 31
0.0
  0
LINE
  5
D5
  8
0
 10
122.685978885835
 20
509.99999999999977
 30
0.0
 11
126.96547535183269
 21
542.49123579334332
 31
0.0
  0
LINE
  5
D6
  8
2
 10
129.26547535183269
 20
481.99999999999977
 30
0.0
 11
127.76547535183271
 21
480.49999999999977
 31
0.0
  0
LINE
  5
D7
  8
2
 10
129.26547535183269
 20
492.99999999999977
 30
0.0
 11
126.96547535183269
 21
492.99999999999977
 31
0.0
  0
LINE
  5
D8
  8
0
 10
89.265475351832734
 20
491.99999999999977
 30
0.0
 11
88.965475351832765
 21
491.99999999999977
 31
0.0
  0
LINE
  5
D9
  8
2
 10
126.96547535183269
 20
499.99999999999977
 30
0.0
 11
88.965475351832765
 21
499.99999999999977
 31
0.0
  0
LINE
  5
DA
  8
2
 10
98.604690491646807
 20
539.49999999999966
 30
0.0
 11
127.76547535183271
 21
539.49999999999966
 31
0.0
  0
LINE
  5
DB
  8
2
 10
98.604690491646807
 20
480.49999999999972
 30
0.0
 11
127.76547535183271
 21
480.49999999999977
 31
0.0
  0
LINE
  5
DC
  8
2
 10
89.265475351832734
 20
491.99999999999977
 30
0.0
 11
126.96547535183269
 21
491.99999999999977
 31
0.0
  0
LINE
  5
DD
  8
2
 10
89.265475351832734
 20
527.99999999999966
 30
0.0
 11
126.96547535183269
 21
527.99999999999966
 31
0.0
  0
LINE
  5
DE
  8
2
 10
127.96547535183301
 20
526.99999999999966
 30
0.0
 11
127.9654753518325
 21
492.99999999999977
 31
0.0
  0
LINE
  5
DF
  8
1
 10
148.96547535183271
 20
587.5
 30
0.0
 11
148.96547535183271
 21
631.5
 31
0.0
  0
ARC
  5
E0
  8
0
  6
CONTINUOUS
 10
245.35234983904459
 20
624.0
 30
0.0
 40
2.5
 50
14.01082807487632
 51
90.000000000000057
  0
ARC
  5
E1
  8
0
  6
CONTINUOUS
 10
245.35234983904451
 20
601.0
 30
0.0
 40
2.5
 50
270.0
 51
345.989171925123
  0
LINE
  5
E2
  8
0
  6
CONTINUOUS
 10
247.26547535183269
 20
602.65114219820293
 30
0.0
 11
247.26547535183281
 21
622.34885780179593
 31
0.0
  0
ARC
  5
E3
  8
0
  6
CONTINUOUS
 10
160.51547535183269
 20
622.34023930499166
 30
0.0
 40
1.25
 50
94.289153328818969
 51
180.00000000000011
  0
ARC
  5
E4
  8
0
  6
CONTINUOUS
 10
160.51547535183281
 20
602.65976069500812
 30
0.0
 40
1.25
 50
180.0
 51
265.71084667118089
  0
LINE
  5
E5
  8
0
  6
CONTINUOUS
 10
160.4219879165307
 20
623.58673844235227
 30
0.0
 11
199.26547535183269
 21
626.49999999999977
 31
0.0
  0
LINE
  5
E6
  8
0
  6
CONTINUOUS
 10
160.4219879165307
 20
601.41326155764762
 30
0.0
 11
199.26547535183269
 21
598.5
 31
0.0
  0
LINE
  5
E7
  8
0
  6
CONTINUOUS
 10
158.96547535183271
 20
621.49999999999989
 30
0.0
 11
159.26547535183269
 21
621.49999999999989
 31
0.0
  0
LINE
  5
E8
  8
0
  6
CONTINUOUS
 10
158.96547535183271
 20
603.5
 30
0.0
 11
159.26547535183269
 21
603.5
 31
0.0
  0
LINE
  5
E9
  8
0
  6
CONTINUOUS
 10
199.26547535183269
 20
626.5
 30
0.0
 11
245.35234983904459
 21
626.5
 31
0.0
  0
LINE
  5
EA
  8
0
  6
CONTINUOUS
 10
199.26547535183269
 20
598.5
 30
0.0
 11
245.35234983904451
 21
598.5
 31
0.0
  0
ARC
  5
EB
  8
0
  6
CONTINUOUS
 10
199.26547535183269
 20
612.5
 30
0.0
 40
50.0
 50
345.989171925123
 51
14.01082807487693
  0
LINE
  5
EC
  8
0
  6
CONTINUOUS
 10
199.26547535183269
 20
626.49999999999977
 30
0.0
 11
199.26547535183269
 21
598.5
 31
0.0
  0
LINE
  5
ED
  8
0
  6
CONTINUOUS
 10
159.26547535183269
 20
622.34023930499166
 30
0.0
 11
159.26547535183281
 21
602.65976069500812
 31
0.0
  0
LINE
  5
EE
  8
1
 10
264.26547535183198
 20
612.5
 30
0.0
 11
128.9904909963964
 21
612.5
 31
0.0
  0
LINE
  5
EF
  8
1
 10
153.96547535183279
 20
614.5
 30
0.0
 11
111.96547535183269
 21
614.5
 31
0.0
  0
LINE
  5
F0
  8
0
 10
158.96547535183271
 20
392.70000426496108
 30
0.0
 11
158.96547535183271
 21
627.29999999999995
 31
0.0
  0
LINE
  5
F1
  8
0
 10
141.72263654151399
 20
634.49999999999989
 30
0.0
 11
131.96547535183271
 21
634.49999999999989
 31
0.0
  0
ARC
  5
F2
  8
0
 10
154.46547535183271
 20
627.29999999999995
 30
0.0
 40
4.5
 50
359.99994113676348
 51
71.372251786666155
  0
ARC
  5
F3
  8
0
 10
131.96547535183271
 20
629.49999999999989
 30
0.0
 40
5.0
 50
90.000000000000014
 51
180.0
  0
ARC
  5
F4
  8
0
 10
136.737757759049
 20
574.7074337101667
 30
0.0
 40
60.0
 50
71.37224862180642
 51
85.234298099332946
  0
ARC
  5
F5
  8
0
 10
136.737757759049
 20
445.2925662898333
 30
0.0
 40
60.0
 50
274.76570190066712
 51
288.62775137819358
  0
ARC
  5
F6
  8
0
 10
131.96547535183271
 20
390.5
 30
0.0
 40
5.0
 50
180.0
 51
270.0
  0
ARC
  5
F7
  8
0
 10
154.46547535183271
 20
392.69999999999987
 30
0.0
 40
4.5
 50
288.62774821333392
 51
0.0000588632364329
  0
LINE
  5
F8
  8
0
 10
126.96547535183269
 20
390.5
 30
0.0
 11
126.96547535183269
 21
629.49999999999989
 31
0.0
  0
LINE
  5
F9
  8
0
 10
141.72263654151399
 20
385.5
 30
0.0
 11
131.96547535183271
 21
385.5
 31
0.0
  0
LINE
  5
FA
  8
1
 10
173.96547535183271
 20
509.99999999999977
 30
0.0
 11
73.965475351832794
 21
510.00000000000011
 31
0.0
  0
ARC
  5
FB
  8
0
 10
420.0
 20
623.5
 30
0.0
 40
22.0
 50
207.1046535581084
 51
237.67636349180191
  0
CIRCLE
  5
FC
  8
0
 10
420.0
 20
510.0
 30
0.0
 40
117.2999999999999
  0
LINE
  5
FD
  8
1
 10
391.00000000000091
 20
612.5
 30
0.0
 11
449.00000000000091
 21
612.5
 31
0.0
  0
ARC
  5
FE
  8
0
 10
399.08086864458318
 20
612.7929955947136
 30
0.0
 40
1.5
 50
27.104653558107358
 51
101.5030294174509
  0
ARC
  5
FF
  8
0
 10
440.91913135541671
 20
612.7929955947136
 30
0.0
 40
1.5
 50
78.496970582547931
 51
152.89534644189209
  0
ARC
  5
100
  8
0
 10
420.0
 20
510.0
 30
0.0
 40
106.40000000000001
 50
101.5030294174521
 51
78.496970582547888
  0
ARC
  5
101
  8
0
 10
420.0
 20
623.5
 30
0.0
 40
22.0
 50
302.32363650819809
 51
332.8953464418916
  0
ARC
  5
102
  8
0
 10
454.0
 20
415.5322277175967
 30
0.0
 40
4.0
 50
180.0
 51
289.79436711226123
  0
ARC
  5
103
  8
0
 10
386.0
 20
415.5322277175967
 30
0.0
 40
4.0
 50
250.20563288773911
 51
0.0
  0
ARC
  5
104
  8
0
 10
386.0
 20
604.4677722824033
 30
0.0
 40
4.0
 50
0.0
 51
109.7943671122607
  0
ARC
  5
105
  8
0
 10
454.0
 20
604.4677722824033
 30
0.0
 40
4.0
 50
70.205632887739085
 51
180.0
  0
ARC
  5
106
  8
0
 10
420.0
 20
510.0
 30
0.0
 40
104.40000000000001
 50
289.79436711226077
 51
70.205632887739142
  0
LINE
  5
107
  8
0
 10
450.0
 20
415.5322277175967
 30
0.0
 11
450.0
 21
510.0
 31
0.0
  0
LINE
  5
108
  8
0
 10
390.0
 20
604.4677722824033
 30
0.0
 11
390.0
 21
415.5322277175967
 31
0.0
  0
LINE
  5
109
  8
0
 10
450.0
 20
510.0
 30
0.0
 11
450.0
 21
604.4677722824033
 31
0.0
  0
LINE
  5
10A
  8
1
 10
420.0
 20
644.5
 30
0.0
 11
420.0
 21
370.5
 31
0.0
  0
ARC
  5
10B
  8
0
 10
420.0
 20
510.0
 30
0.0
 40
104.40000000000001
 50
109.7943671122608
 51
250.20563288773911
  0
CIRCLE
  5
10C
  8
0
 10
420.0
 20
510.0
 30
0.0
 40
124.5
  0
LINE
  5
10D
  8
1
 10
420.0
 20
649.5
 30
0.0
 11
420.0
 21
510.0
 31
0.0
  0
LINE
  5
10E
  8
1
 10
280.5
 20
510.0
 30
0.0
 11
559.49999999999989
 21
510.0
 31
0.0
  0
LINE
  5
10F
  8
1
 10
750.99999999999977
 20
208.96547535183271
 30
0.0
 11
808.99999999999989
 21
208.96547535183271
 31
0.0
  0
ARC
  5
110
  8
0
 10
779.99999999999977
 20
208.96547535183271
 30
0.0
 40
14.0
 50
45.584691402806932
 51
134.41530859719271
  0
CIRCLE
  5
111
  8
0
 10
420.0
 20
612.5
 30
0.0
 40
14.0
  0
CIRCLE
  5
112
  8
0
 10
420.0
 20
510.0
 30
0.0
 40
29.5
  0
CIRCLE
  5
113
  8
0
 10
420.0
 20
510.0
 30
0.0
 40
28.0
  0
CIRCLE
  5
114
  8
0
 10
420.0
 20
510.0
 30
0.0
 40
18.0
  0
LINE
  5
115
  8
1
 10
420.00000000000023
 20
324.26547535183261
 30
0.0
 11
419.99999999999989
 21
133.96547535183279
 31
0.0
  0
LINE
  5
116
  8
0
 10
544.5
 20
201.72263654151399
 30
0.0
 11
544.5
 21
191.96547535183271
 31
0.0
  0
LINE
  5
117
  8
0
 10
539.5
 20
186.96547535183271
 30
0.0
 11
300.49999999999989
 21
186.96547535183271
 31
0.0
  0
ARC
  5
118
  8
0
 10
537.29999999999995
 20
214.46547535183271
 30
0.0
 40
4.5
 50
18.627748213333891
 51
90.000058863236433
  0
ARC
  5
119
  8
0
 10
539.5
 20
191.96547535183271
 30
0.0
 40
5.0
 50
270.0
 51
0.0000000000000368
  0
ARC
  5
11A
  8
0
 10
484.70743371016658
 20
196.737757759049
 30
0.0
 40
60.0
 50
4.7657019006671
 51
18.627751378193629
  0
ARC
  5
11B
  8
0
 10
355.2925662898333
 20
196.737757759049
 30
0.0
 40
60.0
 50
161.37224862180631
 51
175.2342980993329
  0
ARC
  5
11C
  8
0
 10
300.49999999999989
 20
191.96547535183271
 30
0.0
 40
5.0
 50
180.0
 51
270.0
  0
ARC
  5
11D
  8
0
 10
302.69999999999999
 20
214.46547535183271
 30
0.0
 40
4.5
 50
89.999941136763582
 51
161.37225178666611
  0
LINE
  5
11E
  8
0
 10
295.5
 20
201.72263654151399
 30
0.0
 11
295.5
 21
191.96547535183271
 31
0.0
  0
LINE
  5
11F
  8
0
 10
537.29999573503881
 20
218.96547535183271
 30
0.0
 11
302.69999999999999
 21
218.96547535183279
 31
0.0
  0
LINE
  5
120
  8
0
  6
CONTINUOUS
 10
410.15976069500829
 20
219.26547535183249
 30
0.0
 11
429.84023930499188
 21
219.26547535183261
 31
0.0
  0
LINE
  5
121
  8
0
  6
CONTINUOUS
 10
406.00000000000011
 20
259.26547535183249
 30
0.0
 11
434.0
 21
259.26547535183249
 31
0.0
  0
ARC
  5
122
  8
0
  6
CONTINUOUS
 10
420.0
 20
259.26547535183249
 30
0.0
 40
50.0
 50
75.989171925123046
 51
104.0108280748769
  0
LINE
  5
123
  8
0
  6
CONTINUOUS
 10
434.0
 20
259.26547535183249
 30
0.0
 11
434.0
 21
305.35234983904428
 31
0.0
  0
LINE
  5
124
  8
0
  6
CONTINUOUS
 10
406.0
 20
259.26547535183249
 30
0.0
 11
406.0
 21
305.35234983904439
 31
0.0
  0
LINE
  5
125
  8
0
  6
CONTINUOUS
 10
429.0
 20
218.96547535183251
 30
0.0
 11
429.0
 21
219.26547535183249
 31
0.0
  0
LINE
  5
126
  8
0
  6
CONTINUOUS
 10
411.0
 20
218.96547535183251
 30
0.0
 11
411.0
 21
219.26547535183249
 31
0.0
  0
LINE
  5
127
  8
0
  6
CONTINUOUS
 10
431.08673844235238
 20
220.4219879165305
 30
0.0
 11
434.0
 21
259.26547535183249
 31
0.0
  0
LINE
  5
128
  8
0
  6
CONTINUOUS
 10
408.91326155764767
 20
220.4219879165305
 30
0.0
 11
406.00000000000011
 21
259.26547535183249
 31
0.0
  0
ARC
  5
129
  8
0
  6
CONTINUOUS
 10
429.84023930499188
 20
220.51547535183261
 30
0.0
 40
1.25
 50
270.0
 51
355.71084667118089
  0
ARC
  5
12A
  8
0
  6
CONTINUOUS
 10
410.15976069500829
 20
220.51547535183241
 30
0.0
 40
1.25
 50
184.289153328819
 51
270.00000000000011
  0
LINE
  5
12B
  8
0
  6
CONTINUOUS
 10
429.84885780179712
 20
307.26547535183249
 30
0.0
 11
410.15114219820401
 21
307.26547535183249
 31
0.0
  0
ARC
  5
12C
  8
0
  6
CONTINUOUS
 10
431.5
 20
305.35234983904428
 30
0.0
 40
2.5
 50
0.0000000000000368
 51
75.989171925123046
  0
ARC
  5
12D
  8
0
  6
CONTINUOUS
 10
408.49999999999989
 20
305.35234983904439
 30
0.0
 40
2.5
 50
104.0108280748763
 51
180.0
  0
LINE
  5
12E
  8
1
 10
439.00000000000011
 20
208.96547535183251
 30
0.0
 11
400.99999999999989
 21
208.9654753518324
 31
0.0
  0
LINE
  5
12F
  8
2
 10
403.0
 20
187.96547535183251
 30
0.0
 11
437.0
 21
187.96547535183231
 31
0.0
  0
LINE
  5
130
  8
2
 10
402.0
 20
149.26547535183249
 30
0.0
 11
402.0
 21
186.96547535183251
 31
0.0
  0
LINE
  5
131
  8
2
 10
438.0
 20
149.26547535183249
 30
0.0
 11
438.0
 21
186.96547535183251
 31
0.0
  0
LINE
  5
132
  8
2
 10
449.5
 20
155.26547535183241
 30
0.0
 11
449.5
 21
187.76547535183249
 31
0.0
  0
LINE
  5
133
  8
2
 10
390.5
 20
155.26547535183261
 30
0.0
 11
390.5
 21
187.76547535183249
 31
0.0
  0
LINE
  5
134
  8
2
 10
430.0
 20
186.96547535183251
 30
0.0
 11
430.0
 21
148.96547535183251
 31
0.0
  0
LINE
  5
135
  8
0
 10
438.0
 20
149.26547535183249
 30
0.0
 11
438.0
 21
148.96547535183251
 31
0.0
  0
LINE
  5
136
  8
2
 10
437.0
 20
189.26547535183249
 30
0.0
 11
437.0
 21
186.96547535183251
 31
0.0
  0
LINE
  5
137
  8
2
 10
448.0
 20
189.26547535183249
 30
0.0
 11
449.5
 21
187.76547535183249
 31
0.0
  0
LINE
  5
138
  8
0
 10
438.0
 20
148.96547535183251
 30
0.0
 11
438.0
 21
149.26547535183249
 31
0.0
  0
LINE
  5
139
  8
2
 10
403.0
 20
186.96547535183251
 30
0.0
 11
408.0
 21
186.96547535183251
 31
0.0
  0
LINE
  5
13A
  8
2
 10
402.0
 20
186.96547535183251
 30
0.0
 11
403.0
 21
186.96547535183251
 31
0.0
  0
LINE
  5
13B
  8
2
 10
403.0
 20
189.26547535183249
 30
0.0
 11
448.0
 21
189.26547535183249
 31
0.0
  0
LINE
  5
13C
  8
2
 10
392.0
 20
189.26547535183249
 30
0.0
 11
403.0
 21
189.26547535183249
 31
0.0
  0
LINE
  5
13D
  8
0
 10
390.5
 20
149.26547535183249
 30
0.0
 11
390.5
 21
155.26547535183261
 31
0.0
  0
LINE
  5
13E
  8
0
 10
438.0
 20
148.96547535183251
 30
0.0
 11
402.0
 21
148.96547535183251
 31
0.0
  0
LINE
  5
13F
  8
0
 10
390.5
 20
149.26547535183249
 30
0.0
 11
449.5
 21
149.26547535183249
 31
0.0
  0
LINE
  5
140
  8
0
 10
449.5
 20
149.26547535183249
 30
0.0
 11
449.5
 21
155.26547535183241
 31
0.0
  0
LINE
  5
141
  8
0
 10
450.0
 20
155.26547535183241
 30
0.0
 11
443.0
 21
155.26547535183241
 31
0.0
  0
LINE
  5
142
  8
2
 10
392.0
 20
189.26547535183249
 30
0.0
 11
390.5
 21
187.76547535183249
 31
0.0
  0
LINE
  5
143
  8
2
 10
410.0
 20
186.96547535183251
 30
0.0
 11
410.0
 21
148.96547535183251
 31
0.0
  0
LINE
  5
144
  8
2
 10
403.0
 20
189.26547535183249
 30
0.0
 11
403.0
 21
186.96547535183251
 31
0.0
  0
LINE
  5
145
  8
0
 10
402.0
 20
149.26547535183249
 30
0.0
 11
402.0
 21
148.96547535183251
 31
0.0
  0
LINE
  5
146
  8
0
 10
390.0
 20
186.96547535183251
 30
0.0
 11
390.0
 21
155.26547535183261
 31
0.0
  0
LINE
  5
147
  8
0
 10
450.0
 20
186.9654753518324
 30
0.0
 11
450.0
 21
155.26547535183241
 31
0.0
  0
LINE
  5
148
  8
0
 10
443.0
 20
178.72608381926131
 30
0.0
 11
397.0
 21
178.72608381926119
 31
0.0
  0
LINE
  5
149
  8
0
 10
397.0
 20
186.96547535183251
 30
0.0
 11
397.0
 21
155.26547535183261
 31
0.0
  0
LINE
  5
14A
  8
0
 10
443.0
 20
186.9654753518324
 30
0.0
 11
443.0
 21
155.26547535183241
 31
0.0
  0
LINE
  5
14B
  8
0
 10
397.0
 20
155.26547535183269
 30
0.0
 11
390.0
 21
155.26547535183261
 31
0.0
  0
ENDSEC
  0
EOF
