  0
SECTION
  2
HEADER
  9
$ACADVER
  1
AC1009
  9
$INSBASE
 10
0.0
 20
0.0
 30
0.0
  9
$EXTMIN
 10
-0.0275077209544179
 20
-0.0178937076746024
 30
-0.0015258207003583
  9
$EXTMAX
 10
885.08303550283733
 20
570.01739636194611
 30
0.0000000349246037
  9
$LIMMIN
 10
0.0
 20
0.0
  9
$LIMMAX
 10
750.0
 20
540.0
  9
$ORTHOMODE
 70
     0
  9
$REGENMODE
 70
     1
  9
$FILLMODE
 70
     1
  9
$QTEXTMODE
 70
     0
  9
$MIRRTEXT
 70
     0
  9
$DRAGMODE
 70
     2
  9
$LTSCALE
 40
20.0
  9
$OSMODE
 70
   231
  9
$ATTMODE
 70
     1
  9
$TEXTSIZE
 40
5.0
  9
$TRACEWID
 40
0.05
  9
$TEXTSTYLE
  7
STANDARD
  9
$CLAYER
  8
0
  9
$CELTYPE
  6
BYLAYER
  9
$CECOLOR
 62
   256
  9
$DIMSCALE
 40
2.0
  9
$DIMASZ
 40
3.0
  9
$DIMEXO
 40
2.0
  9
$DIMDLI
 40
0.3799999999999999
  9
$DIMRND
 40
0.0
  9
$DIMDLE
 40
0.0
  9
$DIMEXE
 40
2.0
  9
$DIMTP
 40
0.0
  9
$DIMTM
 40
0.0
  9
$DIMTXT
 40
3.0
  9
$DIMCEN
 40
0.09
  9
$DIMTSZ
 40
0.0
  9
$DIMTOL
 70
     0
  9
$DIMLIM
 70
     0
  9
$DIMTIH
 70
     0
  9
$DIMTOH
 70
     0
  9
$DIMSE1
 70
     0
  9
$DIMSE2
 70
     0
  9
$DIMTAD
 70
     1
  9
$DIMZIN
 70
     0
  9
$DIMBLK
  1

  9
$DIMASO
 70
     1
  9
$DIMSHO
 70
     0
  9
$DIMPOST
  1

  9
$DIMAPOST
  1

  9
$DIMALT
 70
     0
  9
$DIMALTD
 70
     2
  9
$DIMALTF
 40
25.399999999999999
  9
$DIMLFAC
 40
1.0
  9
$DIMTOFL
 70
     0
  9
$DIMTVP
 40
1.6000000000000001
  9
$DIMTIX
 70
     1
  9
$DIMSOXD
 70
     0
  9
$DIMSAH
 70
     0
  9
$DIMBLK1
  1

  9
$DIMBLK2
  1

  9
$DIMSTYLE
  2
STANDARD
  9
$DIMCLRD
 70
     0
  9
$DIMCLRE
 70
     0
  9
$DIMCLRT
 70
     0
  9
$DIMTFAC
 40
1.0
  9
$DIMGAP
 40
0.09
  9
$LUNITS
 70
     2
  9
$LUPREC
 70
     4
  9
$SKETCHINC
 40
0.1
  9
$FILLETRAD
 40
0.0
  9
$AUNITS
 70
     0
  9
$AUPREC
 70
     0
  9
$MENU
  1
E:\r13\win\SUPPORT\ACAD
  9
$ELEVATION
 40
0.0
  9
$PELEVATION
 40
0.0
  9
$THICKNESS
 40
0.0
  9
$LIMCHECK
 70
     0
  9
$BLIPMODE
 70
     1
  9
$CHAMFERA
 40
0.0
  9
$CHAMFERB
 40
0.0
  9
$SKPOLY
 70
     0
  9
$TDCREATE
 40
2449839.78017361
  9
$TDUPDATE
 40
2453236.7746232981
  9
$TDINDWG
 40
0.0156202894
  9
$TDUSRTIMER
 40
0.0156202894
  9
$USRTIMER
 70
     1
  9
$ANGBASE
 50
0.0
  9
$ANGDIR
 70
     0
  9
$PDMODE
 70
     0
  9
$PDSIZE
 40
0.0
  9
$PLINEWID
 40
0.0
  9
$COORDS
 70
     0
  9
$SPLFRAME
 70
     0
  9
$SPLINETYPE
 70
     6
  9
$SPLINESEGS
 70
     8
  9
$ATTDIA
 70
     0
  9
$ATTREQ
 70
     1
  9
$HANDLING
 70
-16383
  9
$HANDSEED
  5
23B
  9
$SURFTAB1
 70
     6
  9
$SURFTAB2
 70
     6
  9
$SURFTYPE
 70
     6
  9
$SURFU
 70
     6
  9
$SURFV
 70
     6
  9
$UCSNAME
  2

  9
$UCSORG
 10
0.0
 20
0.0
 30
0.0
  9
$UCSXDIR
 10
1.0
 20
0.0
 30
0.0
  9
$UCSYDIR
 10
0.0
 20
1.0
 30
0.0
  9
$PUCSNAME
  2

  9
$PUCSORG
 10
0.0
 20
0.0
 30
0.0
  9
$PUCSXDIR
 10
1.0
 20
0.0
 30
0.0
  9
$PUCSYDIR
 10
0.0
 20
1.0
 30
0.0
  9
$USERI1
 70
     0
  9
$USERI2
 70
     1
  9
$USERI3
 70
     1
  9
$USERI4
 70
     0
  9
$USERI5
 70
     0
  9
$USERR1
 40
0.0
  9
$USERR2
 40
0.0
  9
$USERR3
 40
0.0
  9
$USERR4
 40
0.0
  9
$USERR5
 40
0.0
  9
$WORLDVIEW
 70
     1
  9
$SHADEDGE
 70
     3
  9
$SHADEDIF
 70
    70
  9
$TILEMODE
 70
     1
  9
$MAXACTVP
 70
    16
  9
$PLIMCHECK
 70
     0
  9
$PEXTMIN
 10
1.0000000000000000E+020
 20
1.0000000000000000E+020
 30
1.0000000000000000E+020
  9
$PEXTMAX
 10
-1.0000000000000000E+020
 20
-1.0000000000000000E+020
 30
-1.0000000000000000E+020
  9
$PLIMMIN
 10
0.0
 20
0.0
  9
$PLIMMAX
 10
12.0
 20
9.0
  9
$UNITMODE
 70
     0
  9
$VISRETAIN
 70
     0
  9
$PLINEGEN
 70
     0
  9
$PSLTSCALE
 70
     0
  0
ENDSEC
  0
SECTION
  2
TABLES
  0
TABLE
  2
VPORT
 70
     3
  0
VPORT
  2
*ACTIVE
 70
     0
 10
0.0
 20
0.0
 11
1.0
 21
1.0
 12
442.52776389094129
 22
284.9997513271357
 13
0.0
 23
0.0
 14
20.0
 24
20.0
 15
20.0
 25
20.0
 16
0.0
 26
0.0
 36
1.0
 17
0.0
 27
0.0
 37
0.0
 40
1054.212329780263
 41
0.9407114624505929
 42
50.0
 43
0.0
 44
0.0
 50
0.0
 51
0.0
 71
     0
 72
   500
 73
     1
 74
     0
 75
     0
 76
     0
 77
     0
 78
     2
  0
ENDTAB
  0
TABLE
  2
LTYPE
 70
     3
  0
LTYPE
  2
CONTINUOUS
 70
     0
  3
Solid Line
 72
    65
 73
     0
 40
0.0
  0
LTYPE
  2
CENTER
 70
     0
  3
____ _ ____ _ ____ _ ____ _ ____ _ ____ _ ____
 72
    65
 73
     4
 40
2.0
 49
1.25
 49
-0.25
 49
0.25
 49
-0.25
  0
LTYPE
  2
HIDDEN
 70
     0
  3
_ _ _ _ _ _ _ _ _ _ _ _ _ _ _ _ _ _ _ _ _ _ _
 72
    65
 73
     2
 40
0.375
 49
0.25
 49
-0.125
  0
ENDTAB
  0
TABLE
  2
LAYER
 70
     4
  0
LAYER
  2
0
 70
     0
 62
     7
  6
CONTINUOUS
  0
LAYER
  2
1
 70
     0
 62
     1
  6
CENTER
  0
LAYER
  2
2
 70
     0
 62
     2
  6
HIDDEN
  0
LAYER
  2
ITTEN
 70
     0
 62
     1
  6
CENTER
  0
ENDTAB
  0
TABLE
  2
STYLE
 70
     1
  0
STYLE
  2
STANDARD
 70
     0
 40
0.0
 41
1.0
 50
0.0
 71
     0
 42
5.0
  3
TXT
  4
BIGFONT
  0
ENDTAB
  0
TABLE
  2
VIEW
 70
     1
  0
VIEW
  2
ALL
 70
     0
 40
540.0
 10
441.98319327731087
 20
270.0
 41
0.0
 11
0.0
 21
0.0
 31
1.0
 12
0.0
 22
0.0
 32
0.0
 42
0.0
 43
0.0
 44
0.0
 50
0.0
 71
     0
  0
ENDTAB
  0
TABLE
  2
UCS
 70
     0
  0
ENDTAB
  0
TABLE
  2
APPID
 70
     1
  0
APPID
  2
ACAD
 70
     0
  0
ENDTAB
  0
TABLE
  2
DIMSTYLE
 70
     1
  0
DIMSTYLE
  2
STANDARD
 70
     0
  3

  4

  5

  6

  7

 40
1.0
 41
0.18
 42
0.0625
 43
0.38
 44
0.18
 45
0.0
 46
0.0
 47
0.0
 48
0.0
140
0.18
141
0.09
142
0.0
143
25.399999999999999
144
1.0
145
0.0
146
1.0
147
0.09
 71
     0
 72
     0
 73
     1
 74
     1
 75
     0
 76
     0
 77
     0
 78
     0
170
     0
171
     2
172
     0
173
     0
174
     0
175
     0
176
     0
177
     0
178
     0
  0
ENDTAB
  0
ENDSEC
  0
SECTION
  2
BLOCKS
  0
BLOCK
  8
0
  2
$MODEL_SPACE
 70
     0
 10
0.0
 20
0.0
 30
0.0
  3
$MODEL_SPACE
  1

  0
ENDBLK
  5
1A8
  8
0
  0
BLOCK
 67
     1
  8
0
  2
$PAPER_SPACE
 70
     0
 10
0.0
 20
0.0
 30
0.0
  3
$PAPER_SPACE
  1

  0
ENDBLK
  5
1A6
 67
     1
  8
0
  0
BLOCK
  8
0
  2
BATU
 70
     0
 10
0.0
 20
0.0
 30
0.0
  3
BATU
  1

  0
LINE
  5
1B3
  8
ITTEN
 10
0.5
 20
0.0
 30
0.0
 11
-0.5
 21
0.0
 31
0.0
  0
LINE
  5
1B4
  8
ITTEN
 10
0.0
 20
0.5
 30
0.0
 11
0.0
 21
-0.5
 31
0.0
  0
ENDBLK
  5
1B6
  8
0
  0
ENDSEC
  0
SECTION
  2
ENTITIES
  0
LINE
  5
35
  8
1
 10
520.0
 20
460.0
 30
0.0
 11
740.0
 21
460.0
 31
0.0
  0
LINE
  5
36
  8
1
 10
630.0
 20
460.0
 30
0.0
 11
630.0
 21
570.0
 31
0.0
  0
LINE
  5
37
  8
1
 10
630.0
 20
570.0
 30
0.0
 11
630.0
 21
350.0
 31
0.0
  0
LINE
  5
38
  8
1
 10
804.05602366051698
 20
460.0
 30
0.0
 11
885.05602366051721
 21
460.0
 31
0.0
  0
CIRCLE
  5
39
  8
0
 10
630.0
 20
460.0
 30
0.0
 40
100.0
  0
ARC
  5
3A
  8
0
 10
630.0
 20
460.0
 30
0.0
 40
92.599999999999994
 50
92.555440177332116
 51
87.444559822667927
  0
ARC
  5
3B
  8
0
 10
630.0
 20
460.0
 30
0.0
 40
82.099999999999994
 50
112.589300812632
 51
247.4106991873679
  0
ARC
  5
3C
  8
0
 10
630.0
 20
460.0
 30
0.0
 40
25.0
 50
121.3322514975947
 51
58.66774850240575
  0
ARC
  5
3D
  8
0
 10
630.0
 20
460.0
 30
0.0
 40
15.0
 50
150.073565133389
 51
29.926434866614251
  0
LINE
  5
3E
  8
0
 10
656.0
 20
532.10832129511823
 30
0.0
 11
656.0
 21
387.89167870488171
 31
0.0
  0
LINE
  5
3F
  8
0
 10
604.0
 20
387.89167870488171
 30
0.0
 11
604.0
 21
532.10832129511823
 31
0.0
  0
ARC
  5
40
  8
0
 10
630.0
 20
460.0
 30
0.0
 40
82.099999999999994
 50
292.58930081263208
 51
67.410699187367925
  0
ARC
  5
41
  8
0
 10
660.0
 20
532.10832129511823
 30
0.0
 40
4.0
 50
67.410699187367854
 51
180.0
  0
ARC
  5
42
  8
0
 10
600.0
 20
532.10832129511823
 30
0.0
 40
4.0
 50
0.0
 51
112.58930081263181
  0
ARC
  5
43
  8
0
 10
600.0
 20
387.89167870488171
 30
0.0
 40
4.0
 50
247.41069918736829
 51
0.0
  0
ARC
  5
44
  8
0
 10
660.0
 20
387.89167870488171
 30
0.0
 40
4.0
 50
180.0
 51
292.5893008126323
  0
ARC
  5
45
  8
0
 10
630.0
 20
553.0
 30
0.0
 40
20.0
 50
213.70948042634191
 51
256.1390728923119
  0
ARC
  5
46
  8
0
 10
630.0
 20
460.0
 30
0.0
 40
23.5
 50
123.5862391881121
 51
56.413760811888373
  0
LINE
  5
47
  8
0
 10
832.9896004046052
 20
360.0
 30
0.0
 11
838.0560236605171
 21
360.0
 31
0.0
  0
LINE
  5
48
  8
0
 10
842.0560236605171
 20
364.0
 30
0.0
 11
842.0560236605171
 21
556.0
 31
0.0
  0
ARC
  5
49
  8
0
 10
818.05602366051698
 20
367.39999999999992
 30
0.0
 40
4.0
 50
180.0000326923965
 51
247.612954876896
  0
ARC
  5
4A
  8
0
 10
838.0560236605171
 20
364.0
 30
0.0
 40
4.0
 50
270.0
 51
0.0
  0
ARC
  5
4B
  8
0
 10
835.57564706371738
 20
409.93307884235548
 30
0.0
 40
50.0
 50
247.6129522548168
 51
267.03528601750912
  0
ARC
  5
4C
  8
0
 10
835.57564706371738
 20
510.0669211576444
 30
0.0
 40
50.0
 50
92.964713982490863
 51
112.3870477451831
  0
ARC
  5
4D
  8
0
 10
838.0560236605171
 20
556.0
 30
0.0
 40
4.0
 50
0.0
 51
90.000000000000028
  0
ARC
  5
4E
  8
0
 10
818.05602366051698
 20
552.60000000000002
 30
0.0
 40
4.0
 50
112.387045123104
 51
179.99996730760341
  0
LINE
  5
4F
  8
0
 10
832.9896004046052
 20
560.0
 30
0.0
 11
838.0560236605171
 21
560.0
 31
0.0
  0
ARC
  5
50
  8
0
 10
630.0
 20
460.0
 30
0.0
 40
84.199999999999989
 50
102.1203155155608
 51
77.879684484439096
  0
ARC
  5
51
  8
0
 10
647.46910837561575
 20
541.34537634408605
 30
0.0
 40
1.0
 50
77.879684484439437
 51
146.29051957365789
  0
ARC
  5
52
  8
0
 10
612.53089162438425
 20
541.34537634408605
 30
0.0
 40
1.0
 50
33.709480426342019
 51
102.1203155155597
  0
ARC
  5
53
  8
0
 10
630.0
 20
553.0
 30
0.0
 40
20.0
 50
283.86092710768838
 51
326.29051957365812
  0
LINE
  5
54
  8
1
 10
609.99999999999716
 20
543.39999999999998
 30
0.0
 11
650.00000000000148
 21
543.39999999999998
 31
0.0
  0
LINE
  5
55
  8
1
 10
820.05602366051653
 20
544.0
 30
0.0
 11
852.05602366051721
 21
544.0
 31
0.0
  0
LINE
  5
56
  8
1
 10
804.05602366051698
 20
543.39999999999998
 30
0.0
 11
837.05566651310608
 21
543.39999999999998
 31
0.0
  0
ARC
  5
57
  8
0
 10
630.0
 20
543.39999999999998
 30
0.0
 40
10.0
 50
298.14045163468148
 51
241.8595483653221
  0
ARC
  5
58
  8
0
 10
630.0
 20
543.39999999999998
 30
0.0
 40
5.5
 50
303.05573115085019
 51
236.9442688491504
  0
LINE
  5
59
  8
0
 10
633.0
 20
534.79999999999995
 30
0.0
 11
633.0
 21
548.00977222864731
 31
0.0
  0
LINE
  5
5A
  8
0
 10
627.0
 20
534.79999999999995
 30
0.0
 11
627.0
 21
548.00977222864731
 31
0.0
  0
ARC
  5
5B
  8
0
 10
619.24999999999989
 20
453.97581274218737
 30
0.0
 40
2.25
 50
180.0
 51
256.98942491454949
  0
ARC
  5
5C
  8
0
 10
640.74999999999989
 20
453.97581274218737
 30
0.0
 40
2.25
 50
283.01057508544972
 51
0.0000000000000254
  0
ARC
  5
5D
  8
0
 10
620.43205406474783
 20
529.49999999999989
 30
0.0
 40
1.0
 50
90.000000000000099
 51
175.97173633351491
  0
ARC
  5
5E
  8
0
 10
639.56794593525206
 20
529.49999999999989
 30
0.0
 40
1.0
 50
4.0282636664852127
 51
90.000000000000028
  0
LINE
  5
5F
  8
0
 10
638.36660026534082
 20
452.21956918170662
 30
0.0
 11
621.63339973465929
 21
452.21956918170662
 31
0.0
  0
LINE
  5
60
  8
0
 10
619.43452454631233
 20
529.57024855763621
 30
0.0
 11
617.0
 21
494.99999999999989
 31
0.0
  0
LINE
  5
61
  8
0
 10
640.56547545368755
 20
529.57024855763621
 30
0.0
 11
643.0
 21
494.99999999999989
 31
0.0
  0
LINE
  5
62
  8
0
 10
643.0
 20
494.99999999999989
 30
0.0
 11
617.0
 21
494.99999999999989
 31
0.0
  0
LINE
  5
63
  8
0
 10
617.0
 20
495.0
 30
0.0
 11
617.0
 21
453.97581274218737
 31
0.0
  0
LINE
  5
64
  8
0
 10
643.0
 20
495.0
 30
0.0
 11
643.0
 21
453.97581274218737
 31
0.0
  0
ARC
  5
65
  8
0
 10
630.0
 20
500.49999999999989
 30
0.0
 40
50.000000000000028
 50
256.98942491454949
 51
283.0105750854504
  0
LINE
  5
66
  8
0
 10
622.5
 20
530.79999999999995
 30
0.0
 11
622.5
 21
530.49999999999989
 31
0.0
  0
LINE
  5
67
  8
0
 10
637.5
 20
530.79999999999995
 30
0.0
 11
637.5
 21
530.49999999999989
 31
0.0
  0
LINE
  5
68
  8
0
 10
625.29999999999995
 20
534.79999999999995
 30
0.0
 11
625.0
 21
530.79999999999995
 31
0.0
  0
LINE
  5
69
  8
0
 10
634.70000000000005
 20
534.79999999999995
 30
0.0
 11
635.0
 21
530.79999999999995
 31
0.0
  0
LINE
  5
6A
  8
0
 10
639.56794593525206
 20
530.49999999999989
 30
0.0
 11
620.43205406474783
 21
530.49999999999989
 31
0.0
  0
LINE
  5
6B
  8
0
 10
637.5
 20
530.79999999999995
 30
0.0
 11
622.5
 21
530.79999999999995
 31
0.0
  0
LINE
  5
6C
  8
0
 10
634.70000000000005
 20
534.79999999999995
 30
0.0
 11
625.29999999999995
 21
534.79999999999995
 31
0.0
  0
LINE
  5
6D
  8
1
 10
823.0560236605171
 20
557.29999999999995
 30
0.0
 11
823.0560236605171
 21
440.5
 31
0.0
  0
LINE
  5
6E
  8
0
 10
814.0560236605171
 20
552.6000022823597
 30
0.0
 11
814.0560236605171
 21
367.399997568598
 31
0.0
  0
ARC
  5
6F
  8
0
 10
812.3060236605171
 20
453.97581274218737
 30
0.0
 40
2.25
 50
180.0
 51
256.98942491454949
  0
ARC
  5
70
  8
0
 10
813.48807772526482
 20
529.49999999999989
 30
0.0
 40
1.0
 50
90.000000000000099
 51
175.97173633351491
  0
LINE
  5
71
  8
0
 10
812.49054820682943
 20
529.57024855763621
 30
0.0
 11
810.05602366051698
 21
494.99999999999989
 31
0.0
  0
LINE
  5
72
  8
0
 10
814.05602366051687
 20
494.99999999999989
 30
0.0
 11
810.05602366051698
 21
494.99999999999989
 31
0.0
  0
LINE
  5
73
  8
0
 10
810.05602366051698
 20
495.0
 30
0.0
 11
810.05602366051698
 21
453.97581274218737
 31
0.0
  0
ARC
  5
74
  8
0
 10
823.0560236605171
 20
500.49999999999989
 30
0.0
 40
50.000000000000028
 50
256.98942491454949
 51
259.63024019452251
  0
LINE
  5
75
  8
0
 10
814.0560236605171
 20
530.49999999999989
 30
0.0
 11
813.48807772526482
 21
530.49999999999989
 31
0.0
  0
LINE
  5
76
  8
0
 10
875.05602366051687
 20
475.0
 30
0.0
 11
874.85602366051705
 21
474.99999999999989
 31
0.0
  0
LINE
  5
77
  8
2
 10
839.05602366051676
 20
475.49999999999989
 30
0.0
 11
841.0560236605171
 21
475.49999999999989
 31
0.0
  0
LINE
  5
7A
  8
2
 10
841.05602366051687
 20
475.49999999999989
 30
0.0
 11
841.05602366051687
 21
444.5
 31
0.0
  0
LINE
  5
7B
  8
2
 10
840.55602366051664
 20
485.0
 30
0.0
 11
839.05602366051664
 21
483.49999999999989
 31
0.0
  0
LINE
  5
7C
  8
0
 10
868.05602366051687
 20
442.76509736032523
 30
0.0
 11
868.05602366051687
 21
477.23490263967477
 31
0.0
  0
LINE
  5
7D
  8
0
 10
874.85602366051705
 20
435.0
 30
0.0
 11
864.62675904535934
 21
434.99999999999989
 31
0.0
  0
LINE
  5
7E
  8
0
 10
874.85602366051705
 20
435.0
 30
0.0
 11
874.85602366051705
 21
485.0
 31
0.0
  0
LINE
  5
7F
  8
0
 10
875.05602366051687
 20
475.0
 30
0.0
 11
875.05602366051687
 21
445.0
 31
0.0
  0
LINE
  5
80
  8
0
 10
875.05602366051687
 20
445.0
 30
0.0
 11
874.85602366051705
 21
445.00000000000011
 31
0.0
  0
LINE
  5
81
  8
0
 10
864.62675904535945
 20
485.0
 30
0.0
 11
874.85602366051705
 21
485.0
 31
0.0
  0
LINE
  5
82
  8
2
 10
839.05602366051664
 20
483.49999999999989
 30
0.0
 11
839.05602366051676
 21
475.49999999999989
 31
0.0
  0
LINE
  5
83
  8
2
 10
839.05602366051676
 20
475.49999999999989
 30
0.0
 11
839.05602366051676
 21
436.49999999999972
 31
0.0
  0
LINE
  5
84
  8
0
 10
842.05602366051687
 20
438.10616428034803
 30
0.0
 11
845.01618638890125
 21
460.0
 31
0.0
  0
LINE
  5
85
  8
0
 10
868.05602366051687
 20
477.23490263967477
 30
0.0
 11
842.0560236605171
 21
536.10832129511755
 31
0.0
  0
LINE
  5
86
  8
0
 10
868.05602366051687
 20
442.76509736032523
 30
0.0
 11
842.0560236605171
 21
383.89167870488239
 31
0.0
  0
LINE
  5
87
  8
0
 10
842.05602366051687
 20
481.89383571965192
 30
0.0
 11
845.01618638890125
 21
460.0
 31
0.0
  0
LINE
  5
88
  8
2
 10
839.05602366051676
 20
444.5
 30
0.0
 11
841.0560236605171
 21
444.5
 31
0.0
  0
LINE
  5
89
  8
2
 10
840.55602366051664
 20
435.0
 30
0.0
 11
839.05602366051664
 21
436.5
 31
0.0
  0
LINE
  5
8A
  8
0
 10
875.05602366051687
 20
445.0
 30
0.0
 11
874.85602366051705
 21
445.00000000000011
 31
0.0
  0
LINE
  5
8B
  8
2
 10
864.62675904535945
 20
485.0
 30
0.0
 11
840.55602366051664
 21
485.0
 31
0.0
  0
LINE
  5
8C
  8
2
 10
874.85602366051705
 20
475.0
 30
0.0
 11
842.05602366051687
 21
475.0
 31
0.0
  0
LINE
  5
8D
  8
2
 10
875.05602366051687
 20
467.99999999999977
 30
0.0
 11
842.05602366051687
 21
467.99999999999977
 31
0.0
  0
LINE
  5
8E
  8
2
 10
875.05602366051687
 20
452.00000000000011
 30
0.0
 11
842.05602366051687
 21
452.00000000000011
 31
0.0
  0
LINE
  5
8F
  8
2
 10
874.85602366051705
 20
445.0
 30
0.0
 11
842.05602366051687
 21
445.0
 31
0.0
  0
LINE
  5
90
  8
2
 10
864.62675904535945
 20
435.0
 30
0.0
 11
840.55602366051664
 21
435.0
 31
0.0
  0
LINE
  5
91
  8
2
 10
840.05602366051687
 20
475.5
 30
0.0
 11
840.05602366051687
 21
444.5
 31
0.0
  0
LINE
  5
92
  8
0
 10
611.0
 20
166.9439763394829
 30
0.0
 11
604.0
 21
166.9439763394829
 31
0.0
  0
LINE
  5
93
  8
0
 10
649.0
 20
192.94397633948279
 30
0.0
 11
649.0
 21
166.94397633948299
 31
0.0
  0
LINE
  5
94
  8
0
 10
611.0
 20
192.94397633948279
 30
0.0
 11
611.0
 21
166.9439763394829
 31
0.0
  0
LINE
  5
95
  8
0
 10
649.0
 20
185.9477850885846
 30
0.0
 11
611.0
 21
185.94778508858451
 31
0.0
  0
LINE
  5
96
  8
0
 10
656.0
 20
192.94397633948279
 30
0.0
 11
656.0
 21
166.94397633948299
 31
0.0
  0
LINE
  5
97
  8
0
 10
604.0
 20
192.94397633948279
 30
0.0
 11
604.0
 21
166.9439763394829
 31
0.0
  0
LINE
  5
98
  8
1
 10
630.0
 20
234.9439763394825
 30
0.0
 11
630.0
 21
149.9439763394829
 31
0.0
  0
LINE
  5
99
  8
0
 10
730.0
 20
202.01039959539469
 30
0.0
 11
730.0
 21
196.9439763394829
 31
0.0
  0
LINE
  5
9A
  8
0
 10
726.0
 20
192.94397633948279
 30
0.0
 11
534.0
 21
192.94397633948279
 31
0.0
  0
ARC
  5
9B
  8
0
 10
722.59999999999991
 20
216.9439763394829
 30
0.0
 40
4.0
 50
22.387045123103981
 51
89.999967307603455
  0
ARC
  5
9C
  8
0
 10
726.0
 20
196.9439763394829
 30
0.0
 40
4.0
 50
270.0
 51
0.0
  0
ARC
  5
9D
  8
0
 10
680.0669211576444
 20
199.4243529362825
 30
0.0
 40
50.0
 50
2.9647139824908502
 51
22.387047745183182
  0
ARC
  5
9E
  8
0
 10
579.9330788423556
 20
199.4243529362825
 30
0.0
 40
50.0
 50
157.6129522548168
 51
177.03528601750909
  0
ARC
  5
9F
  8
0
 10
534.0
 20
196.9439763394829
 30
0.0
 40
4.0
 50
180.0
 51
270.0
  0
ARC
  5
A0
  8
0
 10
537.39999999999986
 20
216.9439763394829
 30
0.0
 40
4.0
 50
90.000032692396474
 51
157.612954876896
  0
LINE
  5
A1
  8
0
 10
530.0
 20
202.01039959539469
 30
0.0
 11
530.0
 21
196.9439763394829
 31
0.0
  0
LINE
  5
A2
  8
0
 10
615.0
 20
159.94397633948279
 30
0.0
 11
615.0
 21
160.14397633948289
 31
0.0
  0
LINE
  5
A3
  8
2
 10
614.5
 20
195.9439763394829
 30
0.0
 11
614.5
 21
193.94397633948279
 31
0.0
  0
LINE
  5
A6
  8
2
 10
614.5
 20
193.9439763394829
 30
0.0
 11
645.5
 21
193.9439763394829
 31
0.0
  0
LINE
  5
A7
  8
2
 10
605.0
 20
194.44397633948299
 30
0.0
 11
606.5
 21
195.94397633948299
 31
0.0
  0
LINE
  5
A8
  8
0
 10
537.39999771764019
 20
220.9439763394829
 30
0.0
 11
722.600002431402
 21
220.9439763394829
 31
0.0
  0
LINE
  5
A9
  8
0
 10
656.0
 20
166.9439763394829
 30
0.0
 11
649.0
 21
166.9439763394829
 31
0.0
  0
LINE
  5
AA
  8
0
 10
655.0
 20
160.143976339483
 30
0.0
 11
655.0
 21
166.9439763394829
 31
0.0
  0
LINE
  5
AB
  8
0
 10
655.0
 20
160.14397633948289
 30
0.0
 11
605.0
 21
160.14397633948289
 31
0.0
  0
LINE
  5
AC
  8
0
 10
615.0
 20
159.94397633948279
 30
0.0
 11
645.0
 21
159.94397633948279
 31
0.0
  0
LINE
  5
AD
  8
0
 10
645.0
 20
159.94397633948279
 30
0.0
 11
645.0
 21
160.14397633948289
 31
0.0
  0
LINE
  5
AE
  8
0
 10
605.0
 20
166.94397633948299
 30
0.0
 11
605.0
 21
160.14397633948289
 31
0.0
  0
LINE
  5
AF
  8
2
 10
606.5
 20
195.94397633948299
 30
0.0
 11
614.5
 21
195.9439763394829
 31
0.0
  0
LINE
  5
B0
  8
2
 10
614.5
 20
195.9439763394829
 30
0.0
 11
653.50000000000023
 21
195.9439763394829
 31
0.0
  0
LINE
  5
B1
  8
2
 10
645.5
 20
195.9439763394829
 30
0.0
 11
645.5
 21
193.94397633948279
 31
0.0
  0
LINE
  5
B2
  8
2
 10
655.0
 20
194.44397633948299
 30
0.0
 11
653.5
 21
195.94397633948299
 31
0.0
  0
LINE
  5
B3
  8
0
 10
645.0
 20
159.94397633948279
 30
0.0
 11
645.0
 21
160.14397633948289
 31
0.0
  0
LINE
  5
B4
  8
2
 10
605.0
 20
166.9439763394829
 30
0.0
 11
605.0
 21
194.44397633948299
 31
0.0
  0
LINE
  5
B5
  8
2
 10
614.99999999999977
 20
160.143976339483
 30
0.0
 11
615.0
 21
192.94397633948279
 31
0.0
  0
LINE
  5
B6
  8
2
 10
622.00000000000023
 20
159.94397633948279
 30
0.0
 11
622.00000000000011
 21
192.94397633948279
 31
0.0
  0
LINE
  5
B7
  8
2
 10
637.99999999999977
 20
159.94397633948279
 30
0.0
 11
637.99999999999989
 21
192.94397633948279
 31
0.0
  0
LINE
  5
B8
  8
2
 10
645.0
 20
160.143976339483
 30
0.0
 11
645.0
 21
192.94397633948279
 31
0.0
  0
LINE
  5
B9
  8
2
 10
655.0
 20
166.9439763394829
 30
0.0
 11
655.0
 21
194.44397633948299
 31
0.0
  0
LINE
  5
BA
  8
2
 10
614.5
 20
194.9439763394829
 30
0.0
 11
645.5
 21
194.9439763394829
 31
0.0
  0
LINE
  5
C2
  8
0
 10
125.9439763394829
 20
552.60000000000002
 30
0.0
 11
125.9439763394829
 21
367.399997568598
 31
0.0
  0
LINE
  5
C3
  8
1
 10
116.9439763394829
 20
557.29999999999995
 30
0.0
 11
116.9439763394829
 21
524.79999999999995
 31
0.0
  0
ARC
  5
C4
  8
0
  6
CONTINUOUS
 10
202.76816359729531
 20
554.14999999999998
 30
0.0
 40
2.25
 50
13.010575085450521
 51
90.000000000000057
  0
ARC
  5
C5
  8
0
  6
CONTINUOUS
 10
202.76816359729531
 20
532.65000000000009
 30
0.0
 40
2.25
 50
270.0
 51
346.98942491455023
  0
ARC
  5
C6
  8
0
  6
CONTINUOUS
 10
127.2439763394829
 20
552.96794593525215
 30
0.0
 40
1.0
 50
94.028263666485088
 51
179.99999999999989
  0
ARC
  5
C7
  8
0
  6
CONTINUOUS
 10
127.2439763394829
 20
533.83205406474781
 30
0.0
 40
1.0
 50
180.0
 51
265.9717363335148
  0
LINE
  5
C8
  8
0
  6
CONTINUOUS
 10
204.5244071577763
 20
535.03339973465916
 30
0.0
 11
204.5244071577763
 21
551.76660026534057
 31
0.0
  0
LINE
  5
C9
  8
0
  6
CONTINUOUS
 10
127.17372778184659
 20
553.96547545368765
 30
0.0
 11
161.74397633948291
 21
556.39999999999998
 31
0.0
  0
LINE
  5
CA
  8
0
  6
CONTINUOUS
 10
127.17372778184659
 20
532.83452454631242
 30
0.0
 11
161.74397633948291
 21
530.40000000000009
 31
0.0
  0
LINE
  5
CB
  8
0
  6
CONTINUOUS
 10
161.74397633948291
 20
530.40000000000009
 30
0.0
 11
161.74397633948291
 21
556.39999999999998
 31
0.0
  0
LINE
  5
CC
  8
0
  6
CONTINUOUS
 10
161.74397633948291
 20
556.39999999999998
 30
0.0
 11
202.76816359729531
 21
556.39999999999998
 31
0.0
  0
LINE
  5
CD
  8
0
  6
CONTINUOUS
 10
161.74397633948291
 20
530.40000000000009
 30
0.0
 11
202.76816359729531
 21
530.40000000000009
 31
0.0
  0
ARC
  5
CE
  8
0
  6
CONTINUOUS
 10
156.24397633948291
 20
543.40000000000009
 30
0.0
 40
50.000000000000028
 50
346.9894249145496
 51
13.010575085450521
  0
LINE
  5
CF
  8
0
  6
CONTINUOUS
 10
125.9439763394829
 20
550.90000000000009
 30
0.0
 11
126.2439763394829
 21
550.90000000000009
 31
0.0
  0
LINE
  5
D0
  8
0
  6
CONTINUOUS
 10
125.943976339483
 20
535.89999999999998
 30
0.0
 11
126.2439763394829
 21
535.89999999999998
 31
0.0
  0
LINE
  5
D1
  8
0
  6
CONTINUOUS
 10
126.2439763394829
 20
533.83205406474781
 30
0.0
 11
126.2439763394829
 21
552.96794593525215
 31
0.0
  0
LINE
  5
D2
  8
1
 10
216.24397633948291
 20
543.39999999999998
 30
0.0
 11
102.9443334868966
 21
543.39999999999998
 31
0.0
  0
LINE
  5
D3
  8
1
 10
119.9439763394834
 20
544.0
 30
0.0
 11
87.943976339483484
 21
544.0
 31
0.0
  0
LINE
  5
D4
  8
0
 10
107.0103995953948
 20
560.0
 30
0.0
 11
101.9439763394829
 21
560.0
 31
0.0
  0
ARC
  5
D5
  8
0
 10
121.9439763394829
 20
552.60000000000002
 30
0.0
 40
4.0
 50
0.0000326923965502
 51
67.612954876896026
  0
ARC
  5
D6
  8
0
 10
101.9439763394829
 20
556.0
 30
0.0
 40
4.0
 50
90.000000000000028
 51
180.0
  0
ARC
  5
D7
  8
0
 10
104.4243529362824
 20
510.0669211576444
 30
0.0
 40
50.0
 50
67.612952254816832
 51
87.035286017509165
  0
ARC
  5
D8
  8
0
 10
104.4243529362824
 20
409.93307884235548
 30
0.0
 40
50.0
 50
272.96471398249082
 51
292.38704774518322
  0
ARC
  5
D9
  8
0
 10
101.9439763394829
 20
364.0
 30
0.0
 40
4.0
 50
180.0
 51
270.0
  0
ARC
  5
DA
  8
0
 10
121.9439763394829
 20
367.39999999999992
 30
0.0
 40
4.0
 50
292.38704512310397
 51
359.99996730760353
  0
LINE
  5
DB
  8
0
 10
97.943976339482916
 20
364.0
 30
0.0
 11
97.943976339482916
 21
556.0
 31
0.0
  0
LINE
  5
DC
  8
0
 10
107.0103995953948
 20
360.0
 30
0.0
 11
101.9439763394829
 21
360.0
 31
0.0
  0
LINE
  5
DD
  8
1
 10
135.94397633948279
 20
460.0
 30
0.0
 11
54.943976339482781
 21
460.0
 31
0.0
  0
LINE
  5
DE
  8
1
 10
652.99999999999955
 20
211.94397633948279
 30
0.0
 11
607.00000000000023
 21
211.94397633948279
 31
0.0
  0
ARC
  5
DF
  8
0
 10
630.0
 20
211.94397633948279
 30
0.0
 40
13.0
 50
43.813061460405443
 51
136.18693853959439
  0
LINE
  5
E0
  8
2
 10
99.943976339483129
 20
475.5
 30
0.0
 11
99.943976339483129
 21
444.5
 31
0.0
  0
LINE
  5
E1
  8
2
 10
75.373240954640437
 20
435.0
 30
0.0
 11
99.443976339483356
 21
435.0
 31
0.0
  0
LINE
  5
E2
  8
2
 10
65.143976339483061
 20
445.0
 30
0.0
 11
97.943976339483143
 21
445.0
 31
0.0
  0
LINE
  5
E3
  8
2
 10
64.943976339483129
 20
452.00000000000011
 30
0.0
 11
97.943976339483143
 21
452.00000000000011
 31
0.0
  0
LINE
  5
E4
  8
2
 10
64.943976339483129
 20
467.99999999999977
 30
0.0
 11
97.943976339483143
 21
467.99999999999977
 31
0.0
  0
LINE
  5
E5
  8
2
 10
65.143976339483061
 20
475.0
 30
0.0
 11
97.943976339483143
 21
475.0
 31
0.0
  0
LINE
  5
E6
  8
2
 10
75.373240954640437
 20
485.0
 30
0.0
 11
99.443976339483356
 21
485.0
 31
0.0
  0
LINE
  5
E7
  8
0
 10
64.943976339483129
 20
445.0
 30
0.0
 11
65.143976339483061
 21
445.00000000000011
 31
0.0
  0
LINE
  5
E8
  8
2
 10
99.443976339483356
 20
435.0
 30
0.0
 11
100.9439763394833
 21
436.5
 31
0.0
  0
LINE
  5
E9
  8
2
 10
100.9439763394831
 20
444.5
 30
0.0
 11
98.943976339482901
 21
444.5
 31
0.0
  0
LINE
  5
EA
  8
0
 10
97.943976339483143
 20
481.89383571965192
 30
0.0
 11
94.983813611098753
 21
460.0
 31
0.0
  0
LINE
  5
EB
  8
0
 10
71.943976339483115
 20
442.76509736032523
 30
0.0
 11
97.943976339482916
 21
383.89167870488239
 31
0.0
  0
LINE
  5
EC
  8
0
 10
71.943976339483115
 20
477.23490263967477
 30
0.0
 11
97.943976339482916
 21
536.10832129511755
 31
0.0
  0
LINE
  5
ED
  8
0
 10
97.943976339483143
 20
438.10616428034803
 30
0.0
 11
94.983813611098753
 21
460.0
 31
0.0
  0
LINE
  5
EE
  8
2
 10
100.9439763394831
 20
475.49999999999989
 30
0.0
 11
100.9439763394831
 21
436.49999999999972
 31
0.0
  0
LINE
  5
EF
  8
2
 10
100.9439763394833
 20
483.49999999999989
 30
0.0
 11
100.9439763394831
 21
475.49999999999989
 31
0.0
  0
LINE
  5
F0
  8
0
 10
75.373240954640437
 20
485.0
 30
0.0
 11
65.143976339483061
 21
485.0
 31
0.0
  0
LINE
  5
F1
  8
0
 10
64.943976339483129
 20
445.0
 30
0.0
 11
65.143976339483061
 21
445.00000000000011
 31
0.0
  0
LINE
  5
F2
  8
0
 10
64.943976339483129
 20
475.0
 30
0.0
 11
64.943976339483129
 21
445.0
 31
0.0
  0
LINE
  5
F3
  8
0
 10
65.143976339483061
 20
435.0
 30
0.0
 11
65.143976339483061
 21
485.0
 31
0.0
  0
LINE
  5
F4
  8
0
 10
65.143976339483061
 20
435.0
 30
0.0
 11
75.373240954640664
 21
434.99999999999989
 31
0.0
  0
LINE
  5
F5
  8
0
 10
71.943976339483115
 20
442.76509736032523
 30
0.0
 11
71.943976339483115
 21
477.23490263967477
 31
0.0
  0
LINE
  5
F6
  8
2
 10
99.443976339483356
 20
485.0
 30
0.0
 11
100.9439763394833
 21
483.49999999999989
 31
0.0
  0
LINE
  5
F7
  8
2
 10
98.943976339483129
 20
475.49999999999989
 30
0.0
 11
98.943976339483129
 21
444.5
 31
0.0
  0
LINE
  5
FA
  8
2
 10
100.9439763394831
 20
475.49999999999989
 30
0.0
 11
98.943976339482901
 21
475.49999999999989
 31
0.0
  0
LINE
  5
FB
  8
0
 10
64.943976339483129
 20
475.0
 30
0.0
 11
65.143976339483061
 21
475.0
 31
0.0
  0
LINE
  5
FC
  8
1
 10
332.0
 20
543.39999999999998
 30
0.0
 11
378.0
 21
543.39999999999998
 31
0.0
  0
ARC
  5
FD
  8
0
 10
355.0
 20
553.0
 30
0.0
 40
20.0
 50
302.69451457598097
 51
326.29051957365812
  0
ARC
  5
FE
  8
0
 10
337.5308916243842
 20
541.34537634408605
 30
0.0
 40
1.0
 50
33.709480426342019
 51
102.1203155155597
  0
ARC
  5
FF
  8
0
 10
372.46910837561569
 20
541.34537634408605
 30
0.0
 40
1.0
 50
77.879684484439437
 51
146.29051957365789
  0
ARC
  5
100
  8
0
 10
355.0
 20
460.0
 30
0.0
 40
84.199999999999989
 50
102.1203155155608
 51
77.879684484439096
  0
ARC
  5
101
  8
0
 10
355.0
 20
553.0
 30
0.0
 40
20.0
 50
213.70948042634191
 51
237.30548542401891
  0
ARC
  5
102
  8
0
 10
385.0
 20
387.89167870488171
 30
0.0
 40
4.0
 50
180.0
 51
292.5893008126323
  0
ARC
  5
103
  8
0
 10
325.0
 20
387.89167870488171
 30
0.0
 40
4.0
 50
247.41069918736829
 51
0.0
  0
ARC
  5
104
  8
0
 10
325.0
 20
532.10832129511823
 30
0.0
 40
4.0
 50
0.0
 51
112.58930081263181
  0
ARC
  5
105
  8
0
 10
385.0
 20
532.10832129511823
 30
0.0
 40
4.0
 50
67.410699187367854
 51
180.0
  0
ARC
  5
106
  8
0
 10
355.0
 20
460.0
 30
0.0
 40
82.099999999999994
 50
292.58930081263208
 51
67.410699187367925
  0
LINE
  5
107
  8
0
 10
329.0
 20
387.89167870488171
 30
0.0
 11
329.0
 21
532.10832129511823
 31
0.0
  0
LINE
  5
108
  8
0
 10
381.0
 20
532.10832129511823
 30
0.0
 11
381.0
 21
387.89167870488171
 31
0.0
  0
ARC
  5
109
  8
0
 10
355.0
 20
460.0
 30
0.0
 40
82.099999999999994
 50
112.589300812632
 51
247.4106991873679
  0
ARC
  5
10A
  8
0
 10
355.0
 20
460.0
 30
0.0
 40
92.599999999999994
 50
95.991013025107236
 51
84.008986974892764
  0
CIRCLE
  5
10B
  8
0
 10
355.0
 20
460.0
 30
0.0
 40
100.0
  0
LINE
  5
10C
  8
1
 10
355.0
 20
570.0
 30
0.0
 11
355.0
 21
350.0
 31
0.0
  0
LINE
  5
10D
  8
1
 10
245.0
 20
460.0
 30
0.0
 11
465.0
 21
460.0
 31
0.0
  0
LINE
  5
10E
  8
0
 10
340.0
 20
159.9439763394831
 30
0.0
 11
340.0
 21
160.143976339483
 31
0.0
  0
LINE
  5
10F
  8
2
 10
339.5
 20
195.9439763394831
 30
0.0
 11
339.5
 21
193.9439763394829
 31
0.0
  0
LINE
  5
112
  8
2
 10
339.5
 20
193.9439763394831
 30
0.0
 11
370.5
 21
193.9439763394831
 31
0.0
  0
LINE
  5
113
  8
2
 10
330.0
 20
194.4439763394833
 30
0.0
 11
331.49999999999989
 21
195.9439763394833
 31
0.0
  0
LINE
  5
114
  8
0
 10
372.23490263967471
 20
166.9439763394831
 30
0.0
 11
337.76509736032523
 21
166.9439763394831
 31
0.0
  0
LINE
  5
115
  8
0
 10
379.99999999999989
 20
160.143976339483
 30
0.0
 11
380.0
 21
170.37324095464061
 31
0.0
  0
LINE
  5
116
  8
0
 10
380.0
 20
160.143976339483
 30
0.0
 11
330.0
 21
160.143976339483
 31
0.0
  0
LINE
  5
117
  8
0
 10
340.0
 20
159.9439763394831
 30
0.0
 11
370.0
 21
159.9439763394831
 31
0.0
  0
LINE
  5
118
  8
0
 10
370.0
 20
159.9439763394831
 30
0.0
 11
369.99999999999989
 21
160.143976339483
 31
0.0
  0
LINE
  5
119
  8
0
 10
330.0
 20
170.37324095464041
 30
0.0
 11
330.0
 21
160.143976339483
 31
0.0
  0
LINE
  5
11A
  8
2
 10
331.49999999999989
 20
195.9439763394833
 30
0.0
 11
339.5
 21
195.9439763394831
 31
0.0
  0
LINE
  5
11B
  8
2
 10
339.5
 20
195.9439763394831
 30
0.0
 11
378.50000000000023
 21
195.9439763394831
 31
0.0
  0
LINE
  5
11C
  8
0
 10
376.89383571965192
 20
192.9439763394831
 30
0.0
 11
355.0
 21
189.9838136110987
 31
0.0
  0
LINE
  5
11D
  8
0
 10
337.76509736032523
 20
166.9439763394831
 30
0.0
 11
278.89167870488239
 21
192.94397633948279
 31
0.0
  0
LINE
  5
11E
  8
0
 10
372.23490263967471
 20
166.9439763394831
 30
0.0
 11
431.10832129511749
 21
192.94397633948279
 31
0.0
  0
LINE
  5
11F
  8
0
 10
333.10616428034803
 20
192.9439763394831
 30
0.0
 11
355.0
 21
189.9838136110987
 31
0.0
  0
LINE
  5
120
  8
2
 10
370.5
 20
195.9439763394831
 30
0.0
 11
370.5
 21
193.9439763394829
 31
0.0
  0
LINE
  5
121
  8
2
 10
380.0
 20
194.4439763394833
 30
0.0
 11
378.5
 21
195.9439763394833
 31
0.0
  0
LINE
  5
122
  8
0
 10
370.0
 20
159.9439763394831
 30
0.0
 11
369.99999999999989
 21
160.143976339483
 31
0.0
  0
LINE
  5
123
  8
2
 10
330.0
 20
170.37324095464041
 30
0.0
 11
330.0
 21
194.4439763394833
 31
0.0
  0
LINE
  5
124
  8
2
 10
340.0
 20
160.143976339483
 30
0.0
 11
340.0
 21
192.9439763394831
 31
0.0
  0
LINE
  5
125
  8
2
 10
347.00000000000011
 20
159.9439763394831
 30
0.0
 11
347.00000000000011
 21
192.9439763394831
 31
0.0
  0
LINE
  5
126
  8
2
 10
362.99999999999989
 20
159.9439763394831
 30
0.0
 11
362.99999999999989
 21
192.9439763394831
 31
0.0
  0
LINE
  5
127
  8
2
 10
370.0
 20
160.143976339483
 30
0.0
 11
370.0
 21
192.9439763394831
 31
0.0
  0
LINE
  5
128
  8
2
 10
380.0
 20
170.37324095464041
 30
0.0
 11
380.0
 21
194.4439763394833
 31
0.0
  0
LINE
  5
129
  8
2
 10
339.49999999999989
 20
194.9439763394831
 30
0.0
 11
370.5
 21
194.9439763394831
 31
0.0
  0
LINE
  5
12A
  8
1
 10
355.0
 20
311.2439763394828
 30
0.0
 11
355.0
 21
149.9439763394827
 31
0.0
  0
LINE
  5
12B
  8
0
 10
455.0
 20
202.01039959539469
 30
0.0
 11
455.0
 21
196.9439763394829
 31
0.0
  0
LINE
  5
12C
  8
0
 10
451.0
 20
192.94397633948279
 30
0.0
 11
259.0
 21
192.94397633948279
 31
0.0
  0
ARC
  5
12D
  8
0
 10
447.59999999999991
 20
216.9439763394829
 30
0.0
 40
4.0
 50
22.387045123104009
 51
89.999967307603484
  0
ARC
  5
12E
  8
0
 10
451.0
 20
196.9439763394829
 30
0.0
 40
4.0
 50
270.0
 51
0.0000000000000368
  0
ARC
  5
12F
  8
0
 10
405.0669211576444
 20
199.4243529362825
 30
0.0
 40
50.0
 50
2.9647139824908879
 51
22.387047745183221
  0
ARC
  5
130
  8
0
 10
304.9330788423556
 20
199.4243529362825
 30
0.0
 40
50.0
 50
157.6129522548168
 51
177.03528601750909
  0
ARC
  5
131
  8
0
 10
259.0
 20
196.9439763394829
 30
0.0
 40
4.0
 50
180.0
 51
270.0
  0
ARC
  5
132
  8
0
 10
262.39999999999992
 20
216.9439763394829
 30
0.0
 40
4.0
 50
90.000032692396545
 51
157.612954876896
  0
LINE
  5
133
  8
0
 10
255.0
 20
202.01039959539469
 30
0.0
 11
255.0
 21
196.9439763394829
 31
0.0
  0
LINE
  5
134
  8
0
  6
CONTINUOUS
 10
364.56794593525211
 20
221.24397633948291
 30
0.0
 11
345.43205406474772
 21
221.24397633948291
 31
0.0
  0
LINE
  5
135
  8
0
  6
CONTINUOUS
 10
362.49999999999989
 20
220.94397633948299
 30
0.0
 11
362.49999999999989
 21
221.24397633948291
 31
0.0
  0
LINE
  5
136
  8
0
  6
CONTINUOUS
 10
347.49999999999989
 20
220.9439763394829
 30
0.0
 11
347.49999999999989
 21
221.24397633948291
 31
0.0
  0
ARC
  5
137
  8
0
  6
CONTINUOUS
 10
354.99999999999989
 20
251.24397633948291
 30
0.0
 40
50.000000000000028
 50
76.989424914549559
 51
103.0105750854505
  0
LINE
  5
138
  8
0
  6
CONTINUOUS
 10
367.99999999999989
 20
256.74397633948291
 30
0.0
 11
367.99999999999989
 21
297.76816359729531
 31
0.0
  0
LINE
  5
139
  8
0
  6
CONTINUOUS
 10
341.99999999999989
 20
256.74397633948291
 30
0.0
 11
341.99999999999989
 21
297.76816359729531
 31
0.0
  0
LINE
  5
13A
  8
0
  6
CONTINUOUS
 10
367.99999999999989
 20
256.74397633948291
 30
0.0
 11
341.99999999999989
 21
256.74397633948291
 31
0.0
  0
LINE
  5
13B
  8
0
  6
CONTINUOUS
 10
365.56547545368738
 20
222.17372778184659
 30
0.0
 11
367.99999999999989
 21
256.74397633948291
 31
0.0
  0
LINE
  5
13C
  8
0
  6
CONTINUOUS
 10
344.43452454631222
 20
222.17372778184659
 30
0.0
 11
341.99999999999989
 21
256.74397633948291
 31
0.0
  0
LINE
  5
13D
  8
0
  6
CONTINUOUS
 10
363.36660026534071
 20
299.52440715777618
 30
0.0
 11
346.63339973465918
 21
299.52440715777618
 31
0.0
  0
ARC
  5
13E
  8
0
  6
CONTINUOUS
 10
364.56794593525211
 20
222.24397633948291
 30
0.0
 40
1.0
 50
270.0
 51
355.9717363335148
  0
ARC
  5
13F
  8
0
  6
CONTINUOUS
 10
345.43205406474772
 20
222.24397633948291
 30
0.0
 40
1.0
 50
184.028263666485
 51
269.99999999999989
  0
ARC
  5
140
  8
0
  6
CONTINUOUS
 10
365.74999999999989
 20
297.76816359729531
 30
0.0
 40
2.25
 50
0.0000000000000368
 51
76.98942491455027
  0
ARC
  5
141
  8
0
  6
CONTINUOUS
 10
344.24999999999989
 20
297.76816359729531
 30
0.0
 40
2.25
 50
103.0105750854505
 51
180.0
  0
LINE
  5
142
  8
1
 10
342.0
 20
211.94397633948279
 30
0.0
 11
368.0
 21
211.94397633948279
 31
0.0
  0
LINE
  5
143
  8
0
 10
262.39999999999992
 20
220.9439763394829
 30
0.0
 11
447.600002431402
 21
220.9439763394829
 31
0.0
  0
CIRCLE
  5
144
  8
0
 10
355.0
 20
543.39999999999975
 30
0.0
 40
13.0
  0
CIRCLE
  5
145
  8
0
 10
355.0
 20
460.0
 30
0.0
 40
25.0
  0
CIRCLE
  5
146
  8
0
 10
355.0
 20
460.0
 30
0.0
 40
23.5
  0
CIRCLE
  5
147
  8
0
 10
355.0
 20
460.0
 30
0.0
 40
15.0
  0
INSERT
  5
1B7
  8
0
  2
BATU
 10
0.0
 20
0.0
 30
0.0
 41
0.001
 42
0.001
 43
0.001
  0
LINE
  5
1B8
  8
2
 10
98.943976339483129
 20
474.00000000000011
 30
0.0
 11
97.943976339482916
 21
474.0
 31
0.0
  0
LINE
  5
1B9
  8
2
 10
98.943976339483129
 20
446.0
 30
0.0
 11
97.943976339482916
 21
446.0
 31
0.0
  0
LINE
  5
1BA
  8
2
 10
368.99999999999989
 20
193.9439763394831
 30
0.0
 11
369.0
 21
192.94397633948279
 31
0.0
  0
LINE
  5
1BB
  8
2
 10
341.0
 20
193.9439763394831
 30
0.0
 11
341.0
 21
192.94397633948279
 31
0.0
  0
LINE
  5
1BC
  8
2
 10
340.0
 20
192.94397633948279
 30
0.0
 11
341.0
 21
192.94397633948279
 31
0.0
  0
LINE
  5
1BD
  8
2
 10
369.0
 20
192.94397633948279
 30
0.0
 11
370.0
 21
192.9439763394831
 31
0.0
  0
LINE
  5
1BE
  8
2
 10
97.943976339482916
 20
446.0
 30
0.0
 11
97.943976339483143
 21
445.0
 31
0.0
  0
LINE
  5
1BF
  8
2
 10
97.943976339482916
 20
475.0
 30
0.0
 11
97.943976339482916
 21
474.0
 31
0.0
  0
LINE
  5
1C0
  8
2
 10
644.00000000000011
 20
193.9439763394829
 30
0.0
 11
644.00000000000011
 21
192.94397633948279
 31
0.0
  0
LINE
  5
1C1
  8
2
 10
616.0
 20
193.9439763394829
 30
0.0
 11
616.0
 21
192.94397633948279
 31
0.0
  0
LINE
  5
1C2
  8
2
 10
615.0
 20
192.94397633948279
 30
0.0
 11
616.0
 21
192.94397633948279
 31
0.0
  0
LINE
  5
1C3
  8
2
 10
644.00000000000011
 20
192.94397633948279
 30
0.0
 11
645.0
 21
192.94397633948279
 31
0.0
  0
LINE
  5
1C4
  8
2
 10
841.05602366051687
 20
474.0
 30
0.0
 11
842.0560236605171
 21
474.0
 31
0.0
  0
LINE
  5
1C5
  8
2
 10
841.05602366051687
 20
446.0
 30
0.0
 11
842.0560236605171
 21
446.0
 31
0.0
  0
LINE
  5
1C6
  8
2
 10
842.0560236605171
 20
475.0
 30
0.0
 11
842.0560236605171
 21
474.0
 31
0.0
  0
LINE
  5
1C7
  8
2
 10
842.0560236605171
 20
446.0
 30
0.0
 11
842.0560236605171
 21
445.0
 31
0.0
  0
ENDSEC
  0
EOF
