  0
SECTION
  2
HEADER
  9
$ACADVER
  1
AC1009
  9
$INSBASE
 10
0.0
 20
0.0
 30
0.0
  9
$EXTMIN
 10
42.778016932748642
 20
82.792970103669177
 30
-0.0015258207003583
  9
$EXTMAX
 10
707.22198655971079
 20
430.01587026987198
 30
0.0000000349246037
  9
$LIMMIN
 10
0.0
 20
0.0
  9
$LIMMAX
 10
750.0
 20
540.0
  9
$ORTHOMODE
 70
     1
  9
$REGENMODE
 70
     1
  9
$FILLMODE
 70
     1
  9
$QTEXTMODE
 70
     0
  9
$MIRRTEXT
 70
     0
  9
$DRAGMODE
 70
     2
  9
$LTSCALE
 40
20.0
  9
$OSMODE
 70
   231
  9
$ATTMODE
 70
     1
  9
$TEXTSIZE
 40
5.0
  9
$TRACEWID
 40
0.05
  9
$TEXTSTYLE
  7
STANDARD
  9
$CLAYER
  8
0
  9
$CELTYPE
  6
BYLAYER
  9
$CECOLOR
 62
   256
  9
$DIMSCALE
 40
2.0
  9
$DIMASZ
 40
3.0
  9
$DIMEXO
 40
2.0
  9
$DIMDLI
 40
0.3799999999999999
  9
$DIMRND
 40
0.0
  9
$DIMDLE
 40
0.0
  9
$DIMEXE
 40
2.0
  9
$DIMTP
 40
0.0
  9
$DIMTM
 40
0.0
  9
$DIMTXT
 40
3.2000000000000002
  9
$DIMCEN
 40
0.09
  9
$DIMTSZ
 40
0.0
  9
$DIMTOL
 70
     0
  9
$DIMLIM
 70
     0
  9
$DIMTIH
 70
     0
  9
$DIMTOH
 70
     0
  9
$DIMSE1
 70
     0
  9
$DIMSE2
 70
     0
  9
$DIMTAD
 70
     1
  9
$DIMZIN
 70
     0
  9
$DIMBLK
  1

  9
$DIMASO
 70
     1
  9
$DIMSHO
 70
     0
  9
$DIMPOST
  1

  9
$DIMAPOST
  1

  9
$DIMALT
 70
     0
  9
$DIMALTD
 70
     2
  9
$DIMALTF
 40
25.399999999999999
  9
$DIMLFAC
 40
1.0
  9
$DIMTOFL
 70
     0
  9
$DIMTVP
 40
1.6000000000000001
  9
$DIMTIX
 70
     1
  9
$DIMSOXD
 70
     0
  9
$DIMSAH
 70
     0
  9
$DIMBLK1
  1

  9
$DIMBLK2
  1

  9
$DIMSTYLE
  2
STANDARD
  9
$DIMCLRD
 70
     0
  9
$DIMCLRE
 70
     0
  9
$DIMCLRT
 70
     0
  9
$DIMTFAC
 40
1.0
  9
$DIMGAP
 40
0.09
  9
$LUNITS
 70
     2
  9
$LUPREC
 70
     4
  9
$SKETCHINC
 40
0.1
  9
$FILLETRAD
 40
4.0
  9
$AUNITS
 70
     0
  9
$AUPREC
 70
     0
  9
$MENU
  1
E:\r13\win\SUPPORT\ACAD
  9
$ELEVATION
 40
0.0
  9
$PELEVATION
 40
0.0
  9
$THICKNESS
 40
0.0
  9
$LIMCHECK
 70
     0
  9
$BLIPMODE
 70
     1
  9
$CHAMFERA
 40
0.0
  9
$CHAMFERB
 40
0.0
  9
$SKPOLY
 70
     0
  9
$TDCREATE
 40
2449839.7801504619
  9
$TDUPDATE
 40
2453236.774558912
  9
$TDINDWG
 40
0.0001528009
  9
$TDUSRTIMER
 40
0.0001528009
  9
$USRTIMER
 70
     1
  9
$ANGBASE
 50
0.0
  9
$ANGDIR
 70
     0
  9
$PDMODE
 70
     0
  9
$PDSIZE
 40
0.0
  9
$PLINEWID
 40
0.0
  9
$COORDS
 70
     0
  9
$SPLFRAME
 70
     0
  9
$SPLINETYPE
 70
     6
  9
$SPLINESEGS
 70
     8
  9
$ATTDIA
 70
     0
  9
$ATTREQ
 70
     1
  9
$HANDLING
 70
-16383
  9
$HANDSEED
  5
20B
  9
$SURFTAB1
 70
     6
  9
$SURFTAB2
 70
     6
  9
$SURFTYPE
 70
     6
  9
$SURFU
 70
     6
  9
$SURFV
 70
     6
  9
$UCSNAME
  2

  9
$UCSORG
 10
0.0
 20
0.0
 30
0.0
  9
$UCSXDIR
 10
1.0
 20
0.0
 30
0.0
  9
$UCSYDIR
 10
0.0
 20
1.0
 30
0.0
  9
$PUCSNAME
  2

  9
$PUCSORG
 10
0.0
 20
0.0
 30
0.0
  9
$PUCSXDIR
 10
1.0
 20
0.0
 30
0.0
  9
$PUCSYDIR
 10
0.0
 20
1.0
 30
0.0
  9
$USERI1
 70
     0
  9
$USERI2
 70
     1
  9
$USERI3
 70
     1
  9
$USERI4
 70
     0
  9
$USERI5
 70
     0
  9
$USERR1
 40
0.0
  9
$USERR2
 40
0.0
  9
$USERR3
 40
0.0
  9
$USERR4
 40
0.0
  9
$USERR5
 40
0.0
  9
$WORLDVIEW
 70
     1
  9
$SHADEDGE
 70
     3
  9
$SHADEDIF
 70
    70
  9
$TILEMODE
 70
     1
  9
$MAXACTVP
 70
    16
  9
$PLIMCHECK
 70
     0
  9
$PEXTMIN
 10
1.0000000000000000E+020
 20
1.0000000000000000E+020
 30
1.0000000000000000E+020
  9
$PEXTMAX
 10
-1.0000000000000000E+020
 20
-1.0000000000000000E+020
 30
-1.0000000000000000E+020
  9
$PLIMMIN
 10
0.0
 20
0.0
  9
$PLIMMAX
 10
12.0
 20
9.0
  9
$UNITMODE
 70
     0
  9
$VISRETAIN
 70
     0
  9
$PLINEGEN
 70
     0
  9
$PSLTSCALE
 70
     0
  0
ENDSEC
  0
SECTION
  2
TABLES
  0
TABLE
  2
VPORT
 70
     3
  0
VPORT
  2
*ACTIVE
 70
     0
 10
0.0
 20
0.0
 11
1.0
 21
1.0
 12
375.0000017462296
 22
256.40442018677061
 13
0.0
 23
0.0
 14
20.0
 24
20.0
 15
20.0
 25
20.0
 16
0.0
 26
0.0
 36
1.0
 17
0.0
 27
0.0
 37
0.0
 40
791.38705395782426
 41
0.9407114624505929
 42
50.0
 43
0.0
 44
0.0
 50
0.0
 51
0.0
 71
     0
 72
   500
 73
     1
 74
     0
 75
     0
 76
     0
 77
     0
 78
     0
  0
ENDTAB
  0
TABLE
  2
LTYPE
 70
     4
  0
LTYPE
  2
CONTINUOUS
 70
     0
  3
Solid Line
 72
    65
 73
     0
 40
0.0
  0
LTYPE
  2
CENTER
 70
     0
  3
____ _ ____ _ ____ _ ____ _ ____ _ ____ _ ____
 72
    65
 73
     4
 40
2.0
 49
1.25
 49
-0.25
 49
0.25
 49
-0.25
  0
LTYPE
  2
PHA-05
 70
     0
  3
_____ _ _ _____ _ _ _____ _ _ _____ _ _ ____
 72
    65
 73
     6
 40
1.25
 49
0.625
 49
-0.125
 49
0.125
 49
-0.125
 49
0.125
 49
-0.125
  0
LTYPE
  2
HIDDEN
 70
     0
  3
_ _ _ _ _ _ _ _ _ _ _ _ _ _ _ _ _ _ _ _ _ _ _
 72
    65
 73
     2
 40
0.375
 49
0.25
 49
-0.125
  0
ENDTAB
  0
TABLE
  2
LAYER
 70
     3
  0
LAYER
  2
0
 70
     0
 62
     7
  6
CONTINUOUS
  0
LAYER
  2
1
 70
     0
 62
     1
  6
CENTER
  0
LAYER
  2
2
 70
     0
 62
     2
  6
HIDDEN
  0
ENDTAB
  0
TABLE
  2
STYLE
 70
     1
  0
STYLE
  2
STANDARD
 70
     0
 40
0.0
 41
1.0
 50
0.0
 71
     0
 42
5.0
  3
TXT
  4
BIGFONT
  0
ENDTAB
  0
TABLE
  2
VIEW
 70
     1
  0
VIEW
  2
ALL
 70
     0
 40
540.0
 10
441.98319327731087
 20
270.0
 41
0.0
 11
0.0
 21
0.0
 31
1.0
 12
0.0
 22
0.0
 32
0.0
 42
0.0
 43
0.0
 44
0.0
 50
0.0
 71
     0
  0
ENDTAB
  0
TABLE
  2
UCS
 70
     0
  0
ENDTAB
  0
TABLE
  2
APPID
 70
     1
  0
APPID
  2
ACAD
 70
     0
  0
ENDTAB
  0
TABLE
  2
DIMSTYLE
 70
     1
  0
DIMSTYLE
  2
STANDARD
 70
     0
  3

  4

  5

  6

  7

 40
1.0
 41
0.18
 42
0.0625
 43
0.38
 44
0.18
 45
0.0
 46
0.0
 47
0.0
 48
0.0
140
0.18
141
0.09
142
0.0
143
25.399999999999999
144
1.0
145
0.0
146
1.0
147
0.09
 71
     0
 72
     0
 73
     1
 74
     1
 75
     0
 76
     0
 77
     0
 78
     0
170
     0
171
     2
172
     0
173
     0
174
     0
175
     0
176
     0
177
     0
178
     0
  0
ENDTAB
  0
ENDSEC
  0
SECTION
  2
BLOCKS
  0
BLOCK
  8
0
  2
$MODEL_SPACE
 70
     0
 10
0.0
 20
0.0
 30
0.0
  3
$MODEL_SPACE
  1

  0
ENDBLK
  5
1B3
  8
0
  0
BLOCK
 67
     1
  8
0
  2
$PAPER_SPACE
 70
     0
 10
0.0
 20
0.0
 30
0.0
  3
$PAPER_SPACE
  1

  0
ENDBLK
  5
1B1
 67
     1
  8
0
  0
ENDSEC
  0
SECTION
  2
ENTITIES
  0
LINE
  5
36
  8
1
 10
430.0
 20
340.0
 30
0.0
 11
610.0
 21
340.0
 31
0.0
  0
LINE
  5
37
  8
1
 10
520.0
 20
425.0
 30
0.0
 11
520.0
 21
250.0
 31
0.0
  0
LINE
  5
38
  8
1
 10
520.0
 20
340.0
 30
0.0
 11
520.0
 21
430.0
 31
0.0
  0
CIRCLE
  5
39
  8
0
 10
520.0
 20
340.0
 30
0.0
 40
80.0
  0
ARC
  5
3A
  8
0
 10
520.0
 20
340.0
 30
0.0
 40
73.299999999999997
 50
93.371543969512686
 51
86.628456030487385
  0
ARC
  5
3B
  8
0
 10
520.0
 20
340.0
 30
0.0
 40
64.200000000000003
 50
110.51635162257941
 51
249.48364837742039
  0
LINE
  5
3C
  8
0
 10
541.14999999999998
 20
340.0
 30
0.0
 11
541.14999999999998
 21
399.19136339027841
 31
0.0
  0
LINE
  5
3D
  8
0
 10
541.14999999999998
 20
340.0
 30
0.0
 11
541.14999999999998
 21
280.80863660972147
 31
0.0
  0
LINE
  5
3E
  8
0
 10
498.85000000000002
 20
340.0
 30
0.0
 11
498.85000000000002
 21
399.19136339027853
 31
0.0
  0
LINE
  5
3F
  8
0
 10
498.85000000000002
 20
340.0
 30
0.0
 11
498.85000000000002
 21
280.80863660972142
 31
0.0
  0
ARC
  5
40
  8
0
 10
520.0
 20
340.0
 30
0.0
 40
64.200000000000003
 50
290.51635162257952
 51
69.483648377420508
  0
ARC
  5
41
  8
0
 10
542.14999999999986
 20
399.19136339027841
 30
0.0
 40
1.0
 50
69.483648377420863
 51
180.0
  0
ARC
  5
42
  8
0
 10
542.14999999999986
 20
280.80863660972147
 30
0.0
 40
1.0
 50
180.0
 51
290.51635162258111
  0
ARC
  5
43
  8
0
 10
497.85000000000002
 20
280.80863660972142
 30
0.0
 40
1.0
 50
249.48364837742011
 51
0.0
  0
ARC
  5
44
  8
0
 10
497.85000000000002
 20
399.19136339027841
 30
0.0
 40
1.0
 50
0.0000000000016284
 51
110.51635162257909
  0
ARC
  5
45
  8
0
 10
520.0
 20
414.5
 30
0.0
 40
20.0
 50
215.52408037128029
 51
256.31285464391851
  0
ARC
  5
46
  8
0
 10
520.0
 20
340.0
 30
0.0
 40
20.0
 50
125.0996321953935
 51
54.900367804606482
  0
ARC
  5
47
  8
0
 10
520.0
 20
340.0
 30
0.0
 40
18.800000000000001
 50
127.712679895085
 51
52.287320104914969
  0
ARC
  5
48
  8
0
 10
520.0
 20
340.0
 30
0.0
 40
13.0
 50
152.20422750397199
 51
207.79577249602789
  0
LINE
  5
49
  8
1
 10
636.18403838371057
 20
340.0
 30
0.0
 11
707.18403838371069
 21
340.0
 31
0.0
  0
LINE
  5
4A
  8
0
 10
662.00929717281656
 20
260.0
 30
0.0
 11
667.18403838371091
 21
260.0
 31
0.0
  0
LINE
  5
4B
  8
0
 10
671.18403838371091
 20
264.0
 30
0.0
 11
671.18403838371091
 21
416.0
 31
0.0
  0
ARC
  5
4C
  8
0
 10
667.18403838371091
 20
264.0
 30
0.0
 40
4.0
 50
270.0
 51
0.0
  0
ARC
  5
4D
  8
0
 10
650.38403838371084
 20
266.69999999999987
 30
0.0
 40
4.2000000000000002
 50
179.9999615162437
 51
249.52334764791391
  0
ARC
  5
4E
  8
0
 10
664.65692644703245
 20
304.92204424585231
 30
0.0
 40
45.0
 50
249.5233463558356
 51
266.62698573604121
  0
ARC
  5
4F
  8
0
 10
664.65692644703245
 20
375.07795575414758
 30
0.0
 40
45.0
 50
93.373014263958737
 51
110.4766536441643
  0
ARC
  5
50
  8
0
 10
650.38403838371084
 20
413.30000000000001
 30
0.0
 40
4.2000000000000002
 50
110.47665235208601
 51
180.00003848375621
  0
ARC
  5
51
  8
0
 10
667.18403838371091
 20
416.0
 30
0.0
 40
4.0
 50
0.0
 51
90.000000000000014
  0
LINE
  5
52
  8
0
 10
662.00929717281656
 20
420.0
 30
0.0
 11
667.18403838371091
 21
420.0
 31
0.0
  0
ARC
  5
53
  8
0
 10
520.0
 20
340.0
 30
0.0
 40
65.599999999999994
 50
105.3414746461013
 51
74.658525353898682
  0
ARC
  5
54
  8
0
 10
537.09129913959134
 20
402.29805369127519
 30
0.0
 40
1.0
 50
74.658525353898511
 51
144.47591962872011
  0
ARC
  5
55
  8
0
 10
502.9087008604086
 20
402.29805369127519
 30
0.0
 40
1.0
 50
35.524080371279382
 51
105.3414746461014
  0
ARC
  5
56
  8
0
 10
520.0
 20
414.5
 30
0.0
 40
20.0
 50
283.6871453560808
 51
324.47591962871979
  0
LINE
  5
57
  8
1
 10
651.18403838371114
 20
404.75
 30
0.0
 11
681.18403838371137
 21
404.75
 31
0.0
  0
LINE
  5
58
  8
1
 10
539.99999999999932
 20
404.14999999999998
 30
0.0
 11
499.9999999999992
 21
404.14999999999998
 31
0.0
  0
LINE
  5
59
  8
1
 10
636.18403838371194
 20
404.14999999999998
 30
0.0
 11
669.18323478921616
 21
404.14999999999998
 31
0.0
  0
LINE
  5
5A
  8
1
 10
655.18403838371069
 20
418.00000000000409
 30
0.0
 11
655.18403838371069
 21
321.19999999999999
 31
0.0
  0
ARC
  5
5B
  8
0
 10
520.0
 20
404.14999999999998
 30
0.0
 40
10.0
 50
298.11702734732239
 51
241.88297265267721
  0
ARC
  5
5C
  8
0
 10
520.0
 20
404.14999999999998
 30
0.0
 40
5.5
 50
303.05573115084059
 51
236.9442688491504
  0
LINE
  5
5D
  8
0
 10
523.0
 20
395.5
 30
0.0
 11
523.0
 21
408.75977222864731
 31
0.0
  0
LINE
  5
5E
  8
0
 10
517.0
 20
395.5
 30
0.0
 11
517.0
 21
408.75977222864731
 31
0.0
  0
ARC
  5
5F
  8
0
 10
510.5
 20
329.14949522056111
 30
0.0
 40
2.0
 50
180.0
 51
258.58484225726932
  0
ARC
  5
60
  8
0
 10
529.49999999999989
 20
329.14949522056122
 30
0.0
 40
2.0
 50
281.4151577427296
 51
0.0000000000000254
  0
LINE
  5
61
  8
0
 10
529.08295106229252
 20
327.54046855959263
 30
0.0
 11
510.91704893770759
 21
327.54046855959251
 31
0.0
  0
ARC
  5
62
  8
0
 10
511.43340978301711
 20
390.19999999999999
 30
0.0
 40
1.0
 50
90.000000000000185
 51
176.0548137709624
  0
ARC
  5
63
  8
0
 10
528.56659021698283
 20
390.2000000000001
 30
0.0
 40
1.0
 50
3.9451862290376258
 51
90.000000000000099
  0
ARC
  5
64
  8
0
 10
520.0
 20
376.19999999999999
 30
0.0
 40
50.0
 50
258.58484225726949
 51
281.41515774273051
  0
LINE
  5
65
  8
0
 10
510.43577945459413
 20
390.26880209161533
 30
0.0
 11
508.49999999999989
 21
362.19999999999999
 31
0.0
  0
LINE
  5
66
  8
0
 10
529.56422054540565
 20
390.2688020916155
 30
0.0
 11
531.5
 21
362.19999999999999
 31
0.0
  0
LINE
  5
67
  8
0
 10
508.49999999999989
 20
362.19999999999999
 30
0.0
 11
508.49999999999989
 21
329.14949522056111
 31
0.0
  0
LINE
  5
68
  8
0
 10
531.5
 20
362.19999999999999
 30
0.0
 11
531.5
 21
329.14949522056122
 31
0.0
  0
LINE
  5
69
  8
0
 10
515.29999999999995
 20
395.5
 30
0.0
 11
515.0
 21
391.5
 31
0.0
  0
LINE
  5
6A
  8
0
 10
525.0
 20
391.5
 30
0.0
 11
524.69999999999982
 21
395.5
 31
0.0
  0
LINE
  5
6B
  8
0
 10
512.5
 20
391.5
 30
0.0
 11
512.5
 21
391.19999999999999
 31
0.0
  0
LINE
  5
6C
  8
0
 10
527.5
 20
391.5
 30
0.0
 11
527.5
 21
391.19999999999999
 31
0.0
  0
LINE
  5
6D
  8
0
 10
508.49999999999989
 20
362.19999999999999
 30
0.0
 11
531.5
 21
362.19999999999999
 31
0.0
  0
LINE
  5
6E
  8
0
 10
511.43340978301711
 20
391.19999999999999
 30
0.0
 11
528.56659021698283
 21
391.2000000000001
 31
0.0
  0
LINE
  5
6F
  8
0
 10
512.5
 20
391.5
 30
0.0
 11
527.5
 21
391.5
 31
0.0
  0
LINE
  5
70
  8
0
 10
515.29999999999995
 20
395.5
 30
0.0
 11
524.69999999999982
 21
395.5
 31
0.0
  0
LINE
  5
71
  8
0
 10
646.18403838371057
 20
413.30000000000001
 30
0.0
 11
646.18403838371057
 21
266.70000190734868
 31
0.0
  0
ARC
  5
72
  8
0
 10
520.0
 20
340.0
 30
0.0
 40
13.0
 50
332.20422750397199
 51
27.795772496028011
  0
LINE
  5
73
  8
0
 10
523.0
 20
408.49999999999909
 30
0.0
 11
517.0
 21
408.49999999999909
 31
0.0
  0
ARC
  5
74
  8
0
 10
520.0
 20
404.0
 30
0.0
 40
4.0000000000000284
 50
41.409622109300287
 51
138.590377890729
  0
ARC
  5
75
  8
0
 10
645.68403838371057
 20
329.14949522056111
 30
0.0
 40
2.0
 50
180.0
 51
258.58484225726932
  0
LINE
  5
76
  8
0
 10
646.18403838371057
 20
327.54046855959251
 30
0.0
 11
646.10108732141839
 21
327.54046855959251
 31
0.0
  0
ARC
  5
77
  8
0
 10
646.61744816672785
 20
390.19999999999999
 30
0.0
 40
1.0
 50
115.6841489937765
 51
176.0548137709624
  0
ARC
  5
78
  8
0
 10
655.18403838371069
 20
376.19999999999999
 30
0.0
 40
50.0
 50
258.58484225726949
 51
259.63024019452268
  0
LINE
  5
79
  8
0
 10
645.61981783830493
 20
390.26880209161533
 30
0.0
 11
643.68403838371069
 21
362.19999999999999
 31
0.0
  0
LINE
  5
7A
  8
0
 10
643.68403838371069
 20
362.19999999999999
 30
0.0
 11
643.68403838371069
 21
329.14949522056111
 31
0.0
  0
LINE
  5
7B
  8
0
 10
643.68403838371069
 20
362.19999999999999
 30
0.0
 11
646.1840383837108
 21
362.2000000000001
 31
0.0
  0
LINE
  5
7C
  8
0
 10
507.00000000000011
 20
93.115961616289397
 30
0.0
 11
507.0
 21
92.815961616289584
 31
0.0
  0
LINE
  5
7D
  8
0
 10
505.84999999999991
 20
94.815961616289599
 30
0.0
 11
498.84999999999991
 21
94.815961616289655
 31
0.0
  0
LINE
  5
7E
  8
0
 10
534.14999999999986
 20
118.8159616162896
 30
0.0
 11
534.14999999999986
 21
94.815961616289712
 31
0.0
  0
LINE
  5
7F
  8
0
 10
505.85000000000008
 20
118.8159616162896
 30
0.0
 11
505.85000000000002
 21
94.815961616289599
 31
0.0
  0
LINE
  5
80
  8
0
 10
534.14999999999986
 20
112.66532160186
 30
0.0
 11
505.85000000000002
 21
112.6653216018601
 31
0.0
  0
LINE
  5
81
  8
0
 10
541.14999999999975
 20
118.8159616162896
 30
0.0
 11
541.14999999999975
 21
94.815961616289712
 31
0.0
  0
LINE
  5
82
  8
0
 10
498.85000000000008
 20
118.8159616162896
 30
0.0
 11
498.85000000000002
 21
94.815961616289599
 31
0.0
  0
LINE
  5
83
  8
1
 10
520.0
 20
156.3159616162896
 30
0.0
 11
520.0
 21
82.815961616289655
 31
0.0
  0
LINE
  5
84
  8
0
 10
600.0
 20
127.99070282718399
 30
0.0
 11
600.0
 21
122.8159616162896
 31
0.0
  0
LINE
  5
85
  8
0
 10
596.0
 20
118.8159616162896
 30
0.0
 11
444.0
 21
118.8159616162896
 31
0.0
  0
ARC
  5
86
  8
0
 10
596.0
 20
122.8159616162896
 30
0.0
 40
4.0
 50
270.0
 51
0.0
  0
ARC
  5
87
  8
0
 10
593.29999999999995
 20
139.61596161628961
 30
0.0
 40
4.2000000000000002
 50
20.47665235208602
 51
90.000038483756256
  0
ARC
  5
88
  8
0
 10
555.07795575414752
 20
125.34307355296809
 30
0.0
 40
45.0
 50
3.373014263958714
 51
20.476653644164319
  0
ARC
  5
89
  8
0
 10
484.92204424585231
 20
125.34307355296799
 30
0.0
 40
45.0
 50
159.5233463558356
 51
176.62698573604129
  0
ARC
  5
8A
  8
0
 10
446.69999999999987
 20
139.6159616162895
 30
0.0
 40
4.2000000000000002
 50
89.999961516243744
 51
159.52334764791391
  0
ARC
  5
8B
  8
0
 10
444.0
 20
122.8159616162896
 30
0.0
 40
4.0
 50
180.0
 51
270.0
  0
LINE
  5
8C
  8
0
 10
440.0
 20
127.9907028271839
 30
0.0
 11
440.0
 21
122.8159616162896
 31
0.0
  0
LINE
  5
8D
  8
2
 10
507.0
 20
119.8159616162896
 30
0.0
 11
507.0
 21
93.115961616289326
 31
0.0
  0
LINE
  5
8E
  8
2
 10
513.0
 20
119.8159616162896
 30
0.0
 11
513.0
 21
92.815961616289655
 31
0.0
  0
LINE
  5
8F
  8
2
 10
512.88454355303725
 20
119.8159616162896
 30
0.0
 11
533.0
 21
119.8159616162896
 31
0.0
  0
LINE
  5
90
  8
2
 10
507.5
 20
122.1159616162895
 30
0.0
 11
507.5
 21
119.8159616162896
 31
0.0
  0
LINE
  5
91
  8
2
 10
507.0
 20
119.8159616162897
 30
0.0
 11
513.0
 21
119.8159616162896
 31
0.0
  0
LINE
  5
92
  8
2
 10
500.0
 20
120.91596161628959
 30
0.0
 11
501.19999999999999
 21
122.1159616162895
 31
0.0
  0
LINE
  5
93
  8
0
 10
446.70000539479651
 20
143.81596161628929
 30
0.0
 11
593.29999573503869
 21
143.8159616162898
 31
0.0
  0
LINE
  5
94
  8
0
 10
500.0
 20
93.115961616289439
 30
0.0
 11
540.0
 21
93.115961616289724
 31
0.0
  0
LINE
  5
95
  8
0
 10
533.0
 20
92.815961616289655
 30
0.0
 11
507.0
 21
92.815961616289584
 31
0.0
  0
LINE
  5
96
  8
0
 10
541.14999999999998
 20
94.815961616289655
 30
0.0
 11
534.14999999999986
 21
94.815961616289655
 31
0.0
  0
LINE
  5
97
  8
0
 10
540.0
 20
98.245226231446964
 30
0.0
 11
540.0
 21
93.115961616289724
 31
0.0
  0
LINE
  5
98
  8
0
 10
533.0
 20
93.115961616289724
 30
0.0
 11
533.0
 21
92.815961616289655
 31
0.0
  0
LINE
  5
99
  8
0
 10
500.0
 20
98.245226231446907
 30
0.0
 11
500.0
 21
93.115961616289553
 31
0.0
  0
LINE
  5
9A
  8
2
 10
501.19999999999999
 20
122.1159616162895
 30
0.0
 11
507.5
 21
122.1159616162895
 31
0.0
  0
LINE
  5
9B
  8
2
 10
507.5
 20
122.1159616162895
 30
0.0
 11
538.79999999999995
 21
122.1159616162896
 31
0.0
  0
LINE
  5
9C
  8
2
 10
540.0
 20
120.91596161628959
 30
0.0
 11
538.79999999999995
 21
122.1159616162896
 31
0.0
  0
LINE
  5
9D
  8
0
 10
540.0
 20
98.245226231446964
 30
0.0
 11
540.0
 21
93.115961616289596
 31
0.0
  0
LINE
  5
9E
  8
2
 10
533.0
 20
119.8159616162896
 30
0.0
 11
533.0
 21
93.115961616289667
 31
0.0
  0
LINE
  5
9F
  8
2
 10
527.0
 20
119.8159616162896
 30
0.0
 11
527.0
 21
92.815961616289655
 31
0.0
  0
LINE
  5
A0
  8
2
 10
532.5
 20
122.1159616162896
 30
0.0
 11
532.5
 21
119.8159616162896
 31
0.0
  0
LINE
  5
A1
  8
2
 10
500.0
 20
98.245226231446793
 30
0.0
 11
500.0
 21
120.91596161628959
 31
0.0
  0
LINE
  5
A2
  8
2
 10
540.0
 20
98.245226231446864
 30
0.0
 11
540.0
 21
120.91596161628959
 31
0.0
  0
LINE
  5
A3
  8
2
 10
507.5
 20
120.8159616162896
 30
0.0
 11
532.5
 21
120.8159616162896
 31
0.0
  0
LINE
  5
AB
  8
1
 10
301.50000000000063
 20
404.14999999999998
 30
0.0
 11
258.49999999999989
 21
404.14999999999998
 31
0.0
  0
ARC
  5
AC
  8
0
 10
280.0
 20
414.5
 30
0.0
 40
20.0
 50
295.11075852129233
 51
324.47591962871979
  0
ARC
  5
AD
  8
0
 10
262.9087008604086
 20
402.29805369127519
 30
0.0
 40
1.0
 50
35.524080371279382
 51
105.3414746461014
  0
ARC
  5
AE
  8
0
 10
297.09129913959129
 20
402.29805369127519
 30
0.0
 40
1.0
 50
74.658525353898511
 51
144.47591962872011
  0
ARC
  5
AF
  8
0
 10
280.0
 20
340.0
 30
0.0
 40
65.599999999999994
 50
105.3414746461013
 51
74.658525353898682
  0
ARC
  5
B0
  8
0
 10
280.0
 20
414.5
 30
0.0
 40
20.0
 50
215.52408037128029
 51
244.88924147870759
  0
ARC
  5
B1
  8
0
 10
257.85000000000002
 20
399.19136339027841
 30
0.0
 40
1.0
 50
0.0000000000016284
 51
110.51635162257909
  0
ARC
  5
B2
  8
0
 10
257.85000000000002
 20
280.80863660972142
 30
0.0
 40
1.0
 50
249.48364837742011
 51
0.0
  0
ARC
  5
B3
  8
0
 10
302.14999999999992
 20
280.80863660972147
 30
0.0
 40
1.0
 50
180.0
 51
290.51635162258111
  0
ARC
  5
B4
  8
0
 10
302.14999999999992
 20
399.19136339027841
 30
0.0
 40
1.0
 50
69.483648377420863
 51
180.0
  0
ARC
  5
B5
  8
0
 10
280.0
 20
340.0
 30
0.0
 40
64.200000000000003
 50
290.51635162257952
 51
69.483648377420508
  0
LINE
  5
B6
  8
0
 10
258.85000000000002
 20
340.0
 30
0.0
 11
258.85000000000002
 21
280.80863660972142
 31
0.0
  0
LINE
  5
B7
  8
0
 10
258.85000000000002
 20
340.0
 30
0.0
 11
258.84999999999991
 21
399.19136339027853
 31
0.0
  0
LINE
  5
B8
  8
0
 10
301.14999999999992
 20
340.0
 30
0.0
 11
301.14999999999992
 21
280.80863660972147
 31
0.0
  0
LINE
  5
B9
  8
0
 10
301.14999999999992
 20
340.0
 30
0.0
 11
301.14999999999992
 21
399.19136339027841
 31
0.0
  0
ARC
  5
BA
  8
0
 10
280.0
 20
340.0
 30
0.0
 40
64.200000000000003
 50
110.51635162257941
 51
249.48364837742039
  0
ARC
  5
BB
  8
0
 10
280.0
 20
340.0
 30
0.0
 40
73.299999999999997
 50
95.823085953207453
 51
84.176914046792533
  0
CIRCLE
  5
BC
  8
0
 10
280.0
 20
340.0
 30
0.0
 40
80.0
  0
LINE
  5
BD
  8
1
 10
280.0
 20
340.0
 30
0.0
 11
280.0
 21
425.0
 31
0.0
  0
LINE
  5
BE
  8
1
 10
280.0
 20
430.0
 30
0.0
 11
280.0
 21
250.0
 31
0.0
  0
LINE
  5
BF
  8
1
 10
190.0
 20
340.0
 30
0.0
 11
370.0
 21
340.0
 31
0.0
  0
LINE
  5
C0
  8
0
 10
103.8159616162893
 20
413.30000000000001
 30
0.0
 11
103.8159616162893
 21
266.70000190734868
 31
0.0
  0
LINE
  5
C1
  8
1
 10
94.815961616289314
 20
418.0
 30
0.0
 11
94.815961616289314
 21
385.5
 31
0.0
  0
ARC
  5
C2
  8
0
 10
166.16646639572809
 20
413.64999999999998
 30
0.0
 40
2.0
 50
11.41515774273077
 51
90.000000000000057
  0
ARC
  5
C3
  8
0
 10
166.16646639572809
 20
394.64999999999998
 30
0.0
 40
2.0
 50
270.0
 51
348.58484225727028
  0
LINE
  5
C4
  8
0
  6
PHA-05
 10
167.7754930566966
 20
395.0670489377074
 30
0.0
 11
167.77549305669669
 21
413.23295106229227
 31
0.0
  0
ARC
  5
C5
  8
0
 10
105.1159616162892
 20
412.71659021698292
 30
0.0
 40
1.0
 50
93.945186229037574
 51
179.9999999999998
  0
ARC
  5
C6
  8
0
 10
105.1159616162892
 20
395.58340978301709
 30
0.0
 40
1.0
 50
179.99999999999989
 51
266.05481377096243
  0
LINE
  5
C7
  8
1
 10
179.11596161628961
 20
404.14999999999998
 30
0.0
 11
80.816765210780204
 21
404.14999999999998
 31
0.0
  0
ARC
  5
C8
  8
0
  6
PHA-05
 10
119.1159616162892
 20
404.14999999999998
 30
0.0
 40
50.0
 50
348.58484225726949
 51
11.415157742730569
  0
LINE
  5
C9
  8
0
 10
105.0471595246739
 20
413.71422054540579
 30
0.0
 11
133.11596161628921
 21
415.65000000000009
 31
0.0
  0
LINE
  5
CA
  8
0
 10
105.0471595246738
 20
394.58577945459422
 30
0.0
 11
133.11596161628921
 21
392.65000000000009
 31
0.0
  0
LINE
  5
CB
  8
0
 10
133.11596161628921
 20
415.65000000000009
 30
0.0
 11
166.16646639572809
 21
415.65000000000009
 31
0.0
  0
LINE
  5
CC
  8
0
 10
133.11596161628921
 20
392.65000000000009
 30
0.0
 11
166.16646639572809
 21
392.65000000000009
 31
0.0
  0
LINE
  5
CD
  8
0
 10
103.8159616162893
 20
411.65000000000009
 30
0.0
 11
104.1159616162892
 21
411.65000000000009
 31
0.0
  0
LINE
  5
CE
  8
0
 10
103.8159616162893
 20
396.64999999999998
 30
0.0
 11
104.1159616162892
 21
396.64999999999998
 31
0.0
  0
LINE
  5
CF
  8
0
  6
PHA-05
 10
133.11596161628921
 20
415.65000000000009
 30
0.0
 11
133.11596161628921
 21
392.64999999999992
 31
0.0
  0
LINE
  5
D0
  8
0
 10
104.1159616162892
 20
412.71659021698292
 30
0.0
 11
104.1159616162892
 21
395.58340978301709
 31
0.0
  0
LINE
  5
D1
  8
1
 10
98.815961616288746
 20
404.75
 30
0.0
 11
68.815961616288718
 21
404.75
 31
0.0
  0
LINE
  5
D2
  8
0
 10
87.990702827183455
 20
420.0
 30
0.0
 11
82.815961616289087
 21
420.0
 31
0.0
  0
ARC
  5
D3
  8
0
 10
82.815961616289087
 20
416.0
 30
0.0
 40
4.0
 50
90.000000000000014
 51
180.0
  0
ARC
  5
D4
  8
0
 10
99.615961616289042
 20
413.30000000000001
 30
0.0
 40
4.2000000000000002
 50
359.99996151624367
 51
69.523347647913994
  0
ARC
  5
D5
  8
0
 10
85.343073552967553
 20
375.07795575414758
 30
0.0
 40
45.0
 50
69.523346355835685
 51
86.626985736041306
  0
ARC
  5
D6
  8
0
 10
85.343073552967553
 20
304.92204424585231
 30
0.0
 40
45.0
 50
273.37301426395868
 51
290.47665364416429
  0
ARC
  5
D7
  8
0
 10
99.615961616289042
 20
266.69999999999987
 30
0.0
 40
4.2000000000000002
 50
290.47665235208598
 51
0.000038483756258
  0
ARC
  5
D8
  8
0
 10
82.815961616289087
 20
264.0
 30
0.0
 40
4.0
 50
180.0
 51
270.0
  0
LINE
  5
D9
  8
0
 10
78.815961616289087
 20
264.0
 30
0.0
 11
78.815961616289087
 21
416.0
 31
0.0
  0
LINE
  5
DA
  8
0
 10
87.990702827183455
 20
260.0
 30
0.0
 11
82.815961616289087
 21
260.0
 31
0.0
  0
LINE
  5
DB
  8
1
 10
113.8159616162893
 20
340.00000000000011
 30
0.0
 11
42.81596161628908
 21
340.0
 31
0.0
  0
LINE
  5
DC
  8
0
 10
696.88403838371084
 20
353.0
 30
0.0
 11
697.18403838371069
 21
353.0
 31
0.0
  0
LINE
  5
DD
  8
0
 10
696.88403838371062
 20
327.0
 30
0.0
 11
697.18403838371069
 21
327.0
 31
0.0
  0
LINE
  5
DE
  8
2
 10
669.18403838371057
 20
352.49999999999989
 30
0.0
 11
669.18403838371057
 21
327.49999999999989
 31
0.0
  0
LINE
  5
DF
  8
2
 10
691.75477376855338
 20
320.0
 30
0.0
 11
669.08403838371055
 21
320.0
 31
0.0
  0
LINE
  5
E0
  8
2
 10
691.75477376855338
 20
360.0
 30
0.0
 11
669.08403838371055
 21
360.0
 31
0.0
  0
LINE
  5
E1
  8
2
 10
667.88403838371073
 20
327.49999999999989
 30
0.0
 11
670.18403838371057
 21
327.49999999999989
 31
0.0
  0
LINE
  5
E2
  8
2
 10
670.18403838371057
 20
333.0
 30
0.0
 11
697.18403838371069
 21
333.0
 31
0.0
  0
LINE
  5
E3
  8
2
 10
670.18403838371057
 20
327.0
 30
0.0
 11
696.88403838371073
 21
327.0
 31
0.0
  0
LINE
  5
E4
  8
0
 10
691.75477376855326
 20
320.0
 30
0.0
 11
696.88403838371073
 21
320.0
 31
0.0
  0
LINE
  5
E5
  8
2
 10
669.08403838371055
 20
320.0
 30
0.0
 11
667.88403838371073
 21
321.19999999999987
 31
0.0
  0
LINE
  5
E6
  8
0
 10
671.18403838371057
 20
356.16524112842171
 30
0.0
 11
673.16888041755351
 21
340.0
 31
0.0
  0
LINE
  5
E7
  8
0
 10
671.18403838371057
 20
323.83475887157817
 30
0.0
 11
673.16888041755351
 21
340.0
 31
0.0
  0
LINE
  5
E8
  8
2
 10
667.88403838371073
 20
352.49999999999989
 30
0.0
 11
667.88403838371073
 21
321.19999999999987
 31
0.0
  0
LINE
  5
E9
  8
2
 10
667.88403838371073
 20
358.80000000000001
 30
0.0
 11
667.88403838371073
 21
352.49999999999989
 31
0.0
  0
LINE
  5
EA
  8
0
 10
691.75477376855326
 20
360.0
 30
0.0
 11
696.88403838371073
 21
360.0
 31
0.0
  0
LINE
  5
EB
  8
0
 10
696.88403838371062
 20
327.0
 30
0.0
 11
697.18403838371069
 21
327.0
 31
0.0
  0
LINE
  5
EC
  8
0
 10
691.75477376855326
 20
320.0
 30
0.0
 11
696.88403838371062
 21
320.0
 31
0.0
  0
LINE
  5
ED
  8
0
 10
695.18403838371057
 20
327.0
 30
0.0
 11
695.18403838371057
 21
353.00000000000011
 31
0.0
  0
LINE
  5
EE
  8
0
 10
697.18403838371069
 20
327.0
 30
0.0
 11
697.18403838371069
 21
353.0
 31
0.0
  0
LINE
  5
EF
  8
0
 10
696.88403838371084
 20
360.0
 30
0.0
 11
696.88403838371062
 21
320.0
 31
0.0
  0
LINE
  5
F0
  8
0
 10
695.18403838371057
 20
327.0
 30
0.0
 11
671.18403838371057
 21
278.00990478907931
 31
0.0
  0
LINE
  5
F1
  8
0
 10
695.18403838371057
 20
353.00000000000023
 30
0.0
 11
671.04387603634166
 21
402.27620215852858
 31
0.0
  0
LINE
  5
F2
  8
2
 10
669.08403838371055
 20
360.0
 30
0.0
 11
667.88403838371073
 21
358.80000000000001
 31
0.0
  0
LINE
  5
F3
  8
2
 10
670.18403838371057
 20
353.0
 30
0.0
 11
670.18403838371057
 21
347.0
 31
0.0
  0
LINE
  5
F4
  8
2
 10
667.88403838371073
 20
352.49999999999989
 30
0.0
 11
670.18403838371057
 21
352.49999999999989
 31
0.0
  0
LINE
  5
F5
  8
2
 10
670.18403838371057
 20
347.1154564469627
 30
0.0
 11
670.18403838371057
 21
327.0
 31
0.0
  0
LINE
  5
F6
  8
2
 10
670.18403838371057
 20
347.0
 30
0.0
 11
697.18403838371069
 21
347.0
 31
0.0
  0
LINE
  5
F7
  8
2
 10
670.18403838371057
 20
353.0
 30
0.0
 11
696.88403838371084
 21
353.0
 31
0.0
  0
LINE
  5
F8
  8
1
 10
541.5
 20
134.8159616162896
 30
0.0
 11
498.5
 21
134.8159616162896
 31
0.0
  0
ARC
  5
F9
  8
0
 10
520.0
 20
134.8159616162896
 30
0.0
 40
11.5
 50
51.500049590760312
 51
128.49995040924031
  0
CIRCLE
  5
FA
  8
0
 10
280.0
 20
404.14999999999998
 30
0.0
 40
11.5
  0
CIRCLE
  5
FB
  8
0
 10
280.0
 20
340.0
 30
0.0
 40
20.0
  0
CIRCLE
  5
FC
  8
0
 10
280.0
 20
340.0
 30
0.0
 40
18.800000000000061
  0
CIRCLE
  5
FD
  8
0
 10
280.0
 20
340.0
 30
0.0
 40
13.0
  0
LINE
  5
FE
  8
2
 10
79.815961616289314
 20
353.0
 30
0.0
 11
53.115961616289162
 21
353.0
 31
0.0
  0
LINE
  5
FF
  8
2
 10
79.815961616289314
 20
347.0
 30
0.0
 11
52.815961616289307
 21
347.0
 31
0.0
  0
LINE
  5
100
  8
2
 10
79.815961616289314
 20
347.1154564469627
 30
0.0
 11
79.815961616289314
 21
327.0
 31
0.0
  0
LINE
  5
101
  8
2
 10
82.115961616289269
 20
352.49999999999989
 30
0.0
 11
79.815961616289314
 21
352.49999999999989
 31
0.0
  0
LINE
  5
102
  8
2
 10
79.815961616289314
 20
353.0
 30
0.0
 11
79.815961616289314
 21
347.0
 31
0.0
  0
LINE
  5
103
  8
2
 10
80.915961616289323
 20
360.0
 30
0.0
 11
82.115961616289269
 21
358.80000000000001
 31
0.0
  0
LINE
  5
104
  8
0
 10
54.815961616289322
 20
353.00000000000023
 30
0.0
 11
78.956123963658229
 21
402.27620215852858
 31
0.0
  0
LINE
  5
105
  8
0
 10
54.815961616289322
 20
327.0
 30
0.0
 11
78.815961616289314
 21
278.00990478907931
 31
0.0
  0
LINE
  5
106
  8
0
 10
53.115961616289162
 20
360.0
 30
0.0
 11
53.115961616289383
 21
320.0
 31
0.0
  0
LINE
  5
107
  8
0
 10
52.815961616289307
 20
327.0
 30
0.0
 11
52.815961616289307
 21
353.0
 31
0.0
  0
LINE
  5
108
  8
0
 10
54.815961616289322
 20
327.0
 30
0.0
 11
54.815961616289322
 21
353.00000000000011
 31
0.0
  0
LINE
  5
109
  8
0
 10
58.245226231446622
 20
320.0
 30
0.0
 11
53.115961616289383
 21
320.0
 31
0.0
  0
LINE
  5
10A
  8
0
 10
53.115961616289383
 20
327.0
 30
0.0
 11
52.815961616289307
 21
327.0
 31
0.0
  0
LINE
  5
10B
  8
0
 10
58.245226231446622
 20
360.0
 30
0.0
 11
53.115961616289262
 21
360.0
 31
0.0
  0
LINE
  5
10C
  8
2
 10
82.115961616289269
 20
358.80000000000001
 30
0.0
 11
82.115961616289269
 21
352.49999999999989
 31
0.0
  0
LINE
  5
10D
  8
2
 10
82.115961616289269
 20
352.49999999999989
 30
0.0
 11
82.115961616289269
 21
321.19999999999987
 31
0.0
  0
LINE
  5
10E
  8
0
 10
78.815961616289314
 20
323.83475887157817
 30
0.0
 11
76.83111958244649
 21
340.0
 31
0.0
  0
LINE
  5
10F
  8
0
 10
78.815961616289314
 20
356.16524112842171
 30
0.0
 11
76.83111958244649
 21
340.0
 31
0.0
  0
LINE
  5
110
  8
2
 10
80.915961616289323
 20
320.0
 30
0.0
 11
82.115961616289269
 21
321.19999999999987
 31
0.0
  0
LINE
  5
111
  8
0
 10
58.245226231446622
 20
320.0
 30
0.0
 11
53.115961616289262
 21
320.0
 31
0.0
  0
LINE
  5
112
  8
2
 10
79.815961616289314
 20
327.0
 30
0.0
 11
53.115961616289262
 21
327.0
 31
0.0
  0
LINE
  5
113
  8
2
 10
79.815961616289314
 20
333.0
 30
0.0
 11
52.815961616289307
 21
333.0
 31
0.0
  0
LINE
  5
114
  8
2
 10
82.115961616289269
 20
327.49999999999989
 30
0.0
 11
79.815961616289314
 21
327.49999999999989
 31
0.0
  0
LINE
  5
115
  8
2
 10
58.245226231446509
 20
360.0
 30
0.0
 11
80.915961616289323
 21
360.0
 31
0.0
  0
LINE
  5
116
  8
2
 10
58.245226231446509
 20
320.0
 30
0.0
 11
80.915961616289323
 21
320.0
 31
0.0
  0
LINE
  5
117
  8
2
 10
80.815961616289314
 20
352.49999999999989
 30
0.0
 11
80.815961616289314
 21
327.49999999999989
 31
0.0
  0
LINE
  5
118
  8
0
 10
53.115961616289383
 20
327.0
 30
0.0
 11
52.815961616289307
 21
327.0
 31
0.0
  0
LINE
  5
119
  8
0
 10
53.115961616289162
 20
353.0
 30
0.0
 11
52.815961616289307
 21
353.0
 31
0.0
  0
LINE
  5
11A
  8
1
 10
279.99999999999977
 20
219.11596161628941
 30
0.0
 11
280.0
 21
82.815961616289087
 31
0.0
  0
LINE
  5
11B
  8
0
 10
360.0
 20
127.9907028271834
 30
0.0
 11
360.0
 21
122.815961616289
 31
0.0
  0
LINE
  5
11C
  8
0
 10
356.0
 20
118.815961616289
 30
0.0
 11
204.0
 21
118.815961616289
 31
0.0
  0
ARC
  5
11D
  8
0
 10
356.0
 20
122.815961616289
 30
0.0
 40
4.0
 50
270.0
 51
0.0000000000000368
  0
ARC
  5
11E
  8
0
 10
353.30000000000001
 20
139.61596161628901
 30
0.0
 40
4.2000000000000002
 50
20.476652352086059
 51
90.000038483756256
  0
ARC
  5
11F
  8
0
 10
315.07795575414758
 20
125.3430735529675
 30
0.0
 40
45.0
 50
3.3730142639587508
 51
20.476653644164362
  0
ARC
  5
120
  8
0
 10
244.92204424585231
 20
125.3430735529675
 30
0.0
 40
45.0
 50
159.5233463558356
 51
176.62698573604129
  0
ARC
  5
121
  8
0
 10
206.6999999999999
 20
139.61596161628901
 30
0.0
 40
4.2000000000000002
 50
89.999961516243786
 51
159.52334764791391
  0
ARC
  5
122
  8
0
 10
204.0
 20
122.815961616289
 30
0.0
 40
4.0
 50
180.0
 51
270.0
  0
LINE
  5
123
  8
0
 10
200.0
 20
127.9907028271834
 30
0.0
 11
200.0
 21
122.815961616289
 31
0.0
  0
LINE
  5
124
  8
0
 10
271.433409783017
 20
144.1159616162893
 30
0.0
 11
288.56659021698277
 21
144.1159616162893
 31
0.0
  0
LINE
  5
125
  8
0
  6
PHA-05
 10
268.49999999999977
 20
173.1159616162893
 30
0.0
 11
291.5
 21
173.1159616162893
 31
0.0
  0
LINE
  5
126
  8
0
 10
287.49999999999989
 20
143.81596161628929
 30
0.0
 11
287.49999999999989
 21
144.1159616162893
 31
0.0
  0
LINE
  5
127
  8
0
 10
272.49999999999977
 20
143.81596161628929
 30
0.0
 11
272.49999999999977
 21
144.1159616162893
 31
0.0
  0
LINE
  5
128
  8
0
 10
291.49999999999977
 20
173.1159616162893
 30
0.0
 11
291.49999999999977
 21
206.16646639572809
 31
0.0
  0
LINE
  5
129
  8
0
 10
268.49999999999977
 20
173.1159616162893
 30
0.0
 11
268.49999999999977
 21
206.16646639572809
 31
0.0
  0
LINE
  5
12A
  8
0
 10
289.5642205454057
 20
145.0471595246739
 30
0.0
 11
291.49999999999977
 21
173.1159616162893
 31
0.0
  0
LINE
  5
12B
  8
0
 10
270.43577945459413
 20
145.04715952467399
 30
0.0
 11
268.49999999999977
 21
173.1159616162893
 31
0.0
  0
ARC
  5
12C
  8
0
  6
PHA-05
 10
279.99999999999977
 20
159.1159616162893
 30
0.0
 40
50.0
 50
78.584842257269514
 51
101.4151577427305
  0
ARC
  5
12D
  8
0
 10
288.56659021698277
 20
145.1159616162893
 30
0.0
 40
1.0
 50
269.99999999999989
 51
356.05481377096231
  0
ARC
  5
12E
  8
0
 10
271.433409783017
 20
145.1159616162893
 30
0.0
 40
1.0
 50
183.9451862290376
 51
269.99999999999977
  0
LINE
  5
12F
  8
0
  6
PHA-05
 10
289.08295106229252
 20
207.77549305669669
 30
0.0
 11
270.91704893770759
 21
207.7754930566968
 31
0.0
  0
ARC
  5
130
  8
0
 10
289.49999999999989
 20
206.16646639572809
 30
0.0
 40
2.0
 50
0.0000000000000368
 51
78.584842257270338
  0
ARC
  5
131
  8
0
 10
270.49999999999977
 20
206.16646639572809
 30
0.0
 40
2.0
 50
101.4151577427307
 51
180.0
  0
LINE
  5
132
  8
1
 10
266.99999999999989
 20
134.81596161628929
 30
0.0
 11
292.99999999999989
 21
134.81596161628929
 31
0.0
  0
LINE
  5
133
  8
0
 10
206.6999999999999
 20
143.81596161628929
 30
0.0
 11
353.29999809265132
 21
143.81596161628929
 31
0.0
  0
LINE
  5
134
  8
2
 10
267.49999999999989
 20
120.8159616162893
 30
0.0
 11
292.49999999999989
 21
120.8159616162894
 31
0.0
  0
LINE
  5
135
  8
2
 10
299.99999999999989
 20
98.245226231446622
 30
0.0
 11
299.99999999999989
 21
120.91596161628939
 31
0.0
  0
LINE
  5
136
  8
2
 10
259.99999999999989
 20
98.245226231446566
 30
0.0
 11
259.99999999999989
 21
120.91596161628929
 31
0.0
  0
LINE
  5
137
  8
2
 10
292.49999999999989
 20
122.1159616162893
 30
0.0
 11
292.49999999999989
 21
119.8159616162894
 31
0.0
  0
LINE
  5
138
  8
2
 10
286.99999999999989
 20
119.8159616162894
 30
0.0
 11
286.99999999999989
 21
92.815961616289428
 31
0.0
  0
LINE
  5
139
  8
2
 10
292.99999999999989
 20
119.8159616162894
 30
0.0
 11
292.99999999999989
 21
93.115961616289439
 31
0.0
  0
LINE
  5
13A
  8
0
 10
299.99999999999989
 20
98.245226231446736
 30
0.0
 11
299.99999999999989
 21
93.115961616289397
 31
0.0
  0
LINE
  5
13B
  8
2
 10
299.99999999999989
 20
120.91596161628939
 30
0.0
 11
298.7999999999999
 21
122.1159616162893
 31
0.0
  0
LINE
  5
13C
  8
2
 10
267.49999999999989
 20
122.1159616162893
 30
0.0
 11
298.7999999999999
 21
122.1159616162893
 31
0.0
  0
LINE
  5
13D
  8
2
 10
261.19999999999999
 20
122.1159616162893
 30
0.0
 11
267.49999999999989
 21
122.1159616162893
 31
0.0
  0
LINE
  5
13E
  8
0
 10
259.99999999999989
 20
98.245226231446679
 30
0.0
 11
259.99999999999989
 21
93.115961616289326
 31
0.0
  0
LINE
  5
13F
  8
0
 10
292.99999999999989
 20
93.115961616289496
 30
0.0
 11
292.99999999999989
 21
92.815961616289428
 31
0.0
  0
LINE
  5
140
  8
0
 10
299.99999999999989
 20
98.245226231446736
 30
0.0
 11
299.99999999999989
 21
93.115961616289496
 31
0.0
  0
LINE
  5
141
  8
0
 10
301.14999999999992
 20
94.815961616289414
 30
0.0
 11
294.14999999999981
 21
94.815961616289414
 31
0.0
  0
LINE
  5
142
  8
0
 10
292.99999999999989
 20
92.815961616289428
 30
0.0
 11
266.99999999999989
 21
92.815961616289385
 31
0.0
  0
LINE
  5
143
  8
0
 10
259.99999999999989
 20
93.115961616289212
 30
0.0
 11
299.99999999999989
 21
93.115961616289496
 31
0.0
  0
LINE
  5
144
  8
2
 10
259.99999999999989
 20
120.91596161628929
 30
0.0
 11
261.19999999999999
 21
122.1159616162893
 31
0.0
  0
LINE
  5
145
  8
2
 10
266.99999999999989
 20
119.8159616162894
 30
0.0
 11
272.99999999999989
 21
119.8159616162894
 31
0.0
  0
LINE
  5
146
  8
2
 10
267.49999999999989
 20
122.1159616162893
 30
0.0
 11
267.49999999999989
 21
119.8159616162893
 31
0.0
  0
LINE
  5
147
  8
2
 10
272.88454355303708
 20
119.8159616162894
 30
0.0
 11
292.99999999999989
 21
119.8159616162894
 31
0.0
  0
LINE
  5
148
  8
2
 10
272.99999999999989
 20
119.8159616162894
 30
0.0
 11
272.99999999999989
 21
92.815961616289428
 31
0.0
  0
LINE
  5
149
  8
2
 10
266.99999999999989
 20
119.8159616162893
 30
0.0
 11
266.99999999999989
 21
93.115961616289098
 31
0.0
  0
LINE
  5
14A
  8
0
 10
258.85000000000002
 20
118.8159616162893
 30
0.0
 11
258.84999999999991
 21
94.815961616289371
 31
0.0
  0
LINE
  5
14B
  8
0
 10
301.14999999999981
 20
118.8159616162893
 30
0.0
 11
301.14999999999981
 21
94.815961616289485
 31
0.0
  0
LINE
  5
14C
  8
0
 10
294.14999999999992
 20
112.6653216018598
 30
0.0
 11
265.84999999999991
 21
112.6653216018598
 31
0.0
  0
LINE
  5
14D
  8
0
 10
265.85000000000002
 20
118.8159616162893
 30
0.0
 11
265.84999999999991
 21
94.815961616289371
 31
0.0
  0
LINE
  5
14E
  8
0
 10
294.14999999999981
 20
118.8159616162893
 30
0.0
 11
294.14999999999981
 21
94.815961616289485
 31
0.0
  0
LINE
  5
14F
  8
0
 10
265.8499999999998
 20
94.815961616289371
 30
0.0
 11
258.8499999999998
 21
94.815961616289414
 31
0.0
  0
LINE
  5
150
  8
0
 10
267.0
 20
93.115961616289155
 30
0.0
 11
266.99999999999989
 21
92.815961616289385
 31
0.0
  0
ENDSEC
  0
EOF
