  0
SECTION
  2
HEADER
  9
$ACADVER
  1
AC1009
  9
$INSBASE
 10
0.0
 20
0.0
 30
0.0
  9
$EXTMIN
 10
49.987794773173171
 20
109.9841322446989
 30
-0.0015258207003583
  9
$EXTMAX
 10
670.02868817656815
 20
412.01202503406921
 30
0.0000000349246037
  9
$LIMMIN
 10
0.0
 20
0.0
  9
$LIMMAX
 10
750.0
 20
540.0
  9
$ORTHOMODE
 70
     1
  9
$REGENMODE
 70
     1
  9
$FILLMODE
 70
     1
  9
$QTEXTMODE
 70
     0
  9
$MIRRTEXT
 70
     0
  9
$DRAGMODE
 70
     2
  9
$LTSCALE
 40
20.0
  9
$OSMODE
 70
   231
  9
$ATTMODE
 70
     1
  9
$TEXTSIZE
 40
0.2
  9
$TRACEWID
 40
0.05
  9
$TEXTSTYLE
  7
STANDARD
  9
$CLAYER
  8
0
  9
$CELTYPE
  6
BYLAYER
  9
$CECOLOR
 62
   256
  9
$DIMSCALE
 40
2.0
  9
$DIMASZ
 40
3.0
  9
$DIMEXO
 40
2.0
  9
$DIMDLI
 40
0.38
  9
$DIMRND
 40
0.0
  9
$DIMDLE
 40
0.0
  9
$DIMEXE
 40
2.0
  9
$DIMTP
 40
0.0
  9
$DIMTM
 40
0.0
  9
$DIMTXT
 40
3.2000000000000002
  9
$DIMCEN
 40
0.0
  9
$DIMTSZ
 40
0.0
  9
$DIMTOL
 70
     0
  9
$DIMLIM
 70
     0
  9
$DIMTIH
 70
     0
  9
$DIMTOH
 70
     0
  9
$DIMSE1
 70
     0
  9
$DIMSE2
 70
     0
  9
$DIMTAD
 70
     1
  9
$DIMZIN
 70
     0
  9
$DIMBLK
  1

  9
$DIMASO
 70
     1
  9
$DIMSHO
 70
     0
  9
$DIMPOST
  1

  9
$DIMAPOST
  1

  9
$DIMALT
 70
     0
  9
$DIMALTD
 70
     2
  9
$DIMALTF
 40
25.399999999999999
  9
$DIMLFAC
 40
1.0
  9
$DIMTOFL
 70
     1
  9
$DIMTVP
 40
1.6000000000000001
  9
$DIMTIX
 70
     1
  9
$DIMSOXD
 70
     0
  9
$DIMSAH
 70
     0
  9
$DIMBLK1
  1

  9
$DIMBLK2
  1

  9
$DIMSTYLE
  2
STANDARD
  9
$DIMCLRD
 70
     0
  9
$DIMCLRE
 70
     0
  9
$DIMCLRT
 70
     0
  9
$DIMTFAC
 40
1.0
  9
$DIMGAP
 40
0.09
  9
$LUNITS
 70
     2
  9
$LUPREC
 70
     4
  9
$SKETCHINC
 40
0.1
  9
$FILLETRAD
 40
3.0
  9
$AUNITS
 70
     0
  9
$AUPREC
 70
     4
  9
$MENU
  1
E:\r13\win\SUPPORT\ACAD
  9
$ELEVATION
 40
0.0
  9
$PELEVATION
 40
0.0
  9
$THICKNESS
 40
0.0
  9
$LIMCHECK
 70
     0
  9
$BLIPMODE
 70
     1
  9
$CHAMFERA
 40
0.0
  9
$CHAMFERB
 40
0.0
  9
$SKPOLY
 70
     0
  9
$TDCREATE
 40
2449839.7801157408
  9
$TDUPDATE
 40
2453236.7744957982
  9
$TDINDWG
 40
0.0001906134
  9
$TDUSRTIMER
 40
0.0001906134
  9
$USRTIMER
 70
     1
  9
$ANGBASE
 50
0.0
  9
$ANGDIR
 70
     0
  9
$PDMODE
 70
     0
  9
$PDSIZE
 40
0.0
  9
$PLINEWID
 40
0.0
  9
$COORDS
 70
     0
  9
$SPLFRAME
 70
     0
  9
$SPLINETYPE
 70
     6
  9
$SPLINESEGS
 70
     8
  9
$ATTDIA
 70
     0
  9
$ATTREQ
 70
     1
  9
$HANDLING
 70
-16383
  9
$HANDSEED
  5
205
  9
$SURFTAB1
 70
     6
  9
$SURFTAB2
 70
     6
  9
$SURFTYPE
 70
     6
  9
$SURFU
 70
     6
  9
$SURFV
 70
     6
  9
$UCSNAME
  2

  9
$UCSORG
 10
0.0
 20
0.0
 30
0.0
  9
$UCSXDIR
 10
1.0
 20
0.0
 30
0.0
  9
$UCSYDIR
 10
0.0
 20
1.0
 30
0.0
  9
$PUCSNAME
  2

  9
$PUCSORG
 10
0.0
 20
0.0
 30
0.0
  9
$PUCSXDIR
 10
1.0
 20
0.0
 30
0.0
  9
$PUCSYDIR
 10
0.0
 20
1.0
 30
0.0
  9
$USERI1
 70
     0
  9
$USERI2
 70
     1
  9
$USERI3
 70
     1
  9
$USERI4
 70
     0
  9
$USERI5
 70
     0
  9
$USERR1
 40
0.0
  9
$USERR2
 40
0.0
  9
$USERR3
 40
0.0
  9
$USERR4
 40
0.0
  9
$USERR5
 40
0.0
  9
$WORLDVIEW
 70
     1
  9
$SHADEDGE
 70
     3
  9
$SHADEDIF
 70
    70
  9
$TILEMODE
 70
     1
  9
$MAXACTVP
 70
    16
  9
$PLIMCHECK
 70
     0
  9
$PEXTMIN
 10
1.0000000000000000E+020
 20
1.0000000000000000E+020
 30
1.0000000000000000E+020
  9
$PEXTMAX
 10
-1.0000000000000000E+020
 20
-1.0000000000000000E+020
 30
-1.0000000000000000E+020
  9
$PLIMMIN
 10
0.0
 20
0.0
  9
$PLIMMAX
 10
12.0
 20
9.0
  9
$UNITMODE
 70
     0
  9
$VISRETAIN
 70
     0
  9
$PLINEGEN
 70
     0
  9
$PSLTSCALE
 70
     0
  0
ENDSEC
  0
SECTION
  2
TABLES
  0
TABLE
  2
VPORT
 70
     3
  0
VPORT
  2
*ACTIVE
 70
     0
 10
0.0
 20
0.0
 11
1.0
 21
1.0
 12
360.00824147487072
 22
260.998078639384
 13
0.0
 23
0.0
 14
20.0
 24
20.0
 15
20.0
 25
20.0
 16
0.0
 26
0.0
 36
1.0
 17
0.0
 27
0.0
 37
0.0
 40
738.50069892180534
 41
0.9407114624505927
 42
50.0
 43
0.0
 44
0.0
 50
0.0
 51
0.0
 71
     0
 72
   500
 73
     1
 74
     0
 75
     0
 76
     0
 77
     0
 78
     2
  0
ENDTAB
  0
TABLE
  2
LTYPE
 70
     4
  0
LTYPE
  2
CONTINUOUS
 70
     0
  3
Solid Line
 72
    65
 73
     0
 40
0.0
  0
LTYPE
  2
CENTER
 70
     0
  3
____ _ ____ _ ____ _ ____ _ ____ _ ____ _ ____
 72
    65
 73
     4
 40
2.0
 49
1.25
 49
-0.25
 49
0.25
 49
-0.25
  0
LTYPE
  2
PHA-05
 70
     0
  3
_____ _ _ _____ _ _ _____ _ _ _____ _ _ ____
 72
    65
 73
     6
 40
1.25
 49
0.625
 49
-0.125
 49
0.125
 49
-0.125
 49
0.125
 49
-0.125
  0
LTYPE
  2
HIDDEN
 70
     0
  3
_ _ _ _ _ _ _ _ _ _ _ _ _ _ _ _ _ _ _ _ _ _ _
 72
    65
 73
     2
 40
0.375
 49
0.25
 49
-0.125
  0
ENDTAB
  0
TABLE
  2
LAYER
 70
     3
  0
LAYER
  2
0
 70
     0
 62
     7
  6
CONTINUOUS
  0
LAYER
  2
1
 70
     0
 62
     1
  6
CENTER
  0
LAYER
  2
2
 70
     0
 62
     2
  6
HIDDEN
  0
ENDTAB
  0
TABLE
  2
STYLE
 70
     1
  0
STYLE
  2
STANDARD
 70
     0
 40
0.0
 41
1.0
 50
0.0
 71
     0
 42
0.2
  3
TXT
  4
BIGFONT
  0
ENDTAB
  0
TABLE
  2
VIEW
 70
     1
  0
VIEW
  2
ALL
 70
     0
 40
540.0
 10
441.98319327731087
 20
270.0
 41
0.0
 11
0.0
 21
0.0
 31
1.0
 12
0.0
 22
0.0
 32
0.0
 42
0.0
 43
0.0
 44
0.0
 50
0.0
 71
     0
  0
ENDTAB
  0
TABLE
  2
UCS
 70
     0
  0
ENDTAB
  0
TABLE
  2
APPID
 70
     1
  0
APPID
  2
ACAD
 70
     0
  0
ENDTAB
  0
TABLE
  2
DIMSTYLE
 70
     1
  0
DIMSTYLE
  2
STANDARD
 70
     0
  3

  4

  5

  6

  7

 40
1.0
 41
0.18
 42
0.0625
 43
0.38
 44
0.18
 45
0.0
 46
0.0
 47
0.0
 48
0.0
140
0.18
141
0.09
142
0.0
143
25.399999999999999
144
1.0
145
0.0
146
1.0
147
0.09
 71
     0
 72
     0
 73
     1
 74
     1
 75
     0
 76
     0
 77
     0
 78
     0
170
     0
171
     2
172
     0
173
     0
174
     0
175
     0
176
     0
177
     0
178
     0
  0
ENDTAB
  0
ENDSEC
  0
SECTION
  2
BLOCKS
  0
BLOCK
  8
0
  2
$MODEL_SPACE
 70
     0
 10
0.0
 20
0.0
 30
0.0
  3
$MODEL_SPACE
  1

  0
ENDBLK
  5
1AD
  8
0
  0
BLOCK
 67
     1
  8
0
  2
$PAPER_SPACE
 70
     0
 10
0.0
 20
0.0
 30
0.0
  3
$PAPER_SPACE
  1

  0
ENDBLK
  5
1AB
 67
     1
  8
0
  0
ENDSEC
  0
SECTION
  2
ENTITIES
  0
CIRCLE
  5
36
  8
0
 10
500.0
 20
340.0
 30
0.0
 40
62.0
  0
LINE
  5
37
  8
1
 10
428.0
 20
340.0
 30
0.0
 11
572.0
 21
340.0
 31
0.0
  0
LINE
  5
38
  8
1
 10
500.0
 20
412.0
 30
0.0
 11
500.0
 21
268.0
 31
0.0
  0
LINE
  5
39
  8
1
 10
665.0
 20
340.0
 30
0.0
 11
605.99999999999955
 21
340.0
 31
0.0
  0
LINE
  5
3A
  8
0
 10
516.0
 20
382.33202097703349
 30
0.0
 11
516.0
 21
297.66797678640188
 31
0.0
  0
LINE
  5
3B
  8
0
 10
484.0
 20
382.33202097703349
 30
0.0
 11
484.0
 21
297.66797902296651
 31
0.0
  0
ARC
  5
3C
  8
0
 10
482.0
 20
382.33202097703349
 30
0.0
 40
2.0
 50
0.0000000000000254
 51
113.0356841059411
  0
ARC
  5
3D
  8
0
 10
518.0
 20
382.33202097703349
 30
0.0
 40
2.0
 50
66.964315894058885
 51
180.0
  0
ARC
  5
3E
  8
0
 10
518.0
 20
297.66797902296651
 30
0.0
 40
2.0
 50
180.0
 51
293.03568410594119
  0
ARC
  5
3F
  8
0
 10
482.0
 20
297.66797902296651
 30
0.0
 40
2.0
 50
246.9643158940589
 51
0.0
  0
ARC
  5
40
  8
0
 10
500.0
 20
340.0
 30
0.0
 40
48.0
 50
293.03568373556129
 51
66.964316264438793
  0
ARC
  5
41
  8
0
 10
500.0
 20
340.0
 30
0.0
 40
15.5
 50
317.89655112925408
 51
43.399004931884463
  0
ARC
  5
42
  8
0
 10
500.0
 20
340.0
 30
0.0
 40
14.5
 50
322.47648679788603
 51
38.317353063914901
  0
LINE
  5
43
  8
1
 10
482.0
 20
387.0
 30
0.0
 11
518.0
 21
387.0
 31
0.0
  0
ARC
  5
44
  8
0
 10
500.0
 20
387.0
 30
0.0
 40
8.0
 50
298.9550243718611
 51
241.044975628142
  0
ARC
  5
45
  8
0
 10
500.0
 20
387.0
 30
0.0
 40
5.0
 50
292.95449940139372
 51
247.0455005986048
  0
ARC
  5
46
  8
0
 10
500.0
 20
394.5
 30
0.0
 40
15.0
 50
284.83511158197871
 51
329.9241000040264
  0
LINE
  5
47
  8
0
 10
492.49999999999989
 20
376.5
 30
0.0
 11
507.5
 21
376.5
 31
0.0
  0
LINE
  5
48
  8
0
 10
504.69999999999987
 20
380.0
 30
0.0
 11
505.0
 21
376.5
 31
0.0
  0
LINE
  5
49
  8
0
 10
495.30000000000001
 20
380.0
 30
0.0
 11
495.0
 21
376.5
 31
0.0
  0
LINE
  5
4A
  8
0
 10
495.2999999999999
 20
379.99999999999972
 30
0.0
 11
504.69999999999987
 21
380.0
 31
0.0
  0
ARC
  5
4B
  8
0
 10
500.0
 20
394.5
 30
0.0
 40
15.0
 50
210.07589999597349
 51
255.16488841802399
  0
LINE
  5
4C
  8
0
 10
491.43340978301711
 20
376.19999999999999
 30
0.0
 11
508.56659021698277
 21
376.19999999999999
 31
0.0
  0
LINE
  5
4D
  8
0
 10
507.5
 20
376.5
 30
0.0
 11
507.5
 21
376.19999999999999
 31
0.0
  0
LINE
  5
4E
  8
0
 10
492.49999999999989
 20
376.5
 30
0.0
 11
492.49999999999989
 21
376.19999999999999
 31
0.0
  0
ARC
  5
4F
  8
0
 10
500.0
 20
361.19999999999999
 30
0.0
 40
50.000000000000028
 50
258.58484225726949
 51
281.4151577427304
  0
LINE
  5
50
  8
0
 10
511.5
 20
347.19999999999987
 30
0.0
 11
511.5
 21
314.14949522056122
 31
0.0
  0
LINE
  5
51
  8
0
 10
488.49999999999989
 20
347.19999999999987
 30
0.0
 11
488.49999999999989
 21
314.14949522056122
 31
0.0
  0
LINE
  5
52
  8
0
 10
488.49999999999989
 20
347.19999999999987
 30
0.0
 11
511.5
 21
347.19999999999999
 31
0.0
  0
LINE
  5
53
  8
0
 10
509.0829510622923
 20
312.54046855959251
 30
0.0
 11
490.91704893770742
 21
312.54046855959263
 31
0.0
  0
ARC
  5
54
  8
0
 10
509.49999999999989
 20
314.14949522056122
 30
0.0
 40
2.0
 50
281.41515774272932
 51
0.0000000000000254
  0
ARC
  5
55
  8
0
 10
490.5
 20
314.14949522056122
 30
0.0
 40
2.0
 50
180.0
 51
258.58484225726988
  0
LINE
  5
56
  8
0
 10
511.5
 20
347.19999999999999
 30
0.0
 11
509.56422054540582
 21
375.26880209161533
 31
0.0
  0
LINE
  5
57
  8
0
 10
488.49999999999989
 20
347.19999999999987
 30
0.0
 11
490.43577945459413
 21
375.26880209161533
 31
0.0
  0
ARC
  5
58
  8
0
 10
491.43340978301711
 20
375.19999999999987
 30
0.0
 40
1.0
 50
90.000000000000071
 51
176.0548137709624
  0
ARC
  5
59
  8
0
 10
508.56659021698277
 20
375.19999999999999
 30
0.0
 40
1.0
 50
3.9451862290376258
 51
90.000000000000114
  0
ARC
  5
5A
  8
0
 10
500.0
 20
340.0
 30
0.0
 40
14.5
 50
141.68264693608441
 51
217.5235132021119
  0
ARC
  5
5B
  8
0
 10
500.0
 20
340.0
 30
0.0
 40
15.5
 50
136.60099506811511
 51
222.10344887074419
  0
LINE
  5
5C
  8
0
 10
501.94999999999999
 20
391.6040742826325
 30
0.0
 11
501.94999999999999
 21
379.99999999999989
 31
0.0
  0
LINE
  5
5D
  8
0
 10
498.05000000000001
 20
391.60407428263289
 30
0.0
 11
498.05000000000001
 21
379.99999999999977
 31
0.0
  0
LINE
  5
5E
  8
0
 10
501.94999999999987
 20
391.6040742826325
 30
0.0
 11
498.05000000000001
 21
391.60407428263289
 31
0.0
  0
LINE
  5
5F
  8
1
 10
605.99999999999955
 20
387.0
 30
0.0
 11
635.74764129949131
 21
387.0
 31
0.0
  0
LINE
  5
60
  8
1
 10
648.0
 20
388.0
 30
0.0
 11
618.0
 21
388.0
 31
0.0
  0
LINE
  5
61
  8
0
 10
638.0
 20
282.0
 30
0.0
 11
638.0
 21
398.0
 31
0.0
  0
ARC
  5
62
  8
0
 10
634.0
 20
282.0
 30
0.0
 40
4.0
 50
275.01507015954161
 51
0.0
  0
ARC
  5
63
  8
0
 10
619.0999999999998
 20
282.5
 30
0.0
 40
3.1000000000000001
 50
179.99994861096181
 51
254.331655166128
  0
ARC
  5
64
  8
0
 10
630.41587387623258
 20
322.84304151173029
 30
0.0
 40
45.0
 50
254.33165241338509
 51
275.01506783171862
  0
ARC
  5
65
  8
0
 10
630.41587387623258
 20
357.15695848826959
 30
0.0
 40
45.0
 50
84.984932168281347
 51
105.6683475866148
  0
ARC
  5
66
  8
0
 10
619.0999999999998
 20
397.5
 30
0.0
 40
3.1000000000000001
 50
105.6683448338719
 51
180.00005138903811
  0
ARC
  5
67
  8
0
 10
634.0
 20
398.0
 30
0.0
 40
4.0
 50
0.0
 51
84.984929840458435
  0
ARC
  5
68
  8
0
 10
500.0
 20
340.0
 30
0.0
 40
49.5
 50
106.587563167231
 51
73.412436832769032
  0
ARC
  5
69
  8
0
 10
500.0
 20
340.0
 30
0.0
 40
48.0
 50
113.03568447632141
 51
246.96431552367849
  0
ARC
  5
6A
  8
0
 10
513.84579666708817
 20
386.48165137614677
 30
0.0
 40
1.0
 50
73.412436832769444
 51
149.92410000402691
  0
ARC
  5
6B
  8
0
 10
486.15420333291178
 20
386.48165137614677
 30
0.0
 40
1.0
 50
30.075899995974488
 51
106.5875631672306
  0
LINE
  5
6C
  8
1
 10
622.49999999999955
 20
400.00000000000222
 30
0.0
 11
622.49999999999955
 21
306.19999999999987
 31
0.0
  0
LINE
  5
6D
  8
0
 10
615.99999999999955
 20
397.50000762939447
 30
0.0
 11
615.99999999999955
 21
282.50000134869907
 31
0.0
  0
CIRCLE
  5
6E
  8
0
 10
500.0
 20
340.0
 30
0.0
 40
57.499997219585481
  0
LINE
  5
6F
  8
0
 10
614.99999999999955
 20
376.5
 30
0.0
 11
615.99999999999955
 21
376.5
 31
0.0
  0
LINE
  5
70
  8
0
 10
613.9334097830166
 20
376.19999999999999
 30
0.0
 11
615.99999999999955
 21
376.19999999999987
 31
0.0
  0
LINE
  5
71
  8
0
 10
614.99999999999955
 20
376.5
 30
0.0
 11
614.99999999999955
 21
376.19999999999999
 31
0.0
  0
ARC
  5
72
  8
0
 10
622.49999999999955
 20
361.19999999999999
 30
0.0
 40
50.000000000000028
 50
258.58484225726949
 51
262.53040768358289
  0
LINE
  5
73
  8
0
 10
610.99999999999955
 20
347.19999999999987
 30
0.0
 11
610.99999999999955
 21
314.14949522056122
 31
0.0
  0
LINE
  5
74
  8
0
 10
610.99999999999955
 20
347.19999999999987
 30
0.0
 11
615.99999999999955
 21
347.19999999999987
 31
0.0
  0
LINE
  5
75
  8
0
 10
615.99999999999955
 20
312.54046855959251
 30
0.0
 11
613.41704893770702
 21
312.54046855959263
 31
0.0
  0
ARC
  5
76
  8
0
 10
612.99999999999955
 20
314.14949522056122
 30
0.0
 40
2.0
 50
180.0
 51
258.58484225726988
  0
LINE
  5
77
  8
0
 10
610.99999999999955
 20
347.19999999999987
 30
0.0
 11
612.93577945459378
 21
375.26880209161533
 31
0.0
  0
ARC
  5
78
  8
0
 10
613.9334097830166
 20
375.19999999999987
 30
0.0
 40
1.0
 50
90.000000000000071
 51
176.0548137709624
  0
LINE
  5
79
  8
0
 10
511.00000000000011
 20
137.55724845889461
 30
0.0
 11
489.0
 21
137.55724845889461
 31
0.0
  0
LINE
  5
7A
  8
0
 10
489.0
 20
122.8500000000009
 30
0.0
 11
484.0
 21
122.8500000000009
 31
0.0
  0
LINE
  5
7B
  8
0
 10
511.0
 20
142.00000000000071
 30
0.0
 11
511.0
 21
122.8500000000009
 31
0.0
  0
LINE
  5
7C
  8
0
 10
489.0
 20
140.8651079136699
 30
0.0
 11
489.0
 21
122.8500000000009
 31
0.0
  0
LINE
  5
7D
  8
0
 10
515.5
 20
120.30000000000079
 30
0.0
 11
515.5
 21
122.8500000000009
 31
0.0
  0
LINE
  5
7E
  8
0
 10
484.49999999999989
 20
120.30000000000091
 30
0.0
 11
484.49999999999989
 21
122.8500000000009
 31
0.0
  0
LINE
  5
7F
  8
0
 10
516.0
 20
142.00000000000071
 30
0.0
 11
516.0
 21
122.8500000000009
 31
0.0
  0
LINE
  5
80
  8
0
 10
484.0
 20
142.00000000000071
 30
0.0
 11
484.0
 21
122.8500000000009
 31
0.0
  0
LINE
  5
81
  8
1
 10
500.0
 20
179.00000000000111
 30
0.0
 11
500.0
 21
110.0000000000008
 31
0.0
  0
LINE
  5
82
  8
1
 10
500.0
 20
124.12545336757741
 30
0.0
 11
500.0
 21
110.0000000000007
 31
0.0
  0
LINE
  5
83
  8
0
 10
558.0
 20
142.00000000000071
 30
0.0
 11
441.99999237060541
 21
142.00000000000071
 31
0.0
  0
ARC
  5
84
  8
0
 10
558.0
 20
146.00000000000071
 30
0.0
 40
4.0
 50
270.0
 51
0.0
  0
ARC
  5
85
  8
0
 10
557.5
 20
160.9000000000008
 30
0.0
 40
3.1000000000000001
 50
15.668344833871981
 51
90.000051389038092
  0
ARC
  5
86
  8
0
 10
517.15695848826965
 20
149.58412612376819
 30
0.0
 40
45.0
 50
354.98493216828132
 51
15.66834758661488
  0
ARC
  5
87
  8
0
 10
482.84304151173029
 20
149.58412612376819
 30
0.0
 40
45.0
 50
164.33165241338509
 51
185.0150678317186
  0
ARC
  5
88
  8
0
 10
442.49999999999989
 20
160.9000000000008
 30
0.0
 40
3.1000000000000001
 50
89.999948610961852
 51
164.331655166128
  0
ARC
  5
89
  8
0
 10
442.0
 20
146.00000000000071
 30
0.0
 40
4.0
 50
180.0
 51
270.0
  0
LINE
  5
8A
  8
0
 10
442.0
 20
142.00000000000071
 30
0.0
 11
442.75
 21
142.00000000000071
 31
0.0
  0
LINE
  5
8B
  8
0
 10
489.0
 20
120.30000000000101
 30
0.0
 11
489.0
 21
120.0000000000007
 31
0.0
  0
LINE
  5
8C
  8
2
 10
489.5
 20
145.00000000000071
 30
0.0
 11
489.5
 21
142.00000000000071
 31
0.0
  0
LINE
  5
8D
  8
2
 10
484.49999999999989
 20
144.00000000000071
 30
0.0
 11
485.5
 21
145.00000000000071
 31
0.0
  0
LINE
  5
8E
  8
0
 10
494.0
 20
142.00000000000071
 30
0.0
 11
500.0
 21
142.00000000000071
 31
0.0
  0
LINE
  5
8F
  8
0
 10
442.49999999999989
 20
164.0000000000004
 30
0.0
 11
557.49999865130087
 21
164.00000000000111
 31
0.0
  0
LINE
  5
90
  8
0
 10
516.0
 20
122.8500000000009
 30
0.0
 11
511.0
 21
122.850000000001
 31
0.0
  0
LINE
  5
91
  8
0
 10
511.0
 20
120.0000000000008
 30
0.0
 11
489.0
 21
120.0000000000006
 31
0.0
  0
LINE
  5
92
  8
2
 10
485.5
 20
145.00000000000071
 30
0.0
 11
514.5
 21
145.00000000000071
 31
0.0
  0
LINE
  5
93
  8
0
 10
457.90181138438038
 20
142.00000000000071
 30
0.0
 11
458.0656118946535
 21
142.0000000000008
 31
0.0
  0
LINE
  5
94
  8
0
 10
489.0
 20
142.00000000000071
 30
0.0
 11
489.5
 21
142.00000000000071
 31
0.0
  0
LINE
  5
95
  8
0
 10
489.5
 20
142.00000000000071
 30
0.0
 11
494.0
 21
142.0000000000008
 31
0.0
  0
LINE
  5
96
  8
0
 10
511.0
 20
120.30000000000079
 30
0.0
 11
511.0
 21
120.0000000000007
 31
0.0
  0
LINE
  5
97
  8
0
 10
484.49999999999989
 20
120.30000000000091
 30
0.0
 11
515.5
 21
120.30000000000079
 31
0.0
  0
LINE
  5
98
  8
2
 10
515.5
 20
144.00000000000071
 30
0.0
 11
514.5
 21
145.00000000000071
 31
0.0
  0
LINE
  5
99
  8
0
 10
515.5
 20
120.30000000000079
 30
0.0
 11
515.5
 21
125.8960271623274
 31
0.0
  0
LINE
  5
9A
  8
2
 10
510.5
 20
145.00000000000071
 30
0.0
 11
510.5
 21
142.00000000000071
 31
0.0
  0
LINE
  5
9B
  8
2
 10
489.5
 20
143.00000000000071
 30
0.0
 11
510.5
 21
143.00000000000071
 31
0.0
  0
LINE
  5
9C
  8
2
 10
515.5
 20
122.8500000000009
 30
0.0
 11
515.5
 21
144.00000000000071
 31
0.0
  0
LINE
  5
9D
  8
2
 10
511.0
 20
120.30000000000091
 30
0.0
 11
511.0
 21
142.00000000000071
 31
0.0
  0
LINE
  5
9E
  8
2
 10
506.0
 20
120.0000000000008
 30
0.0
 11
506.0
 21
142.00000000000071
 31
0.0
  0
LINE
  5
9F
  8
2
 10
494.0
 20
120.0000000000007
 30
0.0
 11
494.0
 21
142.00000000000071
 31
0.0
  0
LINE
  5
A0
  8
2
 10
489.0
 20
120.30000000000101
 30
0.0
 11
489.0
 21
142.00000000000071
 31
0.0
  0
LINE
  5
A1
  8
2
 10
484.49999999999989
 20
122.8500000000009
 30
0.0
 11
484.49999999999989
 21
144.00000000000071
 31
0.0
  0
ARC
  5
A9
  8
0
 10
280.0
 20
340.0
 30
0.0
 40
57.499997219585481
 50
95.171292796317971
 51
84.828707203682015
  0
ARC
  5
AA
  8
0
 10
266.15420333291172
 20
386.48165137614677
 30
0.0
 40
1.0
 50
30.075899995974488
 51
106.5875631672306
  0
ARC
  5
AB
  8
0
 10
293.84579666708822
 20
386.48165137614677
 30
0.0
 40
1.0
 50
73.412436832769444
 51
149.92410000402691
  0
ARC
  5
AC
  8
0
 10
280.0
 20
340.0
 30
0.0
 40
48.0
 50
113.03568447632141
 51
246.96431552367849
  0
ARC
  5
AD
  8
0
 10
280.0
 20
340.0
 30
0.0
 40
49.5
 50
106.587563167231
 51
73.412436832769032
  0
ARC
  5
AE
  8
0
 10
280.0
 20
394.5
 30
0.0
 40
15.0
 50
210.07589999597349
 51
221.4695731036191
  0
ARC
  5
AF
  8
0
 10
280.0
 20
394.5
 30
0.0
 40
15.0
 50
318.53042689638079
 51
329.9241000040264
  0
LINE
  5
B0
  8
1
 10
258.49999999999989
 20
387.0
 30
0.0
 11
301.5
 21
387.0
 31
0.0
  0
ARC
  5
B1
  8
0
 10
280.0
 20
340.0
 30
0.0
 40
48.0
 50
293.03568373556129
 51
66.964316264438793
  0
ARC
  5
B2
  8
0
 10
262.0
 20
297.66797902296651
 30
0.0
 40
2.0
 50
246.9643158940589
 51
0.0
  0
ARC
  5
B3
  8
0
 10
298.0
 20
297.66797902296651
 30
0.0
 40
2.0
 50
180.0
 51
293.03568410594119
  0
ARC
  5
B4
  8
0
 10
298.0
 20
382.33202097703349
 30
0.0
 40
2.0
 50
66.964315894058885
 51
180.0
  0
ARC
  5
B5
  8
0
 10
262.0
 20
382.33202097703349
 30
0.0
 40
2.0
 50
0.0000000000000254
 51
113.0356841059411
  0
LINE
  5
B6
  8
0
 10
264.0
 20
382.33202097703349
 30
0.0
 11
264.0
 21
297.66797902296651
 31
0.0
  0
LINE
  5
B7
  8
0
 10
296.0
 20
382.33202097703349
 30
0.0
 11
296.0
 21
297.66797678640188
 31
0.0
  0
LINE
  5
B8
  8
1
 10
280.0
 20
412.0
 30
0.0
 11
280.0
 21
268.0
 31
0.0
  0
LINE
  5
B9
  8
1
 10
208.0
 20
340.0
 30
0.0
 11
352.0
 21
340.0
 31
0.0
  0
CIRCLE
  5
BA
  8
0
 10
280.0
 20
340.0
 30
0.0
 40
62.0
  0
LINE
  5
BB
  8
0
 10
104.0000000000004
 20
397.4999972195854
 30
0.0
 11
104.0000000000004
 21
282.50000134869907
 31
0.0
  0
LINE
  5
BC
  8
1
 10
97.500000000000455
 20
400.0
 30
0.0
 11
97.500000000000441
 21
370.0
 31
0.0
  0
ARC
  5
BD
  8
0
 10
86.0
 20
398.0
 30
0.0
 40
4.0
 50
95.015070159541594
 51
180.0
  0
ARC
  5
BE
  8
0
 10
100.90000000000011
 20
397.5
 30
0.0
 40
3.1000000000000001
 50
359.99994861096189
 51
74.33165516612803
  0
ARC
  5
BF
  8
0
 10
89.584126123767419
 20
357.15695848826959
 30
0.0
 40
45.0
 50
74.331652413385129
 51
95.015067831718667
  0
ARC
  5
C0
  8
0
 10
89.584126123767419
 20
322.84304151173029
 30
0.0
 40
45.0
 50
264.98493216828132
 51
285.6683475866148
  0
ARC
  5
C1
  8
0
 10
100.90000000000011
 20
282.5
 30
0.0
 40
3.1000000000000001
 50
285.66834483387203
 51
0.0000513890381187
  0
ARC
  5
C2
  8
0
 10
86.0
 20
282.0
 30
0.0
 40
4.0
 50
180.0
 51
264.98492984045839
  0
LINE
  5
C3
  8
0
 10
82.0
 20
282.0
 30
0.0
 11
82.0
 21
398.0
 31
0.0
  0
LINE
  5
C4
  8
1
 10
72.0
 20
387.99999999999989
 30
0.0
 11
102.0
 21
388.0
 31
0.0
  0
LINE
  5
C5
  8
1
 10
179.3000000000003
 20
387.00000000000011
 30
0.0
 11
84.252358700507529
 21
387.0
 31
0.0
  0
LINE
  5
C6
  8
0
 10
104.3000000000004
 20
395.56659021698277
 30
0.0
 11
104.3000000000004
 21
378.43340978301711
 31
0.0
  0
LINE
  5
C7
  8
0
 10
104.0000000000004
 20
379.49999999999989
 30
0.0
 11
104.3000000000004
 21
379.49999999999989
 31
0.0
  0
LINE
  5
C8
  8
0
 10
104.0000000000004
 20
394.5
 30
0.0
 11
104.3000000000004
 21
394.5
 31
0.0
  0
ARC
  5
C9
  8
0
  6
PHA-05
 10
119.3000000000004
 20
387.0
 30
0.0
 40
50.000000000000028
 50
348.58484225726949
 51
11.415157742730569
  0
LINE
  5
CA
  8
0
 10
133.30000000000041
 20
375.49999999999989
 30
0.0
 11
166.35050477943909
 21
375.49999999999989
 31
0.0
  0
LINE
  5
CB
  8
0
 10
133.30000000000041
 20
398.49999999999989
 30
0.0
 11
166.35050477943909
 21
398.49999999999989
 31
0.0
  0
LINE
  5
CC
  8
0
  6
PHA-05
 10
133.30000000000041
 20
398.49999999999989
 30
0.0
 11
133.30000000000041
 21
375.49999999999989
 31
0.0
  0
LINE
  5
CD
  8
0
  6
PHA-05
 10
167.95953144040769
 20
377.91704893770748
 30
0.0
 11
167.95953144040769
 21
396.08295106229252
 31
0.0
  0
ARC
  5
CE
  8
0
 10
166.35050477943909
 20
377.49999999999989
 30
0.0
 40
2.0
 50
270.0
 51
348.58484225727062
  0
ARC
  5
CF
  8
0
 10
166.35050477943909
 20
396.5
 30
0.0
 40
2.0
 50
11.415157742730059
 51
90.000000000000057
  0
LINE
  5
D0
  8
0
 10
133.30000000000041
 20
375.49999999999989
 30
0.0
 11
105.2311979083849
 21
377.43577945459418
 31
0.0
  0
LINE
  5
D1
  8
0
 10
133.30000000000041
 20
398.49999999999989
 30
0.0
 11
105.2311979083849
 21
396.56422054540582
 31
0.0
  0
ARC
  5
D2
  8
0
 10
105.3000000000004
 20
395.56659021698277
 30
0.0
 40
1.0
 50
93.945186229037574
 51
179.99999999999989
  0
ARC
  5
D3
  8
0
 10
105.3000000000004
 20
378.43340978301711
 30
0.0
 40
1.0
 50
179.99999999999989
 51
266.05481377096243
  0
LINE
  5
D4
  8
1
 10
50.0
 20
340.0
 30
0.0
 11
114.0000000000004
 21
340.0
 31
0.0
  0
LINE
  5
D5
  8
2
 10
654.10397283767281
 20
355.49999999999989
 30
0.0
 11
635.99999999999943
 21
355.49999999999989
 31
0.0
  0
LINE
  5
D6
  8
2
 10
659.69999999999936
 20
350.99999999999977
 30
0.0
 11
637.99999999999943
 21
350.99999999999989
 31
0.0
  0
LINE
  5
D7
  8
2
 10
659.99999999999955
 20
345.99999999999989
 30
0.0
 11
637.99999999999943
 21
345.99999999999989
 31
0.0
  0
LINE
  5
D8
  8
2
 10
659.99999999999955
 20
333.99999999999989
 30
0.0
 11
637.99999999999943
 21
333.99999999999989
 31
0.0
  0
LINE
  5
D9
  8
2
 10
659.69999999999936
 20
328.99999999999989
 30
0.0
 11
637.99999999999943
 21
328.99999999999989
 31
0.0
  0
LINE
  5
DA
  8
2
 10
654.10397283767281
 20
324.49999999999989
 30
0.0
 11
635.99999999999943
 21
324.49999999999989
 31
0.0
  0
LINE
  5
DB
  8
2
 10
636.99999999999943
 20
350.49999999999989
 30
0.0
 11
636.99999999999943
 21
329.49999999999989
 31
0.0
  0
LINE
  5
DC
  8
2
 10
634.99999999999943
 20
329.49999999999989
 30
0.0
 11
637.99999999999943
 21
329.49999999999989
 31
0.0
  0
LINE
  5
DD
  8
0
 10
659.69999999999936
 20
328.99999999999989
 30
0.0
 11
659.99999999999943
 21
328.99999999999989
 31
0.0
  0
LINE
  5
DE
  8
0
 10
659.69999999999936
 20
324.49999999999989
 30
0.0
 11
654.10397283767281
 21
324.49999999999989
 31
0.0
  0
LINE
  5
DF
  8
2
 10
635.99999999999943
 20
324.49999999999989
 30
0.0
 11
634.99999999999943
 21
325.49999999999989
 31
0.0
  0
LINE
  5
E0
  8
0
 10
637.99999999999943
 20
354.35530642257362
 30
0.0
 11
640.01750674703658
 21
339.99999999999989
 31
0.0
  0
LINE
  5
E1
  8
0
 10
659.69999999999925
 20
355.49999999999989
 30
0.0
 11
659.69999999999936
 21
324.49999999999989
 31
0.0
  0
LINE
  5
E2
  8
0
 10
659.69999999999936
 20
328.99999999999989
 30
0.0
 11
659.99999999999943
 21
328.99999999999989
 31
0.0
  0
LINE
  5
E3
  8
0
 10
637.99999999999943
 20
350.49999999999989
 30
0.0
 11
637.99999999999932
 21
345.99999999999989
 31
0.0
  0
LINE
  5
E4
  8
0
 10
637.99999999999943
 20
350.99999999999989
 30
0.0
 11
637.99999999999943
 21
350.49999999999989
 31
0.0
  0
LINE
  5
E5
  8
0
 10
637.99999999999943
 20
382.09818861561951
 30
0.0
 11
637.99999999999932
 21
381.93438810534627
 31
0.0
  0
LINE
  5
E6
  8
2
 10
634.99999999999943
 20
354.49999999999989
 30
0.0
 11
634.99999999999943
 21
325.49999999999989
 31
0.0
  0
LINE
  5
E7
  8
0
 10
659.99999999999943
 20
328.99999999999989
 30
0.0
 11
659.99999999999955
 21
350.99999999999989
 31
0.0
  0
LINE
  5
E8
  8
0
 10
659.69999999999936
 20
324.49999999999989
 30
0.0
 11
654.10397283767281
 21
324.49999999999989
 31
0.0
  0
LINE
  5
E9
  8
0
 10
657.1499999999993
 20
329.49999999999989
 30
0.0
 11
657.14999999999952
 21
350.49999999999989
 31
0.0
  0
LINE
  5
EA
  8
0
 10
657.1499999999993
 20
329.49999999999989
 30
0.0
 11
637.99999999999943
 21
298.0656118946535
 31
0.0
  0
LINE
  5
EB
  8
0
 10
657.14999999999952
 20
350.49999999999989
 30
0.0
 11
637.90021183930025
 21
382.09818861561968
 31
0.0
  0
LINE
  5
EC
  8
0
 10
637.99999999999943
 20
325.64469357742621
 30
0.0
 11
640.01750674703658
 21
339.99999999999989
 31
0.0
  0
LINE
  5
ED
  8
0
 10
637.99999999999943
 20
345.99999999999989
 30
0.0
 11
637.99999999999943
 21
339.99999999999989
 31
0.0
  0
LINE
  5
EE
  8
2
 10
635.99999999999943
 20
355.49999999999989
 30
0.0
 11
634.99999999999943
 21
354.49999999999989
 31
0.0
  0
LINE
  5
EF
  8
2
 10
634.99999999999943
 20
350.49999999999989
 30
0.0
 11
637.99999999999943
 21
350.49999999999989
 31
0.0
  0
LINE
  5
F0
  8
0
 10
659.69999999999936
 20
350.99999999999989
 30
0.0
 11
659.99999999999943
 21
350.99999999999989
 31
0.0
  0
LINE
  5
F1
  8
0
 10
659.69999999999936
 20
355.49999999999989
 30
0.0
 11
654.10397283767293
 21
355.49999999999977
 31
0.0
  0
LINE
  5
F2
  8
1
 10
655.87454663242272
 20
339.99999999999989
 30
0.0
 11
669.99999999999955
 21
339.99999999999989
 31
0.0
  0
LINE
  5
F3
  8
1
 10
521.49999999999989
 20
157.50000000000071
 30
0.0
 11
478.50000000000063
 21
157.50000000000071
 31
0.0
  0
ARC
  5
F4
  8
0
 10
499.99999999999989
 20
157.50000000000071
 30
0.0
 40
11.5
 50
34.417388710441841
 51
145.5826112895588
  0
CIRCLE
  5
F5
  8
0
 10
280.0
 20
387.0
 30
0.0
 40
11.5
  0
CIRCLE
  5
F6
  8
0
 10
280.0
 20
340.0
 30
0.0
 40
15.5
  0
CIRCLE
  5
F7
  8
0
 10
280.0
 20
340.0
 30
0.0
 40
14.49999999999994
  0
CIRCLE
  5
F8
  8
0
 10
280.0
 20
340.0
 30
0.0
 40
10.5
  0
LINE
  5
F9
  8
0
 10
60.300000000000637
 20
355.49999999999989
 30
0.0
 11
65.896027162327073
 21
355.49999999999977
 31
0.0
  0
LINE
  5
FA
  8
0
 10
60.300000000000637
 20
350.99999999999989
 30
0.0
 11
60.000000000000561
 21
350.99999999999989
 31
0.0
  0
LINE
  5
FB
  8
2
 10
85.000000000000554
 20
350.49999999999989
 30
0.0
 11
82.000000000000568
 21
350.49999999999989
 31
0.0
  0
LINE
  5
FC
  8
2
 10
84.000000000000568
 20
355.49999999999989
 30
0.0
 11
85.000000000000554
 21
354.49999999999989
 31
0.0
  0
LINE
  5
FD
  8
0
 10
82.000000000000568
 20
345.99999999999989
 30
0.0
 11
82.000000000000568
 21
339.99999999999989
 31
0.0
  0
LINE
  5
FE
  8
0
 10
82.000000000000568
 20
325.64469357742621
 30
0.0
 11
79.982493252963422
 21
339.99999999999989
 31
0.0
  0
LINE
  5
FF
  8
0
 10
62.850000000000477
 20
350.49999999999989
 30
0.0
 11
82.099788160699632
 21
382.09818861561968
 31
0.0
  0
LINE
  5
100
  8
0
 10
62.850000000000712
 20
329.49999999999989
 30
0.0
 11
82.000000000000568
 21
298.0656118946535
 31
0.0
  0
LINE
  5
101
  8
0
 10
62.850000000000712
 20
329.49999999999989
 30
0.0
 11
62.850000000000477
 21
350.49999999999989
 31
0.0
  0
LINE
  5
102
  8
0
 10
60.300000000000637
 20
324.49999999999989
 30
0.0
 11
65.896027162327186
 21
324.49999999999989
 31
0.0
  0
LINE
  5
103
  8
0
 10
60.000000000000561
 20
328.99999999999989
 30
0.0
 11
60.000000000000462
 21
350.99999999999989
 31
0.0
  0
LINE
  5
104
  8
2
 10
85.000000000000554
 20
354.49999999999989
 30
0.0
 11
85.000000000000554
 21
325.49999999999989
 31
0.0
  0
LINE
  5
105
  8
0
 10
82.000000000000568
 20
382.09818861561951
 30
0.0
 11
82.000000000000682
 21
381.93438810534627
 31
0.0
  0
LINE
  5
106
  8
0
 10
82.000000000000568
 20
350.99999999999989
 30
0.0
 11
82.000000000000568
 21
350.49999999999989
 31
0.0
  0
LINE
  5
107
  8
0
 10
82.000000000000568
 20
350.49999999999989
 30
0.0
 11
82.000000000000682
 21
345.99999999999989
 31
0.0
  0
LINE
  5
108
  8
0
 10
60.300000000000637
 20
328.99999999999989
 30
0.0
 11
60.000000000000561
 21
328.99999999999989
 31
0.0
  0
LINE
  5
109
  8
0
 10
60.30000000000075
 20
355.49999999999989
 30
0.0
 11
60.300000000000637
 21
324.49999999999989
 31
0.0
  0
LINE
  5
10A
  8
0
 10
82.000000000000568
 20
354.35530642257362
 30
0.0
 11
79.982493252963422
 21
339.99999999999989
 31
0.0
  0
LINE
  5
10B
  8
2
 10
84.000000000000568
 20
324.49999999999989
 30
0.0
 11
85.000000000000554
 21
325.49999999999989
 31
0.0
  0
LINE
  5
10C
  8
0
 10
60.300000000000637
 20
324.49999999999989
 30
0.0
 11
65.896027162327186
 21
324.49999999999989
 31
0.0
  0
LINE
  5
10D
  8
0
 10
60.300000000000637
 20
328.99999999999989
 30
0.0
 11
60.000000000000561
 21
328.99999999999989
 31
0.0
  0
LINE
  5
10E
  8
2
 10
85.000000000000554
 20
329.49999999999989
 30
0.0
 11
82.000000000000568
 21
329.49999999999989
 31
0.0
  0
LINE
  5
10F
  8
2
 10
83.000000000000568
 20
350.49999999999989
 30
0.0
 11
83.000000000000568
 21
329.49999999999989
 31
0.0
  0
LINE
  5
110
  8
2
 10
65.896027162327186
 20
324.49999999999989
 30
0.0
 11
84.000000000000568
 21
324.49999999999989
 31
0.0
  0
LINE
  5
111
  8
2
 10
60.300000000000637
 20
328.99999999999989
 30
0.0
 11
82.000000000000568
 21
328.99999999999989
 31
0.0
  0
LINE
  5
112
  8
2
 10
60.000000000000462
 20
333.99999999999989
 30
0.0
 11
82.000000000000568
 21
333.99999999999989
 31
0.0
  0
LINE
  5
113
  8
2
 10
60.000000000000462
 20
345.99999999999989
 30
0.0
 11
82.000000000000568
 21
345.99999999999989
 31
0.0
  0
LINE
  5
114
  8
2
 10
60.300000000000637
 20
350.99999999999977
 30
0.0
 11
82.000000000000568
 21
350.99999999999989
 31
0.0
  0
LINE
  5
115
  8
2
 10
65.896027162327186
 20
355.49999999999989
 30
0.0
 11
84.000000000000568
 21
355.49999999999989
 31
0.0
  0
LINE
  5
116
  8
1
 10
280.0
 20
110.0
 30
0.0
 11
280.0
 21
239.30000000000021
 31
0.0
  0
ARC
  5
117
  8
0
 10
288.56659021698277
 20
165.30000000000041
 30
0.0
 40
1.0
 50
269.99999999999989
 51
356.05481377096231
  0
ARC
  5
118
  8
0
 10
271.43340978301711
 20
165.30000000000041
 30
0.0
 40
1.0
 50
183.9451862290376
 51
269.99999999999989
  0
LINE
  5
119
  8
0
 10
268.5
 20
193.30000000000041
 30
0.0
 11
270.43577945459413
 21
165.2311979083849
 31
0.0
  0
LINE
  5
11A
  8
0
 10
291.5
 20
193.30000000000041
 30
0.0
 11
289.56422054540582
 21
165.2311979083849
 31
0.0
  0
ARC
  5
11B
  8
0
 10
270.5
 20
226.35050477943909
 30
0.0
 40
2.0
 50
101.41515774273
 51
180.0
  0
ARC
  5
11C
  8
0
 10
289.5
 20
226.35050477943909
 30
0.0
 40
2.0
 50
0.0000000000000368
 51
78.584842257270637
  0
LINE
  5
11D
  8
0
  6
PHA-05
 10
289.08295106229252
 20
227.95953144040769
 30
0.0
 11
270.91704893770748
 21
227.95953144040769
 31
0.0
  0
LINE
  5
11E
  8
0
  6
PHA-05
 10
268.5
 20
193.30000000000041
 30
0.0
 11
291.5
 21
193.30000000000041
 31
0.0
  0
LINE
  5
11F
  8
0
 10
268.5
 20
193.30000000000041
 30
0.0
 11
268.5
 21
226.35050477943909
 31
0.0
  0
LINE
  5
120
  8
0
 10
291.5
 20
193.30000000000041
 30
0.0
 11
291.5
 21
226.35050477943909
 31
0.0
  0
ARC
  5
121
  8
0
  6
PHA-05
 10
280.0
 20
179.30000000000041
 30
0.0
 40
50.000000000000028
 50
78.584842257269514
 51
101.4151577427305
  0
LINE
  5
122
  8
0
 10
272.5
 20
164.0000000000004
 30
0.0
 11
272.5
 21
164.30000000000041
 31
0.0
  0
LINE
  5
123
  8
0
 10
287.5
 20
164.0000000000004
 30
0.0
 11
287.5
 21
164.30000000000041
 31
0.0
  0
LINE
  5
124
  8
0
 10
271.43340978301711
 20
164.30000000000041
 30
0.0
 11
288.56659021698277
 21
164.30000000000041
 31
0.0
  0
LINE
  5
125
  8
0
 10
338.0
 20
142.0
 30
0.0
 11
222.0
 21
142.0
 31
0.0
  0
ARC
  5
126
  8
0
 10
338.0
 20
146.0
 30
0.0
 40
4.0
 50
270.0
 51
354.98492984045839
  0
ARC
  5
127
  8
0
 10
337.5
 20
160.90000000000001
 30
0.0
 40
3.1000000000000001
 50
15.66834483387202
 51
90.00005138903812
  0
ARC
  5
128
  8
0
 10
297.15695848826959
 20
149.58412612376739
 30
0.0
 40
45.0
 50
354.98493216828132
 51
15.668347586614921
  0
ARC
  5
129
  8
0
 10
262.84304151173029
 20
149.58412612376739
 30
0.0
 40
45.0
 50
164.33165241338509
 51
185.0150678317186
  0
ARC
  5
12A
  8
0
 10
222.5
 20
160.90000000000001
 30
0.0
 40
3.1000000000000001
 50
89.999948610961894
 51
164.331655166128
  0
ARC
  5
12B
  8
0
 10
222.0
 20
146.0
 30
0.0
 40
4.0
 50
185.01507015954161
 51
270.0
  0
LINE
  5
12C
  8
1
 10
268.05000000000001
 20
157.5000000000004
 30
0.0
 11
291.94999999999987
 21
157.50000000000031
 31
0.0
  0
LINE
  5
12D
  8
0
 10
222.50000278041449
 20
164.0000000000004
 30
0.0
 11
337.49999865130081
 21
164.0000000000004
 31
0.0
  0
LINE
  5
12E
  8
2
 10
264.5
 20
122.85000000000061
 30
0.0
 11
264.5
 21
144.0000000000004
 31
0.0
  0
LINE
  5
12F
  8
2
 10
269.0
 20
120.30000000000069
 30
0.0
 11
269.0
 21
142.0000000000004
 31
0.0
  0
LINE
  5
130
  8
2
 10
274.0
 20
120.0000000000004
 30
0.0
 11
274.0
 21
142.0000000000004
 31
0.0
  0
LINE
  5
131
  8
2
 10
286.0
 20
120.0000000000005
 30
0.0
 11
286.0
 21
142.0000000000004
 31
0.0
  0
LINE
  5
132
  8
2
 10
291.0
 20
120.30000000000059
 30
0.0
 11
291.0
 21
142.0000000000004
 31
0.0
  0
LINE
  5
133
  8
2
 10
295.5
 20
122.85000000000061
 30
0.0
 11
295.5
 21
144.0000000000004
 31
0.0
  0
LINE
  5
134
  8
2
 10
269.5
 20
143.0000000000004
 30
0.0
 11
290.5
 21
143.0000000000004
 31
0.0
  0
LINE
  5
135
  8
2
 10
290.5
 20
145.0000000000004
 30
0.0
 11
290.5
 21
142.0000000000004
 31
0.0
  0
LINE
  5
136
  8
0
 10
295.5
 20
120.30000000000049
 30
0.0
 11
295.5
 21
125.8960271623271
 31
0.0
  0
LINE
  5
137
  8
2
 10
295.5
 20
144.0000000000004
 30
0.0
 11
294.5
 21
145.0000000000004
 31
0.0
  0
LINE
  5
138
  8
0
 10
264.5
 20
120.30000000000059
 30
0.0
 11
295.5
 21
120.30000000000049
 31
0.0
  0
LINE
  5
139
  8
0
 10
291.0
 20
120.30000000000049
 30
0.0
 11
291.0
 21
120.0000000000004
 31
0.0
  0
LINE
  5
13A
  8
0
 10
269.5
 20
142.0000000000004
 30
0.0
 11
274.0
 21
142.00000000000051
 31
0.0
  0
LINE
  5
13B
  8
0
 10
269.0
 20
142.0000000000004
 30
0.0
 11
269.5
 21
142.0000000000004
 31
0.0
  0
LINE
  5
13C
  8
2
 10
265.5
 20
145.0000000000004
 30
0.0
 11
294.5
 21
145.0000000000004
 31
0.0
  0
LINE
  5
13D
  8
0
 10
291.0
 20
120.0000000000005
 30
0.0
 11
269.0
 21
120.0000000000003
 31
0.0
  0
LINE
  5
13E
  8
0
 10
296.0
 20
122.85000000000061
 30
0.0
 11
291.0
 21
122.8500000000007
 31
0.0
  0
LINE
  5
13F
  8
0
 10
274.0
 20
142.0000000000004
 30
0.0
 11
280.0
 21
142.0000000000004
 31
0.0
  0
LINE
  5
140
  8
2
 10
264.5
 20
144.0000000000004
 30
0.0
 11
265.5
 21
145.0000000000004
 31
0.0
  0
LINE
  5
141
  8
2
 10
269.5
 20
145.0000000000004
 30
0.0
 11
269.5
 21
142.0000000000004
 31
0.0
  0
LINE
  5
142
  8
0
 10
269.0
 20
120.30000000000069
 30
0.0
 11
269.0
 21
120.0000000000004
 31
0.0
  0
LINE
  5
143
  8
0
 10
264.0
 20
142.0000000000004
 30
0.0
 11
264.0
 21
122.85000000000061
 31
0.0
  0
LINE
  5
144
  8
0
 10
296.0
 20
142.0000000000004
 30
0.0
 11
296.0
 21
122.85000000000061
 31
0.0
  0
LINE
  5
145
  8
0
 10
264.5
 20
120.30000000000059
 30
0.0
 11
264.5
 21
122.85000000000061
 31
0.0
  0
LINE
  5
146
  8
0
 10
295.5
 20
120.30000000000049
 30
0.0
 11
295.5
 21
122.85000000000061
 31
0.0
  0
LINE
  5
147
  8
0
 10
269.0
 20
140.86510791366959
 30
0.0
 11
269.0
 21
122.85000000000061
 31
0.0
  0
LINE
  5
148
  8
0
 10
291.0
 20
142.0000000000004
 30
0.0
 11
291.0
 21
122.85000000000061
 31
0.0
  0
LINE
  5
149
  8
0
 10
269.0
 20
122.85000000000061
 30
0.0
 11
264.0
 21
122.85000000000061
 31
0.0
  0
LINE
  5
14A
  8
0
 10
291.00000000000011
 20
137.55724845889421
 30
0.0
 11
269.0
 21
137.55724845889421
 31
0.0
  0
ENDSEC
  0
EOF
