  0
SECTION
  2
HEADER
  9
$ACADVER
  1
AC1009
  9
$INSBASE
 10
0.0
 20
0.0
 30
0.0
  9
$EXTMIN
 10
79.971315315891161
 20
119.9954237602598
 30
-0.0015258207003583
  9
$EXTMAX
 10
640.04516763385016
 20
379.5062266563836
 30
0.0000000349246037
  9
$LIMMIN
 10
0.0
 20
0.0
  9
$LIMMAX
 10
750.0
 20
540.0
  9
$ORTHOMODE
 70
     1
  9
$REGENMODE
 70
     1
  9
$FILLMODE
 70
     1
  9
$QTEXTMODE
 70
     0
  9
$MIRRTEXT
 70
     0
  9
$DRAGMODE
 70
     2
  9
$LTSCALE
 40
20.0
  9
$OSMODE
 70
   231
  9
$ATTMODE
 70
     1
  9
$TEXTSIZE
 40
0.2
  9
$TRACEWID
 40
0.05
  9
$TEXTSTYLE
  7
STANDARD
  9
$CLAYER
  8
0
  9
$CELTYPE
  6
BYLAYER
  9
$CECOLOR
 62
   256
  9
$DIMSCALE
 40
2.0
  9
$DIMASZ
 40
3.0
  9
$DIMEXO
 40
2.0
  9
$DIMDLI
 40
0.38
  9
$DIMRND
 40
0.0
  9
$DIMDLE
 40
0.0
  9
$DIMEXE
 40
2.0
  9
$DIMTP
 40
0.0
  9
$DIMTM
 40
0.0
  9
$DIMTXT
 40
3.2000000000000002
  9
$DIMCEN
 40
0.0
  9
$DIMTSZ
 40
0.0
  9
$DIMTOL
 70
     0
  9
$DIMLIM
 70
     0
  9
$DIMTIH
 70
     0
  9
$DIMTOH
 70
     0
  9
$DIMSE1
 70
     0
  9
$DIMSE2
 70
     0
  9
$DIMTAD
 70
     1
  9
$DIMZIN
 70
     0
  9
$DIMBLK
  1

  9
$DIMASO
 70
     1
  9
$DIMSHO
 70
     0
  9
$DIMPOST
  1

  9
$DIMAPOST
  1

  9
$DIMALT
 70
     0
  9
$DIMALTD
 70
     2
  9
$DIMALTF
 40
25.399999999999999
  9
$DIMLFAC
 40
1.0
  9
$DIMTOFL
 70
     1
  9
$DIMTVP
 40
1.6000000000000001
  9
$DIMTIX
 70
     1
  9
$DIMSOXD
 70
     0
  9
$DIMSAH
 70
     0
  9
$DIMBLK1
  1

  9
$DIMBLK2
  1

  9
$DIMSTYLE
  2
STANDARD
  9
$DIMCLRD
 70
     0
  9
$DIMCLRE
 70
     0
  9
$DIMCLRT
 70
     0
  9
$DIMTFAC
 40
1.0
  9
$DIMGAP
 40
0.09
  9
$LUNITS
 70
     2
  9
$LUPREC
 70
     4
  9
$SKETCHINC
 40
0.1
  9
$FILLETRAD
 40
3.0
  9
$AUNITS
 70
     1
  9
$AUPREC
 70
     4
  9
$MENU
  1
E:\r13\win\SUPPORT\ACAD
  9
$ELEVATION
 40
0.0
  9
$PELEVATION
 40
0.0
  9
$THICKNESS
 40
0.0
  9
$LIMCHECK
 70
     0
  9
$BLIPMODE
 70
     1
  9
$CHAMFERA
 40
0.0
  9
$CHAMFERB
 40
0.0
  9
$SKPOLY
 70
     0
  9
$TDCREATE
 40
2449839.7801041659
  9
$TDUPDATE
 40
2453236.774431238
  9
$TDINDWG
 40
0.0001945718
  9
$TDUSRTIMER
 40
0.0001945718
  9
$USRTIMER
 70
     1
  9
$ANGBASE
 50
0.0
  9
$ANGDIR
 70
     0
  9
$PDMODE
 70
     0
  9
$PDSIZE
 40
0.0
  9
$PLINEWID
 40
0.0
  9
$COORDS
 70
     0
  9
$SPLFRAME
 70
     0
  9
$SPLINETYPE
 70
     6
  9
$SPLINESEGS
 70
     8
  9
$ATTDIA
 70
     0
  9
$ATTREQ
 70
     1
  9
$HANDLING
 70
-16383
  9
$HANDSEED
  5
20C
  9
$SURFTAB1
 70
     6
  9
$SURFTAB2
 70
     6
  9
$SURFTYPE
 70
     6
  9
$SURFU
 70
     6
  9
$SURFV
 70
     6
  9
$UCSNAME
  2

  9
$UCSORG
 10
0.0
 20
0.0
 30
0.0
  9
$UCSXDIR
 10
1.0
 20
0.0
 30
0.0
  9
$UCSYDIR
 10
0.0
 20
1.0
 30
0.0
  9
$PUCSNAME
  2

  9
$PUCSORG
 10
0.0
 20
0.0
 30
0.0
  9
$PUCSXDIR
 10
1.0
 20
0.0
 30
0.0
  9
$PUCSYDIR
 10
0.0
 20
1.0
 30
0.0
  9
$USERI1
 70
     0
  9
$USERI2
 70
     1
  9
$USERI3
 70
     1
  9
$USERI4
 70
     0
  9
$USERI5
 70
     0
  9
$USERR1
 40
0.0
  9
$USERR2
 40
0.0
  9
$USERR3
 40
0.0
  9
$USERR4
 40
0.0
  9
$USERR5
 40
0.0
  9
$WORLDVIEW
 70
     1
  9
$SHADEDGE
 70
     3
  9
$SHADEDIF
 70
    70
  9
$TILEMODE
 70
     1
  9
$MAXACTVP
 70
    16
  9
$PLIMCHECK
 70
     0
  9
$PEXTMIN
 10
1.0000000000000000E+020
 20
1.0000000000000000E+020
 30
1.0000000000000000E+020
  9
$PEXTMAX
 10
-1.0000000000000000E+020
 20
-1.0000000000000000E+020
 30
-1.0000000000000000E+020
  9
$PLIMMIN
 10
0.0
 20
0.0
  9
$PLIMMAX
 10
12.0
 20
9.0
  9
$UNITMODE
 70
     0
  9
$VISRETAIN
 70
     0
  9
$PLINEGEN
 70
     0
  9
$PSLTSCALE
 70
     0
  0
ENDSEC
  0
SECTION
  2
TABLES
  0
TABLE
  2
VPORT
 70
     3
  0
VPORT
  2
*ACTIVE
 70
     0
 10
0.0
 20
0.0
 11
1.0
 21
1.0
 12
360.00824147487072
 22
249.75082520832169
 13
0.0
 23
0.0
 14
20.0
 24
20.0
 15
20.0
 25
20.0
 16
0.0
 26
0.0
 36
1.0
 17
0.0
 27
0.0
 37
0.0
 40
667.0768586154287
 41
0.9407114624505929
 42
50.0
 43
0.0
 44
0.0
 50
0.0
 51
0.0
 71
     0
 72
   500
 73
     1
 74
     0
 75
     0
 76
     0
 77
     0
 78
     2
  0
ENDTAB
  0
TABLE
  2
LTYPE
 70
     3
  0
LTYPE
  2
CONTINUOUS
 70
     0
  3
Solid Line
 72
    65
 73
     0
 40
0.0
  0
LTYPE
  2
CENTER
 70
     0
  3
____ _ ____ _ ____ _ ____ _ ____ _ ____ _ ____
 72
    65
 73
     4
 40
2.0
 49
1.25
 49
-0.25
 49
0.25
 49
-0.25
  0
LTYPE
  2
HIDDEN
 70
     0
  3
_ _ _ _ _ _ _ _ _ _ _ _ _ _ _ _ _ _ _ _ _ _ _
 72
    65
 73
     2
 40
0.375
 49
0.25
 49
-0.125
  0
ENDTAB
  0
TABLE
  2
LAYER
 70
     3
  0
LAYER
  2
0
 70
     0
 62
     7
  6
CONTINUOUS
  0
LAYER
  2
1
 70
     0
 62
     1
  6
CENTER
  0
LAYER
  2
2
 70
     0
 62
     2
  6
HIDDEN
  0
ENDTAB
  0
TABLE
  2
STYLE
 70
     1
  0
STYLE
  2
STANDARD
 70
     0
 40
0.0
 41
1.0
 50
0.0
 71
     0
 42
0.2
  3
TXT
  4
BIGFONT
  0
ENDTAB
  0
TABLE
  2
VIEW
 70
     1
  0
VIEW
  2
ALL
 70
     0
 40
540.0
 10
441.98319327731087
 20
270.0
 41
0.0
 11
0.0
 21
0.0
 31
1.0
 12
0.0
 22
0.0
 32
0.0
 42
0.0
 43
0.0
 44
0.0
 50
0.0
 71
     0
  0
ENDTAB
  0
TABLE
  2
UCS
 70
     0
  0
ENDTAB
  0
TABLE
  2
APPID
 70
     1
  0
APPID
  2
ACAD
 70
     0
  0
ENDTAB
  0
TABLE
  2
DIMSTYLE
 70
     1
  0
DIMSTYLE
  2
STANDARD
 70
     0
  3

  4

  5

  6

  7

 40
1.0
 41
0.18
 42
0.0625
 43
0.38
 44
0.18
 45
0.0
 46
0.0
 47
0.0
 48
0.0
140
0.18
141
0.09
142
0.0
143
25.399999999999999
144
1.0
145
0.0
146
1.0
147
0.09
 71
     0
 72
     0
 73
     1
 74
     1
 75
     0
 76
     0
 77
     0
 78
     0
170
     0
171
     2
172
     0
173
     0
174
     0
175
     0
176
     0
177
     0
178
     0
  0
ENDTAB
  0
ENDSEC
  0
SECTION
  2
BLOCKS
  0
BLOCK
  8
0
  2
$MODEL_SPACE
 70
     0
 10
0.0
 20
0.0
 30
0.0
  3
$MODEL_SPACE
  1

  0
ENDBLK
  5
1B4
  8
0
  0
BLOCK
 67
     1
  8
0
  2
$PAPER_SPACE
 70
     0
 10
0.0
 20
0.0
 30
0.0
  3
$PAPER_SPACE
  1

  0
ENDBLK
  5
1B2
 67
     1
  8
0
  0
ENDSEC
  0
SECTION
  2
ENTITIES
  0
CIRCLE
  5
35
  8
0
 10
480.0
 20
320.0
 30
0.0
 40
49.5
  0
LINE
  5
36
  8
1
 10
420.5
 20
320.0
 30
0.0
 11
539.5
 21
320.0
 31
0.0
  0
LINE
  5
37
  8
1
 10
480.0
 20
379.49999999999989
 30
0.0
 11
480.0
 21
260.49999999999989
 31
0.0
  0
LINE
  5
38
  8
0
 10
493.25
 20
350.835004459218
 30
0.0
 11
493.25
 21
289.16499554078189
 31
0.0
  0
LINE
  5
39
  8
0
 10
466.75
 20
350.83500445921828
 30
0.0
 11
466.75
 21
289.16499554078177
 31
0.0
  0
ARC
  5
3A
  8
0
 10
464.74999999999989
 20
289.16499554078177
 30
0.0
 40
2.0
 50
243.68448363893191
 51
0.0000000000000254
  0
ARC
  5
3B
  8
0
 10
495.24999999999989
 20
289.16499554078189
 30
0.0
 40
2.0
 50
180.0
 51
296.31551636106832
  0
ARC
  5
3C
  8
0
 10
480.0
 20
320.0
 30
0.0
 40
36.399999999999999
 50
296.31551547105602
 51
63.68448363893193
  0
ARC
  5
3D
  8
0
 10
480.0
 20
361.39999999999992
 30
0.0
 40
13.0
 50
287.47536514650022
 51
335.37501966715092
  0
LINE
  5
3E
  8
1
 10
462.0
 20
356.0
 30
0.0
 11
498.0
 21
356.0
 31
0.0
  0
ARC
  5
3F
  8
0
 10
480.0
 20
356.0
 30
0.0
 40
8.0
 50
298.95502437186002
 51
241.04497562814021
  0
ARC
  5
40
  8
0
 10
480.0
 20
356.0
 30
0.0
 40
5.0
 50
292.95449940139167
 51
247.04550059860651
  0
ARC
  5
41
  8
0
 10
480.0
 20
361.39999999999992
 30
0.0
 40
13.0
 50
204.62498033284899
 51
252.52463485349949
  0
LINE
  5
42
  8
0
 10
475.80000000000001
 20
349.0
 30
0.0
 11
484.19999999999999
 21
349.0
 31
0.0
  0
LINE
  5
43
  8
0
 10
481.94999999999987
 20
360.6040742826325
 30
0.0
 11
481.94999999999987
 21
349.0
 31
0.0
  0
LINE
  5
44
  8
0
 10
478.0499999999999
 20
360.60407428263289
 30
0.0
 11
478.0499999999999
 21
349.0
 31
0.0
  0
LINE
  5
45
  8
0
 10
473.0
 20
345.5
 30
0.0
 11
487.0
 21
345.5
 31
0.0
  0
LINE
  5
46
  8
0
 10
484.19999999999999
 20
349.0
 30
0.0
 11
484.49999999999989
 21
345.5
 31
0.0
  0
LINE
  5
47
  8
0
 10
475.80000000000001
 20
349.0
 30
0.0
 11
475.49999999999989
 21
345.5
 31
0.0
  0
LINE
  5
48
  8
0
 10
471.73855591705501
 20
345.19999999999999
 30
0.0
 11
488.26144408294488
 21
345.19999999999999
 31
0.0
  0
LINE
  5
49
  8
0
 10
487.0
 20
345.5
 30
0.0
 11
487.0
 21
345.19999999999999
 31
0.0
  0
LINE
  5
4A
  8
0
 10
473.0
 20
345.5
 30
0.0
 11
473.0
 21
345.19999999999999
 31
0.0
  0
LINE
  5
4B
  8
0
 10
469.0
 20
320.19999999999987
 30
0.0
 11
491.0
 21
320.19999999999999
 31
0.0
  0
LINE
  5
4C
  8
0
 10
491.0
 20
320.19999999999999
 30
0.0
 11
491.0
 21
291.88615424635191
 31
0.0
  0
LINE
  5
4D
  8
0
 10
469.0
 20
320.19999999999987
 30
0.0
 11
469.0
 21
291.88615424635202
 31
0.0
  0
LINE
  5
4E
  8
0
 10
489.05889630577383
 20
344.46379617782628
 30
0.0
 11
491.0
 21
320.19999999999999
 31
0.0
  0
LINE
  5
4F
  8
0
 10
470.94110369422611
 20
344.46379617782628
 30
0.0
 11
469.0
 21
320.19999999999987
 31
0.0
  0
ARC
  5
50
  8
0
 10
471.73855591705501
 20
344.39999999999998
 30
0.0
 40
0.8
 50
90.000000000000114
 51
175.42607874009909
  0
ARC
  5
51
  8
0
 10
488.26144408294488
 20
344.39999999999998
 30
0.0
 40
0.8
 50
4.5739212599009633
 51
90.000000000000071
  0
ARC
  5
52
  8
0
 10
480.0
 20
339.19999999999999
 30
0.0
 40
50.0
 50
258.9963593262396
 51
281.00364067376051
  0
ARC
  5
53
  8
0
 10
489.19999999999999
 20
291.88615424635191
 30
0.0
 40
1.8
 50
281.00364067376029
 51
0.0000000000000254
  0
ARC
  5
54
  8
0
 10
470.80000000000001
 20
291.88615424635202
 30
0.0
 40
1.8
 50
180.0
 51
258.99635932623983
  0
ARC
  5
55
  8
0
 10
480.0
 20
320.0
 30
0.0
 40
12.5
 50
331.64236342367309
 51
33.115169655459141
  0
ARC
  5
56
  8
0
 10
480.0
 20
320.0
 30
0.0
 40
11.5
 50
343.04257370583031
 51
21.854343197279992
  0
ARC
  5
57
  8
0
 10
480.0
 20
320.0
 30
0.0
 40
11.5
 50
158.1456568027175
 51
196.95742629417231
  0
ARC
  5
58
  8
0
 10
480.0
 20
320.0
 30
0.0
 40
12.5
 50
146.88483034453961
 51
208.35763657632791
  0
LINE
  5
59
  8
1
 10
640.0
 20
320.0
 30
0.0
 11
583.0
 21
320.0
 31
0.0
  0
LINE
  5
5A
  8
1
 10
623.0
 20
357.0
 30
0.0
 11
602.5
 21
357.0
 31
0.0
  0
ARC
  5
5B
  8
0
 10
480.0
 20
320.0
 30
0.0
 40
38.321267294151582
 50
108.9340600396166
 51
71.065939960383403
  0
ARC
  5
5C
  8
0
 10
492.27223613834423
 20
355.77485820936789
 30
0.0
 40
0.5
 50
71.06593996038518
 51
155.37501966715121
  0
ARC
  5
5D
  8
0
 10
467.72776386165572
 20
355.77485820936789
 30
0.0
 40
0.5
 50
24.62498033284886
 51
108.9340600396179
  0
ARC
  5
5E
  8
0
 10
495.24999999999989
 20
350.835004459218
 30
0.0
 40
2.0
 50
63.68448363893252
 51
180.0
  0
ARC
  5
5F
  8
0
 10
464.74999999999989
 20
350.83500445921828
 30
0.0
 40
2.0
 50
0.0000000000000254
 51
116.3155163610683
  0
ARC
  5
60
  8
0
 10
480.0
 20
320.0
 30
0.0
 40
36.399999999999999
 50
116.31551636106791
 51
243.6844830562822
  0
LINE
  5
61
  8
0
 10
609.49999999999989
 20
369.5
 30
0.0
 11
604.72563169373188
 21
369.5
 31
0.0
  0
ARC
  5
62
  8
0
 10
609.49999999999989
 20
366.0
 30
0.0
 40
3.5
 50
0.0
 51
90.0
  0
ARC
  5
63
  8
0
 10
607.16116816337342
 20
324.56595764784731
 30
0.0
 40
45.0
 50
93.102537316657077
 51
104.99186708561
  0
ARC
  5
64
  8
0
 10
596.40000000000009
 20
364.74999999999989
 30
0.0
 40
3.399999999999999
 50
104.9918619732365
 51
180.0
  0
LINE
  5
65
  8
0
 10
613.0
 20
366.0
 30
0.0
 11
613.0
 21
274.0
 31
0.0
  0
LINE
  5
66
  8
0
 10
609.49999999999989
 20
270.5
 30
0.0
 11
604.72563169373188
 21
270.5
 31
0.0
  0
ARC
  5
67
  8
0
 10
609.49999999999989
 20
274.0
 30
0.0
 40
3.5
 50
270.0
 51
0.0
  0
ARC
  5
68
  8
0
 10
607.16116816337342
 20
315.43404235215269
 30
0.0
 40
45.0
 50
255.0081329143899
 51
266.89746268334289
  0
ARC
  5
69
  8
0
 10
596.40000000000009
 20
275.24999999999989
 30
0.0
 40
3.399999999999999
 50
180.0
 51
255.0081380267635
  0
LINE
  5
6A
  8
1
 10
599.5
 20
368.9999999999975
 30
0.0
 11
599.5
 21
284.19999999999999
 31
0.0
  0
LINE
  5
6B
  8
0
 10
593.0
 20
364.7500107895932
 30
0.0
 11
593.0
 21
275.25000243140198
 31
0.0
  0
LINE
  5
6C
  8
1
 10
583.0
 20
356.0
 30
0.0
 11
612.74764129949165
 21
356.0
 31
0.0
  0
ARC
  5
6D
  8
0
 10
480.0
 20
355.74999999999972
 30
0.0
 40
3.25
 50
53.130102354156563
 51
126.8698976458287
  0
LINE
  5
6E
  8
0
 10
481.94999999999987
 20
359.5
 30
0.0
 11
478.0499999999999
 21
359.5
 31
0.0
  0
CIRCLE
  5
6F
  8
0
 10
480.0
 20
320.0
 30
0.0
 40
44.749997568598019
  0
LINE
  5
70
  8
0
 10
592.49999999999989
 20
345.5
 30
0.0
 11
593.00000000000011
 21
345.5
 31
0.0
  0
LINE
  5
71
  8
0
 10
591.23855591705501
 20
345.19999999999987
 30
0.0
 11
593.0
 21
345.19999999999999
 31
0.0
  0
LINE
  5
72
  8
0
 10
592.49999999999989
 20
345.5
 30
0.0
 11
592.49999999999989
 21
345.19999999999987
 31
0.0
  0
LINE
  5
73
  8
0
 10
588.49999999999989
 20
320.19999999999987
 30
0.0
 11
588.49999999999989
 21
291.88615424635191
 31
0.0
  0
LINE
  5
74
  8
0
 10
590.44110369422617
 20
344.46379617782628
 30
0.0
 11
588.49999999999989
 21
320.19999999999987
 31
0.0
  0
ARC
  5
75
  8
0
 10
591.23855591705501
 20
344.39999999999992
 30
0.0
 40
0.8
 50
90.000000000000114
 51
175.42607874009909
  0
ARC
  5
76
  8
0
 10
590.29999999999995
 20
291.88615424635191
 30
0.0
 40
1.8
 50
180.0
 51
258.99635932623983
  0
LINE
  5
77
  8
0
 10
588.49999999999989
 20
320.19999999999987
 30
0.0
 11
593.00000000000011
 21
320.19999999999987
 31
0.0
  0
ARC
  5
78
  8
0
 10
599.5
 20
339.19999999999999
 30
0.0
 40
50.0
 50
258.9963593262396
 51
262.53040768358312
  0
LINE
  5
79
  8
0
 10
489.10236750074512
 20
142.53323116256831
 30
0.0
 11
471.10236750074512
 21
142.53323116256831
 31
0.0
  0
LINE
  5
7A
  8
0
 10
466.852367500745
 20
147.0
 30
0.0
 11
466.852367500745
 21
131.98827530551779
 31
0.0
  0
LINE
  5
7B
  8
0
 10
493.352367500745
 20
147.0
 30
0.0
 11
493.352367500745
 21
131.98827530551779
 31
0.0
  0
LINE
  5
7C
  8
0
 10
492.60236750074512
 20
130.1999999999999
 30
0.0
 11
492.60236750074512
 21
131.98827530551779
 31
0.0
  0
LINE
  5
7D
  8
0
 10
467.60236750074489
 20
130.1999999999999
 30
0.0
 11
467.60236750074489
 21
131.98827530551779
 31
0.0
  0
LINE
  5
7E
  8
0
 10
489.10236750074512
 20
131.98827530551779
 30
0.0
 11
493.352367500745
 21
131.98827530551779
 31
0.0
  0
LINE
  5
7F
  8
0
 10
489.10236750074512
 20
146.99999999999989
 30
0.0
 11
489.10236750074512
 21
131.98827530551779
 31
0.0
  0
LINE
  5
80
  8
0
 10
471.10236750074512
 20
146.99999999999989
 30
0.0
 11
471.10236750074512
 21
131.98827530551779
 31
0.0
  0
LINE
  5
81
  8
0
 10
430.602367500745
 20
150.5
 30
0.0
 11
430.602367500745
 21
155.27436830626809
 31
0.0
  0
ARC
  5
82
  8
0
 10
434.10236750074489
 20
150.5
 30
0.0
 40
3.5
 50
180.0
 51
270.0
  0
ARC
  5
83
  8
0
 10
475.5364098528978
 20
152.83883183662661
 30
0.0
 40
45.0
 50
165.0081329143899
 51
176.89746268334289
  0
ARC
  5
84
  8
0
 10
435.35236750074489
 20
163.59999999999991
 30
0.0
 40
3.399999999999999
 50
90.0
 51
165.00813802676339
  0
ARC
  5
85
  8
0
 10
484.66832514859237
 20
152.83883183662661
 30
0.0
 40
45.0
 50
3.102537316657084
 51
14.99186672647633
  0
ARC
  5
86
  8
0
 10
526.10236750074489
 20
150.5
 30
0.0
 40
3.5
 50
270.0
 51
0.0
  0
LINE
  5
87
  8
0
 10
529.60236750074489
 20
150.5
 30
0.0
 11
529.60236750074489
 21
155.27436830626809
 31
0.0
  0
LINE
  5
88
  8
0
 10
434.10236750074489
 20
147.0
 30
0.0
 11
526.10236750074489
 21
147.0
 31
0.0
  0
LINE
  5
89
  8
2
 10
471.102367500745
 20
130.1999999999999
 30
0.0
 11
471.10236750074489
 21
147.0
 31
0.0
  0
LINE
  5
8A
  8
2
 10
475.10236750074489
 20
130.0
 30
0.0
 11
475.10236750074489
 21
147.0
 31
0.0
  0
LINE
  5
8B
  8
2
 10
467.60236750074489
 20
148.0
 30
0.0
 11
468.602367500745
 21
149.0
 31
0.0
  0
LINE
  5
8C
  8
0
 10
489.102367500745
 20
129.99999999999989
 30
0.0
 11
471.10236750074489
 21
130.0
 31
0.0
  0
LINE
  5
8D
  8
0
 10
489.102367500745
 20
130.0
 30
0.0
 11
489.102367500745
 21
130.19999999999999
 31
0.0
  0
LINE
  5
8E
  8
0
 10
467.60236750074489
 20
130.1999999999999
 30
0.0
 11
492.60236750074489
 21
130.1999999999999
 31
0.0
  0
LINE
  5
8F
  8
0
 10
466.852367500745
 20
131.98827530551779
 30
0.0
 11
471.10236750074512
 21
131.98827530551779
 31
0.0
  0
LINE
  5
90
  8
0
 10
435.35236750074489
 20
166.99999999999989
 30
0.0
 11
524.852367500745
 21
166.99999999999989
 31
0.0
  0
LINE
  5
91
  8
0
 10
435.102367500745
 20
147.0
 30
0.0
 11
434.10236750074489
 21
147.0
 31
0.0
  0
LINE
  5
92
  8
2
 10
472.60236750074512
 20
148.0
 30
0.0
 11
472.60236750074512
 21
147.0
 31
0.0
  0
LINE
  5
93
  8
2
 10
468.602367500745
 20
149.0
 30
0.0
 11
472.602367500745
 21
149.0
 31
0.0
  0
LINE
  5
94
  8
2
 10
472.602367500745
 20
149.0
 30
0.0
 11
491.60236750074489
 21
149.0
 31
0.0
  0
LINE
  5
95
  8
0
 10
475.10236750074489
 20
147.0
 30
0.0
 11
480.10236750074489
 21
147.0
 31
0.0
  0
LINE
  5
96
  8
0
 10
471.10236750074489
 20
147.0
 30
0.0
 11
472.60236750074512
 21
147.0
 31
0.0
  0
LINE
  5
97
  8
0
 10
472.60236750074512
 20
147.0
 30
0.0
 11
475.10236750074489
 21
147.0
 31
0.0
  0
LINE
  5
98
  8
1
 10
480.10236750074489
 20
181.49999999999849
 30
0.0
 11
480.10236750074489
 21
119.9999999999999
 31
0.0
  0
LINE
  5
99
  8
0
 10
467.60236750074489
 20
148.0
 30
0.0
 11
467.60236750074489
 21
147.9413307696903
 31
0.0
  0
ARC
  5
9A
  8
0
 10
524.852367500745
 20
163.59999999999991
 30
0.0
 40
3.399999999999999
 50
14.99186672647633
 51
90.0
  0
LINE
  5
9B
  8
2
 10
472.60236750074512
 20
148.0
 30
0.0
 11
487.60236750074489
 21
148.0
 31
0.0
  0
LINE
  5
9C
  8
2
 10
472.60236750074512
 20
148.0
 30
0.0
 11
472.60236750074512
 21
149.0
 31
0.0
  0
LINE
  5
9D
  8
2
 10
492.60236750074489
 20
148.0
 30
0.0
 11
491.60236750074489
 21
149.0
 31
0.0
  0
LINE
  5
9E
  8
2
 10
487.60236750074489
 20
148.0
 30
0.0
 11
487.60236750074489
 21
149.0
 31
0.0
  0
LINE
  5
9F
  8
2
 10
487.60236750074489
 20
148.0
 30
0.0
 11
487.60236750074489
 21
147.0
 31
0.0
  0
LINE
  5
A0
  8
2
 10
489.102367500745
 20
130.1999999999999
 30
0.0
 11
489.102367500745
 21
147.0
 31
0.0
  0
LINE
  5
A1
  8
2
 10
485.102367500745
 20
130.0
 30
0.0
 11
485.102367500745
 21
147.0
 31
0.0
  0
LINE
  5
A2
  8
2
 10
467.60236750074512
 20
131.98827530551779
 30
0.0
 11
467.60236750074489
 21
148.0
 31
0.0
  0
LINE
  5
A3
  8
2
 10
492.60236750074489
 20
131.98827530551779
 30
0.0
 11
492.60236750074489
 21
148.0
 31
0.0
  0
ARC
  5
AC
  8
0
 10
280.0
 20
320.0
 30
0.0
 40
44.749997568598019
 50
99.526871421970071
 51
80.473128578029915
  0
ARC
  5
AD
  8
0
 10
280.0
 20
320.0
 30
0.0
 40
36.399999999999999
 50
116.31551636106791
 51
243.6844830562822
  0
ARC
  5
AE
  8
0
 10
264.74999999999989
 20
350.83500445921828
 30
0.0
 40
2.0
 50
0.0000000000000254
 51
116.3155163610683
  0
ARC
  5
AF
  8
0
 10
295.25
 20
350.835004459218
 30
0.0
 40
2.0
 50
63.68448363893252
 51
180.0
  0
ARC
  5
B0
  8
0
 10
267.72776386165572
 20
355.77485820936789
 30
0.0
 40
0.5
 50
24.62498033284886
 51
108.9340600396179
  0
ARC
  5
B1
  8
0
 10
292.27223613834423
 20
355.77485820936789
 30
0.0
 40
0.5
 50
71.06593996038518
 51
155.37501966715121
  0
ARC
  5
B2
  8
0
 10
280.0
 20
320.0
 30
0.0
 40
38.321267294151582
 50
108.9340600396166
 51
71.065939960383403
  0
ARC
  5
B3
  8
0
 10
280.0
 20
361.39999999999992
 30
0.0
 40
13.0
 50
204.62498033284899
 51
213.33769988388829
  0
LINE
  5
B4
  8
1
 10
259.0
 20
356.0
 30
0.0
 11
301.0
 21
356.0
 31
0.0
  0
ARC
  5
B5
  8
0
 10
280.0
 20
361.39999999999992
 30
0.0
 40
13.0
 50
326.66230011611168
 51
335.37501966715092
  0
ARC
  5
B6
  8
0
 10
280.0
 20
320.0
 30
0.0
 40
36.399999999999999
 50
296.31551547105602
 51
63.68448363893193
  0
ARC
  5
B7
  8
0
 10
295.25
 20
289.16499554078189
 30
0.0
 40
2.0
 50
180.0
 51
296.31551636106832
  0
ARC
  5
B8
  8
0
 10
264.74999999999989
 20
289.16499554078177
 30
0.0
 40
2.0
 50
243.68448363893191
 51
0.0000000000000254
  0
LINE
  5
B9
  8
0
 10
266.74999999999989
 20
350.83500445921828
 30
0.0
 11
266.74999999999989
 21
289.16499554078177
 31
0.0
  0
LINE
  5
BA
  8
0
 10
293.25
 20
350.835004459218
 30
0.0
 11
293.25
 21
289.16499554078189
 31
0.0
  0
LINE
  5
BB
  8
1
 10
280.0
 20
379.49999999999989
 30
0.0
 11
280.0
 21
260.49999999999989
 31
0.0
  0
LINE
  5
BC
  8
1
 10
220.5
 20
320.0
 30
0.0
 11
339.5
 21
320.0
 31
0.0
  0
CIRCLE
  5
BD
  8
0
 10
280.0
 20
320.0
 30
0.0
 40
49.5
  0
LINE
  5
BE
  8
1
 10
193.30000000000001
 20
356.0
 30
0.0
 11
107.2523587005076
 21
356.0
 31
0.0
  0
LINE
  5
BF
  8
0
 10
127.0
 20
365.05889630577383
 30
0.0
 11
127.0
 21
275.25000243140198
 31
0.0
  0
LINE
  5
C0
  8
1
 10
120.5
 20
368.99999999999972
 30
0.0
 11
120.5
 21
339.0
 31
0.0
  0
ARC
  5
C1
  8
0
 10
123.59999999999989
 20
275.24999999999989
 30
0.0
 40
3.399999999999999
 50
284.9918619732365
 51
0.0
  0
ARC
  5
C2
  8
0
 10
112.8388318366265
 20
315.43404235215269
 30
0.0
 40
45.0
 50
273.10253731665711
 51
284.99186708561012
  0
ARC
  5
C3
  8
0
 10
110.4999999999999
 20
274.0
 30
0.0
 40
3.5
 50
180.0
 51
270.0
  0
LINE
  5
C4
  8
0
 10
110.4999999999999
 20
270.5
 30
0.0
 11
115.2743683062681
 21
270.5
 31
0.0
  0
LINE
  5
C5
  8
0
 10
107.0
 20
366.0
 30
0.0
 11
107.0
 21
274.0
 31
0.0
  0
ARC
  5
C6
  8
0
 10
123.59999999999989
 20
364.74999999999989
 30
0.0
 40
3.399999999999999
 50
0.0000000000000254
 51
75.008138026763504
  0
ARC
  5
C7
  8
0
 10
112.8388318366265
 20
324.56595764784731
 30
0.0
 40
45.0
 50
75.008132914389961
 51
86.897462683342923
  0
ARC
  5
C8
  8
0
 10
110.4999999999999
 20
366.0
 30
0.0
 40
3.5
 50
90.000000000000028
 51
180.0
  0
LINE
  5
C9
  8
0
 10
110.4999999999999
 20
369.5
 30
0.0
 11
115.2743683062681
 21
369.5
 31
0.0
  0
LINE
  5
CA
  8
1
 10
97.0
 20
357.0
 30
0.0
 11
125.0
 21
357.0
 31
0.0
  0
LINE
  5
CB
  8
0
  6
CONTINUOUS
 10
127.2999999999999
 20
364.26144408294488
 30
0.0
 11
127.2999999999999
 21
347.73855591705501
 31
0.0
  0
LINE
  5
CC
  8
0
  6
CONTINUOUS
 10
127.0
 20
349.0
 30
0.0
 11
127.2999999999999
 21
349.0
 31
0.0
  0
LINE
  5
CD
  8
0
  6
CONTINUOUS
 10
127.0
 20
363.0
 30
0.0
 11
127.2999999999999
 21
363.0
 31
0.0
  0
LINE
  5
CE
  8
0
  6
CONTINUOUS
 10
152.2999999999999
 20
367.0
 30
0.0
 11
152.2999999999999
 21
345.0
 31
0.0
  0
LINE
  5
CF
  8
0
  6
CONTINUOUS
 10
152.2999999999999
 20
345.0
 30
0.0
 11
180.61384575364801
 21
345.0
 31
0.0
  0
LINE
  5
D0
  8
0
  6
CONTINUOUS
 10
152.2999999999999
 20
367.0
 30
0.0
 11
180.61384575364789
 21
367.0
 31
0.0
  0
LINE
  5
D1
  8
0
  6
CONTINUOUS
 10
128.03620382217349
 20
346.941103694226
 30
0.0
 11
152.2999999999999
 21
345.0
 31
0.0
  0
LINE
  5
D2
  8
0
  6
CONTINUOUS
 10
128.0362038221736
 20
365.05889630577383
 30
0.0
 11
152.2999999999999
 21
367.0
 31
0.0
  0
ARC
  5
D3
  8
0
  6
CONTINUOUS
 10
128.09999999999991
 20
364.26144408294488
 30
0.0
 40
0.8
 50
94.573921259900885
 51
179.99999999999989
  0
ARC
  5
D4
  8
0
  6
CONTINUOUS
 10
128.09999999999991
 20
347.73855591705501
 30
0.0
 40
0.8
 50
179.99999999999989
 51
265.42607874009911
  0
ARC
  5
D5
  8
0
  6
CONTINUOUS
 10
133.2999999999999
 20
356.0
 30
0.0
 40
50.0
 50
348.99635932623949
 51
11.00364067376047
  0
ARC
  5
D6
  8
0
  6
CONTINUOUS
 10
180.61384575364801
 20
346.7999999999999
 30
0.0
 40
1.8
 50
270.0
 51
348.99635932623971
  0
ARC
  5
D7
  8
0
  6
CONTINUOUS
 10
180.61384575364789
 20
365.19999999999999
 30
0.0
 40
1.8
 50
11.00364067376017
 51
90.000000000000057
  0
LINE
  5
D8
  8
1
 10
79.999999999999943
 20
320.0
 30
0.0
 11
137.0
 21
320.0
 31
0.0
  0
LINE
  5
D9
  8
2
 10
625.88179804936021
 20
307.5
 30
0.0
 11
612.0
 21
307.5
 31
0.0
  0
LINE
  5
DA
  8
2
 10
625.89007677627797
 20
332.5
 30
0.0
 11
612.0
 21
332.5
 31
0.0
  0
LINE
  5
DB
  8
2
 10
630.0
 20
315.0
 30
0.0
 11
613.0
 21
315.0
 31
0.0
  0
LINE
  5
DC
  8
2
 10
630.0
 20
311.0
 30
0.0
 11
613.0
 21
311.0
 31
0.0
  0
LINE
  5
DD
  8
2
 10
612.0
 20
312.50000000000011
 30
0.0
 11
613.0
 21
312.50000000000011
 31
0.0
  0
LINE
  5
DE
  8
2
 10
612.0
 20
312.50000000000011
 30
0.0
 11
611.0
 21
312.50000000000011
 31
0.0
  0
LINE
  5
DF
  8
2
 10
612.0
 20
307.5
 30
0.0
 11
611.0
 21
308.49999999999989
 31
0.0
  0
LINE
  5
E0
  8
0
 10
613.0
 20
330.07768130058679
 30
0.0
 11
614.5961479125624
 21
320.0
 31
0.0
  0
LINE
  5
E1
  8
2
 10
612.0
 20
327.49999999999989
 30
0.0
 11
611.0
 21
327.49999999999989
 31
0.0
  0
LINE
  5
E2
  8
2
 10
612.0
 20
327.49999999999989
 30
0.0
 11
612.0
 21
312.50000000000011
 31
0.0
  0
LINE
  5
E3
  8
0
 10
612.0
 20
332.5
 30
0.0
 11
612.05866923030965
 21
332.5
 31
0.0
  0
LINE
  5
E4
  8
0
 10
613.0
 20
309.92231869941321
 30
0.0
 11
614.5961479125624
 21
320.0
 31
0.0
  0
LINE
  5
E5
  8
0
 10
625.89007677627808
 20
332.5
 30
0.0
 11
629.79999999999995
 21
332.5
 31
0.0
  0
LINE
  5
E6
  8
2
 10
611.0
 20
327.49999999999989
 30
0.0
 11
611.0
 21
308.50000000000011
 31
0.0
  0
LINE
  5
E7
  8
2
 10
611.0
 20
331.49999999999989
 30
0.0
 11
611.0
 21
327.49999999999989
 31
0.0
  0
LINE
  5
E8
  8
2
 10
612.0
 20
327.49999999999989
 30
0.0
 11
613.0
 21
327.49999999999989
 31
0.0
  0
LINE
  5
E9
  8
0
 10
628.01172469448215
 20
328.74999999999977
 30
0.0
 11
628.01172469448215
 21
311.26463260028959
 31
0.0
  0
LINE
  5
EA
  8
0
 10
629.79999999999995
 20
332.50000000000011
 30
0.0
 11
629.79999999999995
 21
307.5
 31
0.0
  0
LINE
  5
EB
  8
0
 10
629.79999999999995
 20
307.5
 30
0.0
 11
625.8817980493601
 21
307.5
 31
0.0
  0
LINE
  5
EC
  8
0
 10
630.0
 20
311.0
 30
0.0
 11
629.79999999999995
 21
311.0
 31
0.0
  0
LINE
  5
ED
  8
0
 10
630.0
 20
314.7999999999999
 30
0.0
 11
630.0
 21
311.0
 31
0.0
  0
LINE
  5
EE
  8
0
 10
630.0
 20
314.7999999999999
 30
0.0
 11
630.0
 21
329.0
 31
0.0
  0
LINE
  5
EF
  8
2
 10
612.0
 20
332.5
 30
0.0
 11
611.0
 21
331.49999999999989
 31
0.0
  0
LINE
  5
F0
  8
2
 10
630.0
 20
325.0
 30
0.0
 11
613.0
 21
325.0
 31
0.0
  0
LINE
  5
F1
  8
2
 10
629.79999999999995
 20
329.0
 30
0.0
 11
613.0
 21
329.0
 31
0.0
  0
LINE
  5
F2
  8
0
 10
628.01172469448215
 20
328.75
 30
0.0
 11
613.0
 21
355.28313357098273
 31
0.0
  0
LINE
  5
F3
  8
0
 10
628.01172469448215
 20
311.26463260028959
 30
0.0
 11
613.0
 21
284.7314990293068
 31
0.0
  0
LINE
  5
F4
  8
2
 10
613.0
 20
329.0
 30
0.0
 11
613.0
 21
311.0
 31
0.0
  0
LINE
  5
F5
  8
0
 10
629.79999999999995
 20
329.0
 30
0.0
 11
630.0
 21
329.0
 31
0.0
  0
LINE
  5
F6
  8
1
 10
501.10236750074489
 20
160.49999999999989
 30
0.0
 11
459.10236750074489
 21
160.49999999999989
 31
0.0
  0
ARC
  5
F7
  8
0
 10
480.10236750074489
 20
160.49999999999989
 30
0.0
 40
11.0
 50
36.221546619835209
 51
143.77845338016471
  0
LINE
  5
F8
  8
0
 10
471.10236750074489
 20
130.0
 30
0.0
 11
471.102367500745
 21
130.1999999999999
 31
0.0
  0
LINE
  5
F9
  8
0
 10
489.102367500745
 20
130.1999999999999
 30
0.0
 11
489.102367500745
 21
129.99999999999989
 31
0.0
  0
CIRCLE
  5
FA
  8
0
 10
280.0
 20
356.0
 30
0.0
 40
11.0
  0
CIRCLE
  5
FB
  8
0
 10
280.0
 20
320.0
 30
0.0
 40
12.5
  0
CIRCLE
  5
FC
  8
0
 10
280.0
 20
320.0
 30
0.0
 40
11.5
  0
CIRCLE
  5
FD
  8
0
 10
280.0
 20
320.0
 30
0.0
 40
7.5
  0
LINE
  5
FE
  8
0
 10
90.199999999999946
 20
329.0
 30
0.0
 11
90.0
 21
329.0
 31
0.0
  0
LINE
  5
FF
  8
2
 10
107.0
 20
329.0
 30
0.0
 11
107.0
 21
311.0
 31
0.0
  0
LINE
  5
100
  8
0
 10
91.988275305517845
 20
311.26463260028959
 30
0.0
 11
107.0
 21
284.7314990293068
 31
0.0
  0
LINE
  5
101
  8
0
 10
91.988275305517845
 20
328.75
 30
0.0
 11
107.0
 21
355.28313357098273
 31
0.0
  0
LINE
  5
102
  8
2
 10
90.199999999999946
 20
329.0
 30
0.0
 11
107.0
 21
329.0
 31
0.0
  0
LINE
  5
103
  8
2
 10
90.0
 20
325.0
 30
0.0
 11
107.0
 21
325.0
 31
0.0
  0
LINE
  5
104
  8
2
 10
108.0
 20
332.5
 30
0.0
 11
109.0
 21
331.49999999999989
 31
0.0
  0
LINE
  5
105
  8
0
 10
90.0
 20
314.7999999999999
 30
0.0
 11
90.0
 21
329.0
 31
0.0
  0
LINE
  5
106
  8
0
 10
90.0
 20
314.7999999999999
 30
0.0
 11
90.0
 21
311.0
 31
0.0
  0
LINE
  5
107
  8
0
 10
90.0
 20
311.0
 30
0.0
 11
90.200000000000045
 21
311.0
 31
0.0
  0
LINE
  5
108
  8
0
 10
90.199999999999946
 20
307.5
 30
0.0
 11
94.1182019506399
 21
307.5
 31
0.0
  0
LINE
  5
109
  8
0
 10
90.199999999999946
 20
332.50000000000011
 30
0.0
 11
90.199999999999946
 21
307.5
 31
0.0
  0
LINE
  5
10A
  8
0
 10
91.988275305517845
 20
328.74999999999977
 30
0.0
 11
91.988275305517845
 21
311.26463260028959
 31
0.0
  0
LINE
  5
10B
  8
2
 10
108.0
 20
327.49999999999989
 30
0.0
 11
107.0
 21
327.49999999999989
 31
0.0
  0
LINE
  5
10C
  8
2
 10
109.0
 20
331.49999999999989
 30
0.0
 11
109.0
 21
327.49999999999989
 31
0.0
  0
LINE
  5
10D
  8
2
 10
109.0
 20
327.49999999999989
 30
0.0
 11
109.0
 21
308.50000000000011
 31
0.0
  0
LINE
  5
10E
  8
0
 10
94.109923223721935
 20
332.5
 30
0.0
 11
90.199999999999946
 21
332.5
 31
0.0
  0
LINE
  5
10F
  8
0
 10
107.0
 20
309.92231869941321
 30
0.0
 11
105.4038520874376
 21
320.0
 31
0.0
  0
LINE
  5
110
  8
0
 10
108.0
 20
332.5
 30
0.0
 11
107.9413307696903
 21
332.5
 31
0.0
  0
LINE
  5
111
  8
2
 10
108.0
 20
327.49999999999989
 30
0.0
 11
108.0
 21
312.50000000000011
 31
0.0
  0
LINE
  5
112
  8
2
 10
108.0
 20
327.49999999999989
 30
0.0
 11
109.0
 21
327.49999999999989
 31
0.0
  0
LINE
  5
113
  8
0
 10
107.0
 20
330.07768130058679
 30
0.0
 11
105.4038520874376
 21
320.0
 31
0.0
  0
LINE
  5
114
  8
2
 10
108.0
 20
307.5
 30
0.0
 11
109.0
 21
308.49999999999989
 31
0.0
  0
LINE
  5
115
  8
2
 10
108.0
 20
312.50000000000011
 30
0.0
 11
109.0
 21
312.50000000000011
 31
0.0
  0
LINE
  5
116
  8
2
 10
108.0
 20
312.50000000000011
 30
0.0
 11
107.0
 21
312.50000000000011
 31
0.0
  0
LINE
  5
117
  8
2
 10
90.0
 20
311.0
 30
0.0
 11
107.0
 21
311.0
 31
0.0
  0
LINE
  5
118
  8
2
 10
90.0
 20
315.0
 30
0.0
 11
107.0
 21
315.0
 31
0.0
  0
LINE
  5
119
  8
2
 10
94.109923223722035
 20
332.5
 30
0.0
 11
108.0
 21
332.5
 31
0.0
  0
LINE
  5
11A
  8
2
 10
94.118201950639786
 20
307.5
 30
0.0
 11
108.0
 21
307.5
 31
0.0
  0
LINE
  5
11B
  8
1
 10
280.0
 20
119.9999999999999
 30
0.0
 11
280.0
 21
233.30000000000001
 31
0.0
  0
ARC
  5
11C
  8
0
  6
CONTINUOUS
 10
270.80000000000001
 20
220.61384575364789
 30
0.0
 40
1.8
 50
101.0036406737601
 51
180.0
  0
ARC
  5
11D
  8
0
  6
CONTINUOUS
 10
289.19999999999987
 20
220.61384575364801
 30
0.0
 40
1.8
 50
0.0000000000000368
 51
78.996359326239713
  0
ARC
  5
11E
  8
0
  6
CONTINUOUS
 10
280.0
 20
173.2999999999999
 30
0.0
 40
50.0
 50
78.996359326239514
 51
101.0036406737604
  0
ARC
  5
11F
  8
0
  6
CONTINUOUS
 10
288.26144408294488
 20
168.09999999999991
 30
0.0
 40
0.8
 50
269.99999999999989
 51
355.426078740099
  0
ARC
  5
120
  8
0
  6
CONTINUOUS
 10
271.73855591705501
 20
168.09999999999991
 30
0.0
 40
0.8
 50
184.5739212599008
 51
269.99999999999989
  0
LINE
  5
121
  8
0
  6
CONTINUOUS
 10
270.94110369422611
 20
168.0362038221736
 30
0.0
 11
269.0
 21
192.2999999999999
 31
0.0
  0
LINE
  5
122
  8
0
  6
CONTINUOUS
 10
289.05889630577389
 20
168.03620382217349
 30
0.0
 11
291.0
 21
192.2999999999999
 31
0.0
  0
LINE
  5
123
  8
0
  6
CONTINUOUS
 10
269.0
 20
192.2999999999999
 30
0.0
 11
269.0
 21
220.61384575364789
 31
0.0
  0
LINE
  5
124
  8
0
  6
CONTINUOUS
 10
291.0
 20
192.2999999999999
 30
0.0
 11
291.0
 21
220.61384575364801
 31
0.0
  0
LINE
  5
125
  8
0
  6
CONTINUOUS
 10
269.0
 20
192.2999999999999
 30
0.0
 11
291.0
 21
192.2999999999999
 31
0.0
  0
LINE
  5
126
  8
0
  6
CONTINUOUS
 10
273.0
 20
167.0
 30
0.0
 11
273.0
 21
167.2999999999999
 31
0.0
  0
LINE
  5
127
  8
0
  6
CONTINUOUS
 10
287.0
 20
167.0
 30
0.0
 11
287.0
 21
167.2999999999999
 31
0.0
  0
LINE
  5
128
  8
0
  6
CONTINUOUS
 10
271.73855591705501
 20
167.2999999999999
 30
0.0
 11
288.26144408294488
 21
167.2999999999999
 31
0.0
  0
LINE
  5
129
  8
0
 10
230.5
 20
150.5
 30
0.0
 11
230.5
 21
155.27436830626809
 31
0.0
  0
ARC
  5
12A
  8
0
 10
234.0
 20
150.5
 30
0.0
 40
3.5
 50
180.0
 51
270.0
  0
ARC
  5
12B
  8
0
 10
275.43404235215257
 20
152.8388318366265
 30
0.0
 40
45.0
 50
165.0081329143899
 51
176.89746268334289
  0
ARC
  5
12C
  8
0
 10
235.25
 20
163.59999999999991
 30
0.0
 40
3.399999999999999
 50
90.000000000000028
 51
165.0081380267635
  0
LINE
  5
12D
  8
0
 10
234.0
 20
147.0
 30
0.0
 11
326.0
 21
147.0
 31
0.0
  0
LINE
  5
12E
  8
0
 10
329.49999999999989
 20
150.5
 30
0.0
 11
329.49999999999989
 21
155.27436830626809
 31
0.0
  0
ARC
  5
12F
  8
0
 10
326.0
 20
150.5
 30
0.0
 40
3.5
 50
270.0
 51
0.0000000000000368
  0
ARC
  5
130
  8
0
 10
284.56595764784731
 20
152.8388318366265
 30
0.0
 40
45.0
 50
3.1025373166571208
 51
14.991867085610091
  0
ARC
  5
131
  8
0
 10
324.75
 20
163.59999999999991
 30
0.0
 40
3.399999999999999
 50
14.991861973236521
 51
90.0
  0
LINE
  5
132
  8
1
 10
268.05000000000001
 20
160.49999999999989
 30
0.0
 11
291.94999999999987
 21
160.49999999999989
 31
0.0
  0
LINE
  5
133
  8
0
 10
234.94110369422609
 20
167.0
 30
0.0
 11
324.74999756859802
 21
167.0
 31
0.0
  0
LINE
  5
134
  8
0
 10
288.99999999999977
 20
130.1999999999999
 30
0.0
 11
288.99999999999977
 21
129.99999999999989
 31
0.0
  0
LINE
  5
135
  8
0
 10
270.99999999999989
 20
130.0
 30
0.0
 11
270.99999999999989
 21
130.1999999999999
 31
0.0
  0
LINE
  5
136
  8
2
 10
292.49999999999977
 20
131.98827530551779
 30
0.0
 11
292.49999999999977
 21
148.0
 31
0.0
  0
LINE
  5
137
  8
2
 10
267.5
 20
131.98827530551779
 30
0.0
 11
267.49999999999977
 21
148.0
 31
0.0
  0
LINE
  5
138
  8
2
 10
284.99999999999977
 20
130.0
 30
0.0
 11
284.99999999999977
 21
147.0
 31
0.0
  0
LINE
  5
139
  8
2
 10
288.99999999999989
 20
130.1999999999999
 30
0.0
 11
288.99999999999977
 21
147.0
 31
0.0
  0
LINE
  5
13A
  8
2
 10
287.49999999999989
 20
148.0
 30
0.0
 11
287.49999999999989
 21
147.0
 31
0.0
  0
LINE
  5
13B
  8
2
 10
287.49999999999989
 20
148.0
 30
0.0
 11
287.49999999999989
 21
149.0
 31
0.0
  0
LINE
  5
13C
  8
2
 10
292.49999999999977
 20
148.0
 30
0.0
 11
291.49999999999977
 21
149.0
 31
0.0
  0
LINE
  5
13D
  8
2
 10
272.5
 20
148.0
 30
0.0
 11
272.5
 21
149.0
 31
0.0
  0
LINE
  5
13E
  8
2
 10
272.5
 20
148.0
 30
0.0
 11
287.49999999999989
 21
148.0
 31
0.0
  0
LINE
  5
13F
  8
0
 10
267.49999999999977
 20
148.0
 30
0.0
 11
267.49999999999977
 21
147.9413307696903
 31
0.0
  0
LINE
  5
140
  8
0
 10
272.5
 20
147.0
 30
0.0
 11
274.99999999999989
 21
147.0
 31
0.0
  0
LINE
  5
141
  8
0
 10
270.99999999999989
 20
147.0
 30
0.0
 11
272.5
 21
147.0
 31
0.0
  0
LINE
  5
142
  8
0
 10
274.99999999999989
 20
147.0
 30
0.0
 11
279.99999999999977
 21
147.0
 31
0.0
  0
LINE
  5
143
  8
2
 10
272.49999999999977
 20
149.0
 30
0.0
 11
291.49999999999977
 21
149.0
 31
0.0
  0
LINE
  5
144
  8
2
 10
268.49999999999977
 20
149.0
 30
0.0
 11
272.49999999999977
 21
149.0
 31
0.0
  0
LINE
  5
145
  8
2
 10
272.5
 20
148.0
 30
0.0
 11
272.5
 21
147.0
 31
0.0
  0
LINE
  5
146
  8
0
 10
266.74999999999989
 20
131.98827530551779
 30
0.0
 11
271.0
 21
131.98827530551779
 31
0.0
  0
LINE
  5
147
  8
0
 10
267.49999999999977
 20
130.1999999999999
 30
0.0
 11
292.49999999999977
 21
130.1999999999999
 31
0.0
  0
LINE
  5
148
  8
0
 10
288.99999999999977
 20
130.0
 30
0.0
 11
288.99999999999977
 21
130.19999999999999
 31
0.0
  0
LINE
  5
149
  8
0
 10
288.99999999999977
 20
129.99999999999989
 30
0.0
 11
270.99999999999989
 21
130.0
 31
0.0
  0
LINE
  5
14A
  8
2
 10
267.49999999999977
 20
148.0
 30
0.0
 11
268.49999999999977
 21
149.0
 31
0.0
  0
LINE
  5
14B
  8
2
 10
274.99999999999989
 20
130.0
 30
0.0
 11
274.99999999999989
 21
147.0
 31
0.0
  0
LINE
  5
14C
  8
2
 10
270.99999999999989
 20
130.1999999999999
 30
0.0
 11
270.99999999999989
 21
147.0
 31
0.0
  0
LINE
  5
14D
  8
0
 10
271.0
 20
146.99999999999989
 30
0.0
 11
271.0
 21
131.98827530551779
 31
0.0
  0
LINE
  5
14E
  8
0
 10
289.0
 20
146.99999999999989
 30
0.0
 11
289.0
 21
131.98827530551779
 31
0.0
  0
LINE
  5
14F
  8
0
 10
289.0
 20
131.98827530551779
 30
0.0
 11
293.24999999999977
 21
131.98827530551779
 31
0.0
  0
LINE
  5
150
  8
0
 10
267.49999999999977
 20
130.1999999999999
 30
0.0
 11
267.49999999999977
 21
131.98827530551779
 31
0.0
  0
LINE
  5
151
  8
0
 10
292.5
 20
130.1999999999999
 30
0.0
 11
292.5
 21
131.98827530551779
 31
0.0
  0
LINE
  5
152
  8
0
 10
293.25
 20
147.0
 30
0.0
 11
293.25
 21
131.98827530551779
 31
0.0
  0
LINE
  5
153
  8
0
 10
266.74999999999989
 20
147.0
 30
0.0
 11
266.74999999999989
 21
131.98827530551779
 31
0.0
  0
LINE
  5
154
  8
0
 10
289.0
 20
142.53323116256831
 30
0.0
 11
271.0
 21
142.53323116256831
 31
0.0
  0
ENDSEC
  0
EOF
