  0
SECTION
  2
HEADER
  9
$ACADVER
  1
AC1015
  9
$ACADMAINTVER
 70
    13
  9
$DWGCODEPAGE
  3
ANSI_932
  9
$INSBASE
 10
0.0
 20
0.0
 30
0.0
  9
$EXTMIN
 10
33.948852
 20
32.5
 30
0.0
  9
$EXTMAX
 10
391.5
 20
214.4298706617622
 30
0.0
  9
$LIMMIN
 10
0.0
 20
0.0
  9
$LIMMAX
 10
400.0
 20
280.0
  9
$ORTHOMODE
 70
     1
  9
$REGENMODE
 70
     1
  9
$FILLMODE
 70
     1
  9
$QTEXTMODE
 70
     0
  9
$MIRRTEXT
 70
     1
  9
$LTSCALE
 40
1.0
  9
$ATTMODE
 70
     1
  9
$TEXTSIZE
 40
6.0
  9
$TRACEWID
 40
0.05
  9
$TEXTSTYLE
  7
BIGFONT
  9
$CLAYER
  8
0
  9
$CELTYPE
  6
BYLAYER
  9
$CECOLOR
 62
   256
  9
$CELTSCALE
 40
1.0
  9
$DISPSILH
 70
     0
  9
$DIMSCALE
 40
1.0
  9
$DIMASZ
 40
0.18
  9
$DIMEXO
 40
0.0625
  9
$DIMDLI
 40
0.38
  9
$DIMRND
 40
0.0
  9
$DIMDLE
 40
0.0
  9
$DIMEXE
 40
0.18
  9
$DIMTP
 40
0.0
  9
$DIMTM
 40
0.0
  9
$DIMTXT
 40
0.18
  9
$DIMCEN
 40
0.09
  9
$DIMTSZ
 40
0.0
  9
$DIMTOL
 70
     0
  9
$DIMLIM
 70
     0
  9
$DIMTIH
 70
     1
  9
$DIMTOH
 70
     1
  9
$DIMSE1
 70
     0
  9
$DIMSE2
 70
     0
  9
$DIMTAD
 70
     0
  9
$DIMZIN
 70
     0
  9
$DIMBLK
  1

  9
$DIMASO
 70
     1
  9
$DIMSHO
 70
     1
  9
$DIMPOST
  1

  9
$DIMAPOST
  1

  9
$DIMALT
 70
     0
  9
$DIMALTD
 70
     2
  9
$DIMALTF
 40
25.4
  9
$DIMLFAC
 40
1.0
  9
$DIMTOFL
 70
     0
  9
$DIMTVP
 40
0.0
  9
$DIMTIX
 70
     0
  9
$DIMSOXD
 70
     0
  9
$DIMSAH
 70
     0
  9
$DIMBLK1
  1

  9
$DIMBLK2
  1

  9
$DIMSTYLE
  2
STANDARD
  9
$DIMCLRD
 70
     0
  9
$DIMCLRE
 70
     0
  9
$DIMCLRT
 70
     0
  9
$DIMTFAC
 40
1.0
  9
$DIMGAP
 40
0.09
  9
$DIMJUST
 70
     0
  9
$DIMSD1
 70
     0
  9
$DIMSD2
 70
     0
  9
$DIMTOLJ
 70
     1
  9
$DIMTZIN
 70
     0
  9
$DIMALTZ
 70
     0
  9
$DIMALTTZ
 70
     0
  9
$DIMUPT
 70
     0
  9
$DIMDEC
 70
     4
  9
$DIMTDEC
 70
     4
  9
$DIMALTU
 70
     2
  9
$DIMALTTD
 70
     2
  9
$DIMTXSTY
  7
BIGFONT
  9
$DIMAUNIT
 70
     0
  9
$DIMADEC
 70
     0
  9
$DIMALTRND
 40
0.0
  9
$DIMAZIN
 70
     0
  9
$DIMDSEP
 70
    46
  9
$DIMATFIT
 70
     3
  9
$DIMFRAC
 70
     0
  9
$DIMLDRBLK
  1

  9
$DIMLUNIT
 70
     2
  9
$DIMLWD
 70
    -2
  9
$DIMLWE
 70
    -2
  9
$DIMTMOVE
 70
     0
  9
$LUNITS
 70
     2
  9
$LUPREC
 70
     4
  9
$SKETCHINC
 40
0.1
  9
$FILLETRAD
 40
0.0
  9
$AUNITS
 70
     0
  9
$AUPREC
 70
     0
  9
$MENU
  1
acad
  9
$ELEVATION
 40
0.0
  9
$PELEVATION
 40
0.0
  9
$THICKNESS
 40
0.0
  9
$LIMCHECK
 70
     0
  9
$CHAMFERA
 40
0.0
  9
$CHAMFERB
 40
0.0
  9
$CHAMFERC
 40
0.0
  9
$CHAMFERD
 40
0.0
  9
$SKPOLY
 70
     0
  9
$TDCREATE
 40
2450867.141740393
  9
$TDUCREATE
 40
2450866.766740393
  9
$TDUPDATE
 40
2454687.669019456
  9
$TDUUPDATE
 40
2454687.294019456
  9
$TDINDWG
 40
0.0211382292
  9
$TDUSRTIMER
 40
0.0211382292
  9
$USRTIMER
 70
     1
  9
$ANGBASE
 50
0.0
  9
$ANGDIR
 70
     0
  9
$PDMODE
 70
     0
  9
$PDSIZE
 40
0.0
  9
$PLINEWID
 40
0.0
  9
$SPLFRAME
 70
     0
  9
$SPLINETYPE
 70
     6
  9
$SPLINESEGS
 70
     8
  9
$HANDSEED
  5
5EC
  9
$SURFTAB1
 70
     6
  9
$SURFTAB2
 70
     6
  9
$SURFTYPE
 70
     6
  9
$SURFU
 70
     6
  9
$SURFV
 70
     6
  9
$UCSBASE
  2

  9
$UCSNAME
  2

  9
$UCSORG
 10
0.0
 20
0.0
 30
0.0
  9
$UCSXDIR
 10
1.0
 20
0.0
 30
0.0
  9
$UCSYDIR
 10
0.0
 20
1.0
 30
0.0
  9
$UCSORTHOREF
  2

  9
$UCSORTHOVIEW
 70
     0
  9
$UCSORGTOP
 10
0.0
 20
0.0
 30
0.0
  9
$UCSORGBOTTOM
 10
0.0
 20
0.0
 30
0.0
  9
$UCSORGLEFT
 10
0.0
 20
0.0
 30
0.0
  9
$UCSORGRIGHT
 10
0.0
 20
0.0
 30
0.0
  9
$UCSORGFRONT
 10
0.0
 20
0.0
 30
0.0
  9
$UCSORGBACK
 10
0.0
 20
0.0
 30
0.0
  9
$PUCSBASE
  2

  9
$PUCSNAME
  2

  9
$PUCSORG
 10
0.0
 20
0.0
 30
0.0
  9
$PUCSXDIR
 10
1.0
 20
0.0
 30
0.0
  9
$PUCSYDIR
 10
0.0
 20
1.0
 30
0.0
  9
$PUCSORTHOREF
  2

  9
$PUCSORTHOVIEW
 70
     0
  9
$PUCSORGTOP
 10
0.0
 20
0.0
 30
0.0
  9
$PUCSORGBOTTOM
 10
0.0
 20
0.0
 30
0.0
  9
$PUCSORGLEFT
 10
0.0
 20
0.0
 30
0.0
  9
$PUCSORGRIGHT
 10
0.0
 20
0.0
 30
0.0
  9
$PUCSORGFRONT
 10
0.0
 20
0.0
 30
0.0
  9
$PUCSORGBACK
 10
0.0
 20
0.0
 30
0.0
  9
$USERI1
 70
     0
  9
$USERI2
 70
     0
  9
$USERI3
 70
     0
  9
$USERI4
 70
     0
  9
$USERI5
 70
     0
  9
$USERR1
 40
0.0
  9
$USERR2
 40
0.0
  9
$USERR3
 40
0.0
  9
$USERR4
 40
0.0
  9
$USERR5
 40
0.0
  9
$WORLDVIEW
 70
     1
  9
$SHADEDGE
 70
     3
  9
$SHADEDIF
 70
    70
  9
$TILEMODE
 70
     1
  9
$MAXACTVP
 70
    16
  9
$PINSBASE
 10
0.0
 20
0.0
 30
0.0
  9
$PLIMCHECK
 70
     0
  9
$PEXTMIN
 10
1.000000000000000E+20
 20
1.000000000000000E+20
 30
1.000000000000000E+20
  9
$PEXTMAX
 10
-1.000000000000000E+20
 20
-1.000000000000000E+20
 30
-1.000000000000000E+20
  9
$PLIMMIN
 10
0.0
 20
0.0
  9
$PLIMMAX
 10
12.0
 20
9.0
  9
$UNITMODE
 70
     0
  9
$VISRETAIN
 70
     0
  9
$PLINEGEN
 70
     0
  9
$PSLTSCALE
 70
     1
  9
$TREEDEPTH
 70
  3020
  9
$CMLSTYLE
  2
STANDARD
  9
$CMLJUST
 70
     0
  9
$CMLSCALE
 40
1.0
  9
$PROXYGRAPHICS
 70
     1
  9
$MEASUREMENT
 70
     0
  9
$CELWEIGHT
370
    -1
  9
$ENDCAPS
280
     0
  9
$JOINSTYLE
280
     0
  9
$LWDISPLAY
290
     0
  9
$INSUNITS
 70
     0
  9
$HYPERLINKBASE
  1

  9
$STYLESHEET
  1

  9
$XEDIT
290
     1
  9
$CEPSNTYPE
380
     0
  9
$PSTYLEMODE
290
     1
  9
$FINGERPRINTGUID
  2
{D7A5F5EB-00A9-432C-BC5E-84F91161BE45}
  9
$VERSIONGUID
  2
{EF5A5332-D280-4164-9727-FE160CD6391F}
  9
$EXTNAMES
290
     1
  9
$PSVPSCALE
 40
0.0
  9
$OLESTARTUP
290
     0
  0
ENDSEC
  0
SECTION
  2
CLASSES
  0
CLASS
  1
DICTIONARYVAR
  2
AcDbDictionaryVar
  3
AutoCAD 2000
 90
        0
280
     0
281
     0
  0
CLASS
  1
ACDBDICTIONARYWDFLT
  2
AcDbDictionaryWithDefault
  3
AutoCAD 2000
 90
        0
280
     0
281
     0
  0
CLASS
  1
ACDBPLACEHOLDER
  2
AcDbPlaceHolder
  3
AutoCAD 2000
 90
        0
280
     0
281
     0
  0
CLASS
  1
LAYOUT
  2
AcDbLayout
  3
AutoCAD 2000
 90
        0
280
     0
281
     0
  0
CLASS
  1
AMGSETTINGSOBJ
  2
AmgSettingsObj
  3
"AcadM|Product Description: AutoCAD Mechanical 2000|Company: Autodesk"
 90
        0
280
     0
281
     0
  0
CLASS
  1
ACME_DOCUMENT
  2
AcMeDbDoc
  3
AcMeServices
 90
        0
280
     0
281
     0
  0
CLASS
  1
ACMESCOPE
  2
AcMeScope
  3
AcMeServices
 90
        0
280
     0
281
     0
  0
CLASS
  1
ACMECOMMANDHISTORY
  2
AcMeCommandHistory
  3
AcMeServices
 90
        0
280
     0
281
     0
  0
CLASS
  1
ACIMSYSVARMAN
  2
AcImSysVarManager
  3
AcMeServices
 90
        0
280
     0
281
     0
  0
CLASS
  1
ACIMREALSYSVAR
  2
AcImRealSysVar
  3
AcMeServices
 90
        0
280
     0
281
     0
  0
CLASS
  1
ACIMINTSYSVAR
  2
AcImIntSysVar
  3
AcMeServices
 90
        0
280
     0
281
     0
  0
CLASS
  1
ACMEDRAWINGMAN
  2
AcMeDrawingMan
  3
AcMeServices
 90
        0
280
     0
281
     0
  0
CLASS
  1
ACMEVIEW
  2
AcMeView
  3
AcMeServices
 90
        0
280
     0
281
     0
  0
CLASS
  1
ACDBENTITYCACHE
  2
AcMeEntityCache
  3
AcMeServices
 90
        0
280
     0
281
     0
  0
CLASS
  1
GSMANAGER
  2
AcMeGSManager
  3
AcMeServices
 90
        0
280
     0
281
     0
  0
CLASS
  1
AMDTINTERNALREACTOR
  2
AmdtInternalReactor
  3
AcMeServices
 90
        0
280
     0
281
     0
  0
CLASS
  1
ACMESTATEMGR
  2
AcMeStateMgr
  3
AcMeServices
 90
        0
280
     0
281
     0
  0
CLASS
  1
ACGREFMASTER
  2
AcGrefMaster
  3
AcAttribServices
 90
        0
280
     0
281
     0
  0
CLASS
  1
AM_DRAWING_MGR
  2
AcDmDwgMgr
  3
AcMechDwgViewMgmt
 90
        0
280
     0
281
     0
  0
CLASS
  1
AM_DWG_DOCUMENT
  2
AcDmDwgDocument
  3
AcMechDwgViewMgmt
 90
        0
280
     0
281
     0
  0
CLASS
  1
AM_DWG_SHEET
  2
AcDmSheet
  3
AcMechDwgViewMgmt
 90
        0
280
     0
281
     0
  0
CLASS
  1
AM_VIEWDIMPARMAP
  2
AcDmViewDimParMap
  3
AcMechDwgViewMgmt
 90
        0
280
     0
281
     0
  0
CLASS
  1
AM_DWGMGR_NAME
  2
AcDmDwgMgrName
  3
AcMechDwgViewMgmt
 90
        0
280
     0
281
     0
  0
CLASS
  1
ACME_DATABASE
  2
AcMeDbDatabase
  3
AcMeServices
 90
        0
280
     0
281
     0
  0
CLASS
  1
ACRFINSADJUSTERMGR
  2
AcRfInsAdjusterMgr
  3
AcMeServices
 90
        0
280
     0
281
     0
  0
CLASS
  1
ACGREFACADMASTER
  2
AcGrefacadMaster
  3
AcGrefServices
 90
        0
280
     0
281
     0
  0
CLASS
  1
AMDTMENUSTATEMGR
  2
AmdtMenuStateMgr
  3
McadcomServices
 90
        0
280
     0
281
     0
  0
CLASS
  1
AMDTMCOMMENUSTATE
  2
AmdtMcomMenuState
  3
McadcomServices
 90
        0
280
     0
281
     0
  0
CLASS
  1
AMIMASTER
  2
AmiMaster
  3
AmiServices
 90
        0
280
     0
281
     0
  0
CLASS
  1
ASAPP
  2
AcAsAppObject
  3
AutoSurfServices
 90
        0
280
     0
281
     0
  0
CLASS
  1
IM_STATIC_MAN
  2
AcImStaticVarManager
  3
AcMeServices
 90
        0
280
     0
281
     0
  0
CLASS
  1
ACIMSTRSYSVAR
  2
AcImStrSysVar
  3
AcMeServices
 90
        0
280
     0
281
     0
  0
CLASS
  1
ACIMDBLSTATICVAR
  2
AcImDblStaticVar
  3
AcMeServices
 90
        0
280
     0
281
     0
  0
CLASS
  1
ACIMSTRSTATICVAR
  2
AcImStrStaticVar
  3
AcMeServices
 90
        0
280
     0
281
     0
  0
CLASS
  1
ACIMINTSTATICVAR
  2
AcImIntStaticVar
  3
AcMeServices
 90
        0
280
     0
281
     0
  0
CLASS
  1
ACASGREFMASTER
  2
AcAsGrefMaster
  3
AutoSurfResolverServices
 90
        0
280
     0
281
     0
  0
CLASS
  1
ACADGREFMODULE
  2
AcAdGrefModule
  3
AdGrefServices
 90
        0
280
     0
281
     0
  0
CLASS
  1
AMDTMAPISURFMOUDULE
  2
AmdtMApiSurfModule
  3
MApiSurfServices
 90
        0
280
     0
281
     0
  0
CLASS
  1
MAPIAMMOUDLE
  2
MApiAmModule
  3
MApiAmServices
 90
        0
280
     0
281
     0
  0
CLASS
  1
AMDTADMENUSTATE
  2
AmdtAdMenuState
  3
DesignerServices
 90
        0
280
     0
281
     0
  0
CLASS
  1
ADAPPL
  2
AcAdAppl
  3
DesignerServices
 90
        0
280
     0
281
     0
  0
CLASS
  1
DEPMGR
  2
AcAdDepMgr
  3
DesignerServices
 90
        0
280
     0
281
     0
  0
CLASS
  1
PARAMMGR
  2
AcAdParamMgr
  3
DesignerServices
 90
        0
280
     0
281
     0
  0
CLASS
  1
PARAMSCOPE
  2
AcAdParamScope
  3
DesignerServices
 90
        0
280
     0
281
     0
  0
CLASS
  1
NAMEDAPPL
  2
AcAdNamedAppl
  3
DesignerServices
 90
        0
280
     0
281
     0
  0
CLASS
  1
AMDTDMMENUSTATE
  2
AmdtDmMenuState
  3
AcMechDwgViewMgmt
 90
        0
280
     0
281
     0
  0
CLASS
  1
MAPIADMODULE
  2
MApiAdModule
  3
MApiAdServices
 90
        0
280
     0
281
     0
  0
CLASS
  1
AMDTAMMENUSTATE
  2
AmdtAmMenuState
  3
DesignerAssemblies
 90
        0
280
     0
281
     0
  0
CLASS
  1
ACAMPROJECT
  2
AcAmProject
  3
DesignerAssemblies
 90
        0
280
     0
281
     0
  0
CLASS
  1
ACAMGRCOMPDEF
  2
AcAmGrCompDef
  3
DesignerAssemblies
 90
        0
280
     0
281
     0
  0
CLASS
  1
ACCMCONTEXT
  2
AcCmContext
  3
DesignerAssemblies
 90
        0
280
     0
281
     0
  0
CLASS
  1
ACAMCOMPDEF
  2
AcAmCompDef
  3
DesignerAssemblies
 90
        0
280
     0
281
     0
  0
CLASS
  1
ACAMCOMPDEFMGR
  2
AcAmCompDefMgr
  3
DesignerAssemblies
 90
        0
280
     0
281
     0
  0
CLASS
  1
AMCONTEXTMGR
  2
AcAmContextMgr
  3
DesignerAssemblies
 90
        0
280
     0
281
     0
  0
CLASS
  1
ACAMCONTEXTMODELER
  2
AcAmContextModeler
  3
DesignerAssemblies
 90
        0
280
     0
281
     0
  0
CLASS
  1
ACMDATADICTIONARY
  2
AcmDataDictionary
  3
"AcmSymBB|Product Description: AutoCAD Mechanical 2000|Company: Autodesk"
 90
        0
280
     0
281
     0
  0
CLASS
  1
ACMDATAENTRYBLOCK
  2
AcmDataEntryBlock
  3
"AcmSymBB|Product Description: AutoCAD Mechanical 2000|Company: Autodesk"
 90
        0
280
     0
281
     0
  0
CLASS
  1
CATALOGSTATE
  2
AcAmCatalogState
  3
DesignerAssemblies
 90
        0
280
     0
281
     0
  0
CLASS
  1
ACAMGRCOMPDEFSET
  2
AcAmGrCompDefSet
  3
DesignerAssemblies
 90
        0
280
     0
281
     0
  0
CLASS
  1
AMDTBROWSERDBTAB
  2
AmdtBrowserDbTab
  3
McadcomServices
 90
        0
280
     0
281
     0
  0
CLASS
  1
CBROWSERAPPOBJECT
  2
CBrowserAppObject
  3
McadcomServices
 90
        0
280
     0
281
     0
  0
CLASS
  1
DM_PLACEHOLDER
  2
AcDmSelsetPlaceholder
  3
AcMechDwgViewMgmt
 90
        0
280
     0
281
     0
  0
CLASS
  1
ACMSTANDARDANSI
  2
AcmStandardANSI
  3
"Amdt_StdImp|Product Description: AutoCAD Mechanical 2000|Company: Autodesk"
 90
        0
280
     0
281
     0
  0
CLASS
  1
AMGOBJPROPCFG
  2
AmgObjPropCfg
  3
"AmgLay|Product Description: AutoCAD Mechanical 2000|Company: Autodesk"
 90
        1
280
     0
281
     0
  0
CLASS
  1
ACMSURFSTANDARDANSI
  2
AcmSurfTextStdANSI
  3
"Amdt_StdImp|Product Description: AutoCAD Mechanical 2000|Company: Autodesk"
 90
        0
280
     0
281
     0
  0
CLASS
  1
ACMFCFSTANDARDANSI
  2
AcmFCFStdANSI
  3
"Amdt_StdImp|Product Description: AutoCAD Mechanical 2000|Company: Autodesk"
 90
        0
280
     0
281
     0
  0
CLASS
  1
ACMWELDSTANDARDANSI
  2
AcmWeldingStdANSI
  3
"Amdt_StdImp|Product Description: AutoCAD Mechanical 2000|Company: Autodesk"
 90
        0
280
     0
281
     0
  0
CLASS
  1
ACMIDSTANDARDANSI
  2
AcmIdStdANSI
  3
"Amdt_StdImp|Product Description: AutoCAD Mechanical 2000|Company: Autodesk"
 90
        0
280
     0
281
     0
  0
CLASS
  1
ACMDATUMSTANDARDANSI
  2
AcmDatumStdANSI
  3
"Amdt_StdImp|Product Description: AutoCAD Mechanical 2000|Company: Autodesk"
 90
        0
280
     0
281
     0
  0
CLASS
  1
ACMBOMSTANDARDANSI
  2
AcmBOMStdANSI
  3
"Amdt_StdImp|Product Description: AutoCAD Mechanical 2000|Company: Autodesk"
 90
        0
280
     0
281
     0
  0
CLASS
  1
ACMDETAILSTANDARDANSI
  2
AmdtDetailSymStdANSI
  3
"Amdt_StdImp|Product Description: AutoCAD Mechanical 2000|Company: Autodesk"
 90
        0
280
     0
281
     0
  0
CLASS
  1
ACMSECTIONSTANDARDANSI
  2
AmdtSectionSymStdANSI
  3
"Amdt_StdImp|Product Description: AutoCAD Mechanical 2000|Company: Autodesk"
 90
        0
280
     0
281
     0
  0
CLASS
  1
ACMCENTERLINESTANDARDANSI
  2
AmdtCenterLineStdANSI
  3
"Amdt_StdImp|Product Description: AutoCAD Mechanical 2000|Company: Autodesk"
 90
        0
280
     0
281
     0
  0
CLASS
  1
ACMTHREADLINESTANDARDANSI
  2
AmdtThreadLineStdANSI
  3
"Amdt_StdImp|Product Description: AutoCAD Mechanical 2000|Company: Autodesk"
 90
        0
280
     0
281
     0
  0
CLASS
  1
ACMNOTESTANDARDANSI
  2
AmdtNoteStdANSI
  3
"Amdt_StdImp|Product Description: AutoCAD Mechanical 2000|Company: Autodesk"
 90
        0
280
     0
281
     0
  0
CLASS
  1
ACAMGLAYSTD
  2
AcAmgLayStd
  3
"AcAmgLayStd|Product Description: AutoCAD Mechanical 2000|Company: Autodesk"
 90
        0
280
     0
281
     0
  0
CLASS
  1
ACAMGDIMSTD
  2
AcAmgDimStd
  3
"AcAmgDimStd|Product Description: AutoCAD Mechanical 2000|Company: Autodesk"
 90
        0
280
     0
281
     0
  0
CLASS
  1
ACAMGHOLECHARTSTDANSI
  2
AcAmgHoleChartStdANSI
  3
ACMSYMBB_MODULE_NAME
 90
        0
280
     0
281
     0
  0
CLASS
  1
ACAMGTITLESTD
  2
AcAmgTitleStd
  3
"TITLEAPP"
 90
        0
280
     0
281
     0
  0
CLASS
  1
LAYER_INDEX
  2
AcDbLayerIndex
  3
AutoCAD 2000
 90
        0
280
     0
281
     0
  0
CLASS
  1
IDBUFFER
  2
AcDbIdBuffer
  3
AutoCAD 2000
 90
        0
280
     0
281
     0
  0
CLASS
  1
ACAMGFILTERDAT
  2
AcAmgFilterDat
  3
"AcadM|Product Description: AutoCAD Mechanical 2000|Company: Autodesk"
 90
        0
280
     0
281
     0
  0
CLASS
  1
AMDTFORMULAUPDATEDISPATCHER
  2
AmdtFormulaUpdateDispatcher
  3
AcMeServices
 90
        0
280
     0
281
     0
  0
ENDSEC
  0
SECTION
  2
TABLES
  0
TABLE
  2
VPORT
  5
E6
330
0
100
AcDbSymbolTable
 70
    27
  0
VPORT
  5
5EB
330
E6
100
AcDbSymbolTableRecord
100
AcDbViewportTableRecord
  2
*Active
 70
     0
 10
0.0
 20
0.0
 11
1.0
 21
1.0
 12
0.0
 22
0.0
 13
0.0
 23
0.0
 14
5.0
 24
5.0
 15
10.0
 25
10.0
 16
0.0
 26
0.0
 36
1.0
 17
262.5030402095342
 27
173.043022
 37
0.0
 40
346.7966787662826
 41
1.516981132075471
 42
50.0
 43
0.0
 44
0.0
 50
0.0
 51
0.0
 71
     0
 72
   100
 73
     1
 74
     1
 75
     0
 76
     0
 77
     0
 78
     0
281
     0
 65
     0
110
0.0
120
0.0
130
0.0
111
1.0
121
0.0
131
0.0
112
0.0
122
1.0
132
0.0
 79
     0
146
0.0
  0
ENDTAB
  0
TABLE
  2
LTYPE
  5
E3
330
0
100
AcDbSymbolTable
 70
    21
  0
LTYPE
  5
EF
330
E3
100
AcDbSymbolTableRecord
100
AcDbLinetypeTableRecord
  2
BYBLOCK
 70
     0
  3

 72
    65
 73
     0
 40
0.0
  0
LTYPE
  5
F0
330
E3
100
AcDbSymbolTableRecord
100
AcDbLinetypeTableRecord
  2
BYLAYER
 70
     0
  3

 72
    65
 73
     0
 40
0.0
  0
LTYPE
  5
F1
330
E3
100
AcDbSymbolTableRecord
100
AcDbLinetypeTableRecord
  2
CONTINUOUS
 70
     0
  3
Solid line
 72
    65
 73
     0
 40
0.0
  0
LTYPE
  5
FC
330
E3
100
AcDbSymbolTableRecord
100
AcDbLinetypeTableRecord
  2
TENSEN1
 70
     0
  3

 72
    65
 73
     2
 40
0.4
 49
0.3
 74
     0
 49
-0.1
 74
     0
  0
LTYPE
  5
FD
330
E3
100
AcDbSymbolTableRecord
100
AcDbLinetypeTableRecord
  2
ITTEN1
 70
     0
  3

 72
    65
 73
     4
 40
8.199999999999999
 49
5.0
 74
     0
 49
-1.0
 74
     0
 49
1.199999999999999
 74
     0
 49
-1.0
 74
     0
  0
LTYPE
  5
FE
330
E3
100
AcDbSymbolTableRecord
100
AcDbLinetypeTableRecord
  2
TENSEN2
 70
     0
  3

 72
    65
 73
     2
 40
2.1
 49
1.5
 74
     0
 49
-0.6
 74
     0
  0
LTYPE
  5
147
330
E3
100
AcDbSymbolTableRecord
100
AcDbLinetypeTableRecord
  2
HIDDEN
 70
     0
  3
Hidden __ __ __ __ __ __ __ __ __ __ __ __ __ _
 72
    65
 73
     2
 40
0.375
 49
0.25
 74
     0
 49
-0.125
 74
     0
  0
LTYPE
  5
148
330
E3
100
AcDbSymbolTableRecord
100
AcDbLinetypeTableRecord
  2
PHANTOM2
 70
     0
  3
Phantom (.5x) ___ _ _ ___ _ _ ___ _ _ ___ _ _
 72
    65
 73
     6
 40
1.25
 49
0.625
 74
     0
 49
-0.125
 74
     0
 49
0.125
 74
     0
 49
-0.125
 74
     0
 49
0.125
 74
     0
 49
-0.125
 74
     0
  0
LTYPE
  5
149
330
E3
100
AcDbSymbolTableRecord
100
AcDbLinetypeTableRecord
  2
CENTER
 70
     0
  3
Center ____ _ ____ _ ____ _ ____ _ ____ _ ____
 72
    65
 73
     4
 40
2.0
 49
1.25
 74
     0
 49
-0.25
 74
     0
 49
0.25
 74
     0
 49
-0.25
 74
     0
  0
LTYPE
  5
1AB
330
E3
100
AcDbSymbolTableRecord
100
AcDbLinetypeTableRecord
  2
ASULTYPE
 70
     0
  3
実線
 72
    65
 73
     2
 40
3.0
 49
2.5
 74
     0
 49
0.5
 74
     0
  0
LTYPE
  5
1AC
330
E3
100
AcDbSymbolTableRecord
100
AcDbLinetypeTableRecord
  2
ASVLTYPE
 70
     0
  3
__ __ __ __ __ __ __ __ __ __ __ __ __ __ __ __ __ __ __ __ __
 72
    65
 73
     2
 40
0.75
 49
0.5
 74
     0
 49
-0.25
 74
     0
  0
LTYPE
  5
1F0
330
E3
100
AcDbSymbolTableRecord
100
AcDbLinetypeTableRecord
  2
AM_ISO02W050
 70
     0
  3
__ __ __ __ __ __ __ __ __ __ __ __ __ __ __
 72
    65
 73
     2
 40
7.5
 49
6.0
 74
     0
 49
-1.5
 74
     0
  0
LTYPE
  5
1F1
330
E3
100
AcDbSymbolTableRecord
100
AcDbLinetypeTableRecord
  2
AM_ISO08W050
 70
     0
  3
____ . ____ . ____ . ____ . ____ . ____ . ____
 72
    65
 73
     4
 40
18.0
 49
12.0
 74
     0
 49
-1.5
 74
     0
 49
3.0
 74
     0
 49
-1.5
 74
     0
  0
LTYPE
  5
1F2
330
E3
100
AcDbSymbolTableRecord
100
AcDbLinetypeTableRecord
  2
AM_ISO09W050
 70
     0
  3
_____ . . _____ . . _____ . . ____ .. ____
 72
    65
 73
     6
 40
22.5
 49
12.0
 74
     0
 49
-1.5
 74
     0
 49
3.0
 74
     0
 49
-1.5
 74
     0
 49
3.0
 74
     0
 49
-1.5
 74
     0
  0
LTYPE
  5
1F3
330
E3
100
AcDbSymbolTableRecord
100
AcDbLinetypeTableRecord
  2
Amconstr
 70
     0
  3
_______________________
 72
    65
 73
     2
 40
9999.0
 49
9999.0
 74
     0
 49
0.0
 74
     0
  0
LTYPE
  5
1F4
330
E3
100
AcDbSymbolTableRecord
100
AcDbLinetypeTableRecord
  2
AM_ISO08W050x2
 70
     0
  3
__ . __ . __ . __ . __ . __
 72
    65
 73
     4
 40
9.0
 49
6.0
 74
     0
 49
-0.75
 74
     0
 49
1.5
 74
     0
 49
-0.75
 74
     0
  0
LTYPE
  5
1F5
330
E3
100
AcDbSymbolTableRecord
100
AcDbLinetypeTableRecord
  2
AM_ISO02W050x2
 70
     0
  3
 _ _ _ _ _ _ _ _ _ _ _ _
 72
    65
 73
     2
 40
3.75
 49
3.0
 74
     0
 49
-0.75
 74
     0
  0
LTYPE
  5
1F8
330
E3
100
AcDbSymbolTableRecord
100
AcDbLinetypeTableRecord
  2
Amzigzag
 70
     0
  3
/\/-/\/-/\/-/\/-/\/-/\/
 72
    65
 73
     2
 40
11.00009999999999
 49
0.0001
 74
     4
 75
   135
340
1F7
 46
0.04
 50
0.0
 44
0.0
 45
0.0
 49
-11.0
 74
     0
  0
LTYPE
  5
1F9
330
E3
100
AcDbSymbolTableRecord
100
AcDbLinetypeTableRecord
  2
CENTER2
 70
     0
  3
Center (.5x) ___ _ ___ _ ___ _ ___ _ ___ _ ___
 72
    65
 73
     4
 40
1.125
 49
0.75
 74
     0
 49
-0.125
 74
     0
 49
0.125
 74
     0
 49
-0.125
 74
     0
  0
LTYPE
  5
1FA
330
E3
100
AcDbSymbolTableRecord
100
AcDbLinetypeTableRecord
  2
HIDDEN2
 70
     0
  3
Hidden (.5x) _ _ _ _ _ _ _ _ _ _ _ _ _ _ _ _ _
 72
    65
 73
     2
 40
0.1875
 49
0.125
 74
     0
 49
-0.0625
 74
     0
  0
LTYPE
  5
1FB
330
E3
100
AcDbSymbolTableRecord
100
AcDbLinetypeTableRecord
  2
Amzigzag2
 70
     0
  3
/\/-/\/-/\/-/\/-/\/-/\/
 72
    65
 73
     2
 40
0.4401
 49
0.0001
 74
     4
 75
   135
340
1F7
 46
0.0016
 50
0.0
 44
0.0
 45
0.0
 49
-0.4400000000000001
 74
     0
  0
LTYPE
  5
209
330
E3
100
AcDbSymbolTableRecord
100
AcDbLinetypeTableRecord
  2
ACANSTGB
 70
     0
  3
__ . . __ . .
 72
    65
 73
     6
 40
0.35433070866
 49
0.15748031496
 74
     0
 49
-0.03937007874
 74
     0
 49
0.03937007874
 74
     0
 49
-0.03937007874
 74
     0
 49
0.03937007874
 74
     0
 49
-0.03937007874
 74
     0
  0
LTYPE
  5
20A
330
E3
100
AcDbSymbolTableRecord
100
AcDbLinetypeTableRecord
  2
ACANSTGL
 70
     0
  3
_ _ _ _ _
 72
    65
 73
     2
 40
0.11811023622
 49
0.07874015748
 74
     0
 49
-0.03937007874
 74
     0
  0
ENDTAB
  0
TABLE
  2
LAYER
  5
E0
330
0
100
AcDbSymbolTable
 70
     5
  0
LAYER
  5
EC
330
E0
100
AcDbSymbolTableRecord
100
AcDbLayerTableRecord
  2
0
 70
     0
 62
     7
  6
CONTINUOUS
370
    -3
390
119
  0
LAYER
  5
102
330
E0
100
AcDbSymbolTableRecord
100
AcDbLayerTableRecord
  2
1
 70
     0
 62
     1
  6
ITTEN1
370
    -3
390
119
  0
LAYER
  5
103
330
E0
100
AcDbSymbolTableRecord
100
AcDbLayerTableRecord
  2
2
 70
     0
 62
     2
  6
TENSEN2
370
    -3
390
119
  0
LAYER
  5
104
330
E0
100
AcDbSymbolTableRecord
100
AcDbLayerTableRecord
  2
3
 70
     0
 62
     5
  6
CONTINUOUS
370
    -3
390
119
  0
LAYER
  5
333
330
E0
100
AcDbSymbolTableRecord
100
AcDbLayerTableRecord
  2
DEFPOINTS
 70
     0
 62
     7
  6
CONTINUOUS
290
     0
370
    -3
390
119
  0
ENDTAB
  0
TABLE
  2
STYLE
  5
E1
330
0
100
AcDbSymbolTable
 70
     6
  0
STYLE
  5
ED
330
E1
100
AcDbSymbolTableRecord
100
AcDbTextStyleTableRecord
  2
STANDARD
 70
     0
 40
0.0
 41
1.0
 50
0.0
 71
     0
 42
0.2
  3
txt
  4

  0
STYLE
  5
FA
330
E1
100
AcDbSymbolTableRecord
100
AcDbTextStyleTableRecord
  2
BIGFONT
 70
     0
 40
6.0
 41
1.0
 50
0.0
 71
     0
 42
6.0
  3

  4
bigfont
  0
STYLE
  5
FB
330
E1
100
AcDbSymbolTableRecord
100
AcDbTextStyleTableRecord
  2
EXTFONT
 70
     0
 40
10.0
 41
1.0
 50
0.0
 71
     0
 42
10.0
  3

  4
extfont
  0
STYLE
  5
1F7
330
E1
100
AcDbSymbolTableRecord
100
AcDbTextStyleTableRecord
  2

 70
     1
 40
0.0
 41
1.0
 50
0.0
 71
     0
 42
6.0
  3
ltypeshp.shx
  4

  0
STYLE
  5
1FC
330
E1
100
AcDbSymbolTableRecord
100
AcDbTextStyleTableRecord
  2
ACANSTS
 70
     0
 40
1.0
 41
1.0
 50
0.0
 71
     0
 42
6.0
  3
romans.shx
  4
extfont.shx
  0
STYLE
  5
208
330
E1
100
AcDbSymbolTableRecord
100
AcDbTextStyleTableRecord
  2
ACANSGDT
 70
     0
 40
0.0
 41
1.0
 50
0.0
 71
     0
 42
6.0
  3
amgdtans.shx
  4

  0
ENDTAB
  0
TABLE
  2
VIEW
  5
E4
330
0
100
AcDbSymbolTable
 70
     0
  0
ENDTAB
  0
TABLE
  2
UCS
  5
E5
330
0
100
AcDbSymbolTable
 70
     0
  0
ENDTAB
  0
TABLE
  2
APPID
  5
E7
330
0
100
AcDbSymbolTable
 70
    13
  0
APPID
  5
EE
330
E7
100
AcDbSymbolTableRecord
100
AcDbRegAppTableRecord
  2
ACAD
 70
     0
  0
APPID
  5
125
330
E7
100
AcDbSymbolTableRecord
100
AcDbRegAppTableRecord
  2
GENIUS_GENDIM_13
 70
     0
  0
APPID
  5
126
330
E7
100
AcDbSymbolTableRecord
100
AcDbRegAppTableRecord
  2
GENIUS_GENDTOL_13
 70
     0
  0
APPID
  5
127
330
E7
100
AcDbSymbolTableRecord
100
AcDbRegAppTableRecord
  2
GENIUS_GE3DTOL_13
 70
     0
  0
APPID
  5
12A
330
E7
100
AcDbSymbolTableRecord
100
AcDbRegAppTableRecord
  2
MCAD_NO_VIS
 70
     0
  0
APPID
  5
12B
330
E7
100
AcDbSymbolTableRecord
100
AcDbRegAppTableRecord
  2
ACAD_TEMP_GRAPHIC
 70
     0
  0
APPID
  5
15E
330
E7
100
AcDbSymbolTableRecord
100
AcDbRegAppTableRecord
  2
AD_DRAW
 70
     0
  0
APPID
  5
161
330
E7
100
AcDbSymbolTableRecord
100
AcDbRegAppTableRecord
  2
ACATTRIBSERVICES
 70
     0
  0
APPID
  5
1AD
330
E7
100
AcDbSymbolTableRecord
100
AcDbRegAppTableRecord
  2
ASURF_PCURVE_APPNAME
 70
     0
  0
APPID
  5
1B2
330
E7
100
AcDbSymbolTableRecord
100
AcDbRegAppTableRecord
  2
AMG_3D2D_5.0
 70
     0
  0
APPID
  5
1DD
330
E7
100
AcDbSymbolTableRecord
100
AcDbRegAppTableRecord
  2
DESIGNERASSEMBLIES
 70
     0
  0
APPID
  5
1E5
330
E7
100
AcDbSymbolTableRecord
100
AcDbRegAppTableRecord
  2
ACADM_DIM_EDIT
 70
     0
  0
APPID
  5
1E6
330
E7
100
AcDbSymbolTableRecord
100
AcDbRegAppTableRecord
  2
AMDT_DM_ADJ
 70
     0
  0
ENDTAB
  0
TABLE
  2
DIMSTYLE
  5
E8
330
0
100
AcDbSymbolTable
 70
     7
100
AcDbDimStyleTable
 71
     0
  0
DIMSTYLE
105
101
330
E8
100
AcDbSymbolTableRecord
100
AcDbDimStyleTableRecord
  2
STANDARD
 70
     0
340
FA
  0
DIMSTYLE
105
20E
330
E8
100
AcDbSymbolTableRecord
100
AcDbDimStyleTableRecord
  2
AM_ANSI
 70
     0
  4
mm
 41
0.1
 42
0.05
 43
0.5
 44
0.1
 47
0.1
 48
0.1
 78
     7
 79
     2
140
0.12
141
0.0
146
0.71
147
0.06
176
   256
177
   256
178
     2
274
     4
284
     7
340
ED
371
    -1
372
    -1
  0
DIMSTYLE
105
20F
330
E8
100
AcDbSymbolTableRecord
100
AcDbDimStyleTableRecord
  2
AM_ANSI$3
 70
     0
  4
mm
 41
0.1
 42
0.05
 43
0.5
 44
0.1
 47
0.1
 48
0.1
 78
     7
 79
     2
140
0.12
141
0.0
146
0.71
147
0.06
176
   256
177
   256
178
     2
274
     4
284
     7
288
     1
289
     0
340
ED
371
    -1
372
    -1
  0
DIMSTYLE
105
210
330
E8
100
AcDbSymbolTableRecord
100
AcDbDimStyleTableRecord
  2
AM_ANSI$4
 70
     0
  4
mm
 41
0.1
 42
0.05
 43
0.5
 44
0.1
 47
0.1
 48
0.1
 78
     7
 79
     2
140
0.12
141
0.0
146
0.71
147
0.06
176
   256
177
   256
178
     2
274
     4
284
     7
288
     1
289
     0
340
ED
371
    -1
372
    -1
  0
DIMSTYLE
105
211
330
E8
100
AcDbSymbolTableRecord
100
AcDbDimStyleTableRecord
  2
AM_ANSI$7
 70
     0
  4
mm
 41
0.1
 42
0.05
 43
0.5
 44
0.1
 47
0.1
 48
0.1
 78
     7
 79
     2
140
0.24
141
0.0
146
0.71
147
0.06
176
   256
177
   256
178
     2
274
     4
284
     7
340
ED
371
    -1
372
    -1
  0
DIMSTYLE
105
212
330
E8
100
AcDbSymbolTableRecord
100
AcDbDimStyleTableRecord
  2
AM_ANSI$SF
 70
     0
  4
mm
 41
0.1
 42
0.05
 43
0.5
 44
0.1
 47
0.1
 48
0.1
 75
     1
 76
     1
 78
     7
 79
     2
140
0.12
141
0.0
146
0.71
147
0.06
176
   256
177
   256
178
     2
274
     4
284
     7
340
ED
371
    -1
372
    -1
  0
DIMSTYLE
105
217
330
E8
100
AcDbSymbolTableRecord
100
AcDbDimStyleTableRecord
  2
AM_ANSI$SH
 70
     0
  4
mm
 41
0.1
 42
0.05
 43
0.5
 44
0.1
 47
0.1
 48
0.1
 75
     1
 76
     1
 78
     7
 79
     2
140
0.12
141
0.0
146
0.71
147
0.06
173
     1
176
   256
177
   256
178
     2
274
     4
284
     7
340
ED
343
213
371
    -1
372
    -1
  0
ENDTAB
  0
TABLE
  2
BLOCK_RECORD
  5
DF
330
0
100
AcDbSymbolTable
 70
    11
  0
BLOCK_RECORD
  5
F5
102
{ACAD_XDICTIONARY
360
21B
102
}
330
DF
100
AcDbSymbolTableRecord
100
AcDbBlockTableRecord
  2
*MODEL_SPACE
340
11C
  0
BLOCK_RECORD
  5
F2
330
DF
100
AcDbSymbolTableRecord
100
AcDbBlockTableRecord
  2
*PAPER_SPACE
340
11D
  0
BLOCK_RECORD
  5
1D4
330
DF
100
AcDbSymbolTableRecord
100
AcDbBlockTableRecord
  2
*U0
340
0
  0
BLOCK_RECORD
  5
213
330
DF
100
AcDbSymbolTableRecord
100
AcDbBlockTableRecord
  2
GENAXEH
340
0
  0
BLOCK_RECORD
  5
325
330
DF
100
AcDbSymbolTableRecord
100
AcDbBlockTableRecord
  2
*D4
340
0
  0
BLOCK_RECORD
  5
3B3
330
DF
100
AcDbSymbolTableRecord
100
AcDbBlockTableRecord
  2
*D6
340
0
  0
ENDTAB
  0
ENDSEC
  0
SECTION
  2
BLOCKS
  0
BLOCK
  5
107
330
F5
100
AcDbEntity
  8
0
100
AcDbBlockBegin
  2
*MODEL_SPACE
 70
     0
 10
0.0
 20
0.0
 30
0.0
  3
*MODEL_SPACE
  1

  0
ENDBLK
  5
108
330
F5
100
AcDbEntity
  8
0
100
AcDbBlockEnd
  0
BLOCK
  5
105
330
F2
100
AcDbEntity
 67
     1
  8
0
100
AcDbBlockBegin
  2
*PAPER_SPACE
 70
     0
 10
0.0
 20
0.0
 30
0.0
  3
*PAPER_SPACE
  1

  0
ENDBLK
  5
106
330
F2
100
AcDbEntity
 67
     1
  8
0
100
AcDbBlockEnd
  0
BLOCK
  5
1D5
330
1D4
100
AcDbEntity
  8
0
100
AcDbBlockBegin
  2
*U0
 70
     1
 10
0.0
 20
0.0
 30
0.0
  3
*U0
  1

  0
ENDBLK
  5
1D6
330
1D4
100
AcDbEntity
  8
0
100
AcDbBlockEnd
  0
BLOCK
  5
215
330
213
100
AcDbEntity
  8
0
100
AcDbBlockBegin
  2
GENAXEH
 70
     0
 10
0.0
 20
0.0
 30
0.0
  3
GENAXEH
  1

  0
LINE
  5
214
330
213
100
AcDbEntity
  8
0
100
AcDbLine
 10
-1.0
 20
0.0
 30
0.0
 11
1.0
 21
0.0
 31
0.0
  0
ENDBLK
  5
216
330
213
100
AcDbEntity
  8
0
100
AcDbBlockEnd
  0
BLOCK
  5
331
330
325
100
AcDbEntity
  8
0
100
AcDbBlockBegin
  2
*D4
 70
     1
 10
0.0
 20
0.0
 30
0.0
  3
*D4
  1

  0
LINE
  5
326
330
325
100
AcDbEntity
  8
0
  6
ByBlock
 62
     0
100
AcDbLine
 10
215.4999999999999
 20
155.2008876044293
 30
0.0
 11
179.4871929761283
 21
155.2008876044293
 31
0.0
  0
LINE
  5
327
330
325
100
AcDbEntity
  8
0
  6
ByBlock
 62
     0
100
AcDbLine
 10
215.9104452294641
 20
149.7033855657466
 30
0.0
 11
179.4871929761283
 21
149.7033855657466
 31
0.0
  0
LINE
  5
328
330
325
100
AcDbEntity
  8
0
  6
ByBlock
 62
     0
100
AcDbLine
 10
180.4871929761283
 20
151.7033855657467
 30
0.0
 11
180.4871929761283
 21
153.2008876044293
 31
0.0
  0
LINE
  5
329
330
325
100
AcDbEntity
  8
0
  6
ByBlock
 62
     0
100
AcDbLine
 10
180.4871929761283
 20
155.2008876044293
 30
0.0
 11
180.4871929761283
 21
161.1841631331504
 31
0.0
  0
LINE
  5
32A
330
325
100
AcDbEntity
  8
0
  6
ByBlock
 62
     0
100
AcDbLine
 10
180.4871929761283
 20
161.1841631331504
 30
0.0
 11
182.4871929761283
 21
161.1841631331504
 31
0.0
  0
SOLID
  5
32B
330
325
100
AcDbEntity
  8
0
  6
ByBlock
 62
     0
100
AcDbTrace
 10
180.1538596427949
 20
151.7033855657467
 30
0.0
 11
180.8205263094616
 21
151.7033855657467
 31
0.0
 12
180.4871929761283
 22
149.7033855657466
 32
0.0
 13
180.4871929761283
 23
149.7033855657466
 33
0.0
  0
SOLID
  5
32C
330
325
100
AcDbEntity
  8
0
  6
ByBlock
 62
     0
100
AcDbTrace
 10
180.1538596427949
 20
153.2008876044293
 30
0.0
 11
180.8205263094616
 21
153.2008876044293
 31
0.0
 12
180.4871929761283
 22
155.2008876044293
 32
0.0
 13
180.4871929761283
 23
155.2008876044293
 33
0.0
  0
MTEXT
  5
32D
330
325
100
AcDbEntity
  8
0
  6
ByBlock
 62
     0
100
AcDbMText
 10
185.5771929761283
 20
161.1841631331504
 30
0.0
 40
4.0
 41
0.0
 71
     5
 72
     1
  1
\A1;5.5
  7
EXTFONT
 73
     1
 44
1.0
  0
POINT
  5
32E
330
325
100
AcDbEntity
  8
DEFPOINTS
  6
ByBlock
 62
     0
100
AcDbPoint
 10
216.4999999999999
 20
155.2008876044293
 30
0.0
  0
POINT
  5
32F
330
325
100
AcDbEntity
  8
DEFPOINTS
  6
ByBlock
 62
     0
100
AcDbPoint
 10
216.9104452294641
 20
149.7033855657466
 30
0.0
  0
POINT
  5
330
330
325
100
AcDbEntity
  8
DEFPOINTS
  6
ByBlock
 62
     0
100
AcDbPoint
 10
180.4871929761283
 20
149.7033855657466
 30
0.0
  0
ENDBLK
  5
332
330
325
100
AcDbEntity
  8
0
100
AcDbBlockEnd
  0
BLOCK
  5
3BF
330
3B3
100
AcDbEntity
  8
0
100
AcDbBlockBegin
  2
*D6
 70
     1
 10
0.0
 20
0.0
 30
0.0
  3
*D6
  1

  0
LINE
  5
3CC
330
3B3
100
AcDbEntity
  8
0
 62
     0
370
    -2
100
AcDbLine
 10
197.7707955808872
 20
113.6368843283999
 30
0.0
 11
154.2817980808251
 21
113.6368843283999
 31
0.0
  0
LINE
  5
3CD
330
3B3
100
AcDbEntity
  8
0
 62
     0
370
    -2
100
AcDbLine
 10
198.1812408103514
 20
108.1393822897172
 30
0.0
 11
154.2817980808251
 21
108.1393822897172
 31
0.0
  0
LINE
  5
3CE
330
3B3
100
AcDbEntity
  8
0
 62
     0
370
    -2
100
AcDbLine
 10
155.2817980808251
 20
110.1393822897172
 30
0.0
 11
155.2817980808251
 21
111.6368843283999
 31
0.0
  0
LINE
  5
3CF
330
3B3
100
AcDbEntity
  8
0
 62
     0
370
    -2
100
AcDbLine
 10
155.2817980808251
 20
113.6368843283999
 30
0.0
 11
155.2817980808251
 21
119.620159857121
 31
0.0
  0
LINE
  5
3D0
330
3B3
100
AcDbEntity
  8
0
 62
     0
370
    -2
100
AcDbLine
 10
155.2817980808251
 20
119.620159857121
 30
0.0
 11
157.2817980808251
 21
119.620159857121
 31
0.0
  0
SOLID
  5
3D1
330
3B3
100
AcDbEntity
  8
0
 62
     0
100
AcDbTrace
 10
154.9484647474918
 20
110.1393822897172
 30
0.0
 11
155.6151314141585
 21
110.1393822897172
 31
0.0
 12
155.2817980808251
 22
108.1393822897172
 32
0.0
 13
155.2817980808251
 23
108.1393822897172
 33
0.0
  0
SOLID
  5
3D2
330
3B3
100
AcDbEntity
  8
0
 62
     0
100
AcDbTrace
 10
154.9484647474918
 20
111.6368843283999
 30
0.0
 11
155.6151314141585
 21
111.6368843283999
 31
0.0
 12
155.2817980808251
 22
113.6368843283999
 32
0.0
 13
155.2817980808251
 23
113.6368843283999
 33
0.0
  0
MTEXT
  5
3D3
330
3B3
100
AcDbEntity
  8
0
 62
     0
100
AcDbMText
 10
167.8479885570156
 20
119.620159857121
 30
0.0
 40
10.0
 41
0.0
 71
     5
 72
     1
  1
\A1;5.5
  7
EXTFONT
 73
     1
 44
1.0
  0
POINT
  5
3D4
330
3B3
100
AcDbEntity
  8
DEFPOINTS
 62
     0
100
AcDbPoint
 10
198.7707955808872
 20
113.6368843283999
 30
0.0
  0
POINT
  5
3D5
330
3B3
100
AcDbEntity
  8
DEFPOINTS
 62
     0
100
AcDbPoint
 10
199.1812408103514
 20
108.1393822897172
 30
0.0
  0
POINT
  5
3D6
330
3B3
100
AcDbEntity
  8
DEFPOINTS
 62
     0
100
AcDbPoint
 10
155.2817980808251
 20
108.1393822897172
 30
0.0
  0
ENDBLK
  5
3C0
330
3B3
100
AcDbEntity
  8
0
100
AcDbBlockEnd
  0
ENDSEC
  0
SECTION
  2
ENTITIES
  0
LINE
  5
5A6
330
F5
100
AcDbEntity
  8
1
100
AcDbLine
 10
47.62365220582023
 20
188.6722971573856
 30
0.0
 11
345.6236522058202
 21
188.6722971573856
 31
0.0
  0
LINE
  5
5A7
330
F5
100
AcDbEntity
  8
3
100
AcDbLine
 10
320.2760836975659
 20
196.6722971573856
 30
0.0
 11
94.70936014796563
 21
202.1722971573856
 31
0.0
  0
LINE
  5
5A8
330
F5
100
AcDbEntity
  8
3
100
AcDbLine
 10
320.270903204317
 20
180.4976460135273
 30
0.0
 11
94.70070280170171
 21
175.1421382667506
 31
0.0
  0
ARC
  5
5A9
330
F5
100
AcDbEntity
  8
2
100
AcDbCircle
 10
312.9128669397226
 20
-867.4413713292745
 30
0.0
 40
999.9999999999976
100
AcDbArc
 50
89.75873906285851
 51
102.3151786233739
  0
ARC
  5
5AA
330
F5
100
AcDbEntity
  8
3
100
AcDbCircle
 10
300.9314244310449
 20
-790.2409669000019
 30
0.0
 40
922.9327819172395
100
AcDbArc
 50
88.99473295232869
 51
102.8617785256191
  0
ARC
  5
5AB
330
F5
100
AcDbEntity
  8
3
100
AcDbCircle
 10
310.6534603555222
 20
-810.4845981541156
 30
0.0
 40
935.0720885569291
100
AcDbArc
 50
89.47164829987064
 51
103.2893602543363
  0
ARC
  5
5AC
330
F5
100
AcDbEntity
  8
3
100
AcDbCircle
 10
321.8781001998735
 20
-875.4409640876271
 30
0.0
 40
1000.0
100
AcDbArc
 50
90.27241083027785
 51
102.8414821660488
  0
LINE
  5
5AD
330
F5
100
AcDbEntity
  8
3
100
AcDbLine
 10
99.62365220582023
 20
80.54773346063592
 30
0.0
 11
99.62365220582023
 21
99.54773346063603
 31
0.0
  0
LINE
  5
5AE
330
F5
100
AcDbEntity
  8
3
100
AcDbLine
 10
57.62365220582023
 20
80.54773346063592
 30
0.0
 11
57.62365220582023
 21
108.0477334606359
 31
0.0
  0
LINE
  5
5AF
330
F5
100
AcDbEntity
  8
1
100
AcDbLine
 10
78.62365220582024
 20
117.7604961280033
 30
0.0
 11
78.62365220582024
 21
73.05578829496363
 31
0.0
  0
LINE
  5
5B0
330
F5
100
AcDbEntity
  8
3
100
AcDbLine
 10
78.62365220582024
 20
78.54773346063592
 30
0.0
 11
97.62365220582024
 21
78.54773346063592
 31
0.0
  0
LINE
  5
5B1
330
F5
100
AcDbEntity
  8
3
100
AcDbLine
 10
78.62365220582024
 20
78.54773346063592
 30
0.0
 11
59.62365220582023
 21
78.54773346063592
 31
0.0
  0
ARC
  5
5B2
330
F5
100
AcDbEntity
  8
3
100
AcDbCircle
 10
59.62365220582023
 20
80.54773346063592
 30
0.0
 40
2.0
100
AcDbArc
 50
180.0
 51
270.0
  0
ARC
  5
5B3
330
F5
100
AcDbEntity
  8
3
100
AcDbCircle
 10
97.62365220582024
 20
80.54773346063592
 30
0.0
 40
2.0
100
AcDbArc
 50
270.0
 51
0.0
  0
CIRCLE
  5
5B4
330
F5
100
AcDbEntity
  8
3
100
AcDbCircle
 10
78.62365220582024
 20
188.6722971573856
 30
0.0
 40
21.0
  0
LINE
  5
5B5
330
F5
100
AcDbEntity
  8
2
100
AcDbLine
 10
95.5410287432012
 20
109.5477334606359
 30
0.0
 11
99.62365220582023
 21
109.5477334606359
 31
0.0
  0
LINE
  5
5B6
330
F5
100
AcDbEntity
  8
3
100
AcDbLine
 10
99.6236522058208
 20
99.54773346063603
 30
0.0
 11
95.70936014796563
 21
99.54773346063603
 31
0.0
  0
LINE
  5
5B7
330
F5
100
AcDbEntity
  8
1
100
AcDbLine
 10
78.62365220582024
 20
214.4298706617622
 30
0.0
 11
78.62365220582024
 21
161.0692668469468
 31
0.0
  0
LINE
  5
5B8
330
F5
100
AcDbEntity
  8
3
100
AcDbLine
 10
59.12365220582024
 20
109.5477334606359
 30
0.0
 11
78.62365220582024
 21
109.5477334606359
 31
0.0
  0
ARC
  5
5B9
330
F5
100
AcDbEntity
  8
3
100
AcDbCircle
 10
59.12365220582024
 20
108.0477334606359
 30
0.0
 40
1.5
100
AcDbArc
 50
90.0
 51
180.0
  0
LINE
  5
5BA
330
F5
100
AcDbEntity
  8
3
100
AcDbLine
 10
94.70936014796563
 20
100.547733460636
 30
0.0
 11
94.70936014796563
 21
108.5604342476886
 31
0.0
  0
ARC
  5
5BB
330
F5
100
AcDbEntity
  8
3
100
AcDbCircle
 10
95.70936014796563
 20
100.547733460636
 30
0.0
 40
1.0
100
AcDbArc
 50
180.0
 51
270.0
  0
LINE
  5
5BC
330
F5
100
AcDbEntity
  8
3
100
AcDbLine
 10
95.5410287432012
 20
109.5477334606359
 30
0.0
 11
78.62365220582024
 21
109.5477334606359
 31
0.0
  0
ARC
  5
5BD
330
F5
100
AcDbEntity
  8
3
100
AcDbCircle
 10
95.70936014796563
 20
108.5604342476886
 30
0.0
 40
1.0
100
AcDbArc
 50
102.8617785256086
 51
180.0
  0
LINE
  5
5BF
330
F5
100
AcDbEntity
  8
1
100
AcDbLine
 10
300.1233000265145
 20
118.8863437308612
 30
0.0
 11
300.1233000265145
 21
128.6721397687445
 31
0.0
  0
LINE
  5
5C0
330
F5
100
AcDbEntity
  8
1
100
AcDbLine
 10
293.1233000265145
 20
118.6965187522039
 30
0.0
 11
293.1233000265145
 21
128.6721397687445
 31
0.0
  0
LINE
  5
5C1
330
F5
100
AcDbEntity
  8
1
100
AcDbLine
 10
286.1233000265146
 20
118.4117754207175
 30
0.0
 11
286.1233000265146
 21
127.838772110543
 31
0.0
  0
ARC
  5
5C2
330
F5
100
AcDbEntity
  8
3
100
AcDbCircle
 10
286.0290890274881
 20
126.5528627454016
 30
0.0
 40
3.634455377990701
100
AcDbArc
 50
228.5880546331414
 51
315.5100171442843
  0
ARC
  5
5C3
330
F5
100
AcDbEntity
  8
3
100
AcDbCircle
 10
293.0475506364822
 20
126.7787634076479
 30
0.0
 40
3.634021819959455
100
AcDbArc
 50
228.1802962268313
 51
315.1152154036261
  0
LINE
  5
5C4
330
F5
100
AcDbEntity
  8
1
100
AcDbLine
 10
328.6236522058202
 20
149.6924243894557
 30
0.0
 11
328.6236522058202
 21
119.5851780803726
 31
0.0
  0
ARC
  5
5C5
330
F5
100
AcDbEntity
  8
3
100
AcDbCircle
 10
300.0660010561927
 20
126.9556030363967
 30
0.0
 40
3.633682591482748
100
AcDbArc
 50
227.7740265861424
 51
314.7190865615631
  0
LINE
  5
5C6
330
F5
100
AcDbEntity
  8
2
100
AcDbLine
 10
323.4236522058203
 20
127.3477334606359
 30
0.0
 11
333.8236522058202
 21
127.3477334606359
 31
0.0
  0
LINE
  5
5C7
330
F5
100
AcDbEntity
  8
2
100
AcDbLine
 10
323.4236522058202
 20
136.7477334606358
 30
0.0
 11
333.8236522058202
 21
136.7477334606359
 31
0.0
  0
LINE
  5
5C8
330
F5
100
AcDbEntity
  8
3
100
AcDbLine
 10
319.2760836975659
 20
124.5477334606359
 30
0.0
 11
328.6236522058202
 21
124.5477334606359
 31
0.0
  0
LINE
  5
5C9
330
F5
100
AcDbEntity
  8
3
100
AcDbLine
 10
318.1236522058202
 20
139.5477334606359
 30
0.0
 11
339.1236522058202
 21
139.5477334606359
 31
0.0
  0
LINE
  5
5CA
330
F5
100
AcDbEntity
  8
2
100
AcDbLine
 10
322.6236522058202
 20
126.5477334606359
 30
0.0
 11
322.6236522058202
 21
137.5477334606359
 31
0.0
  0
LINE
  5
5CB
330
F5
100
AcDbEntity
  8
2
100
AcDbLine
 10
323.4236522058202
 20
127.3477334606359
 30
0.0
 11
323.4236522058202
 21
136.7477334606359
 31
0.0
  0
LINE
  5
5CC
330
F5
100
AcDbEntity
  8
3
100
AcDbLine
 10
317.1236522058201
 20
132.5497632751468
 30
0.0
 11
317.1236522058202
 21
138.5477334606359
 31
0.0
  0
LINE
  5
5CD
330
F5
100
AcDbEntity
  8
3
100
AcDbLine
 10
317.1236522058202
 20
132.5497632751468
 30
0.0
 11
319.2760836975659
 21
132.5497632751468
 31
0.0
  0
LINE
  5
5CE
330
F5
100
AcDbEntity
  8
3
100
AcDbLine
 10
319.2760836975659
 20
124.5477334606359
 30
0.0
 11
317.1236522058202
 21
124.5477334606359
 31
0.0
  0
LINE
  5
5CF
330
F5
100
AcDbEntity
  8
3
100
AcDbLine
 10
320.2760836975659
 20
125.5477334606359
 30
0.0
 11
320.2760836975659
 21
131.5497632751468
 31
0.0
  0
LINE
  5
5D0
330
F5
100
AcDbEntity
  8
2
100
AcDbLine
 10
320.6236522058202
 20
124.5477334606359
 30
0.0
 11
323.4236522058202
 21
127.3477334606359
 31
0.0
  0
ARC
  5
5D1
330
F5
100
AcDbEntity
  8
3
100
AcDbCircle
 10
319.2760836975659
 20
125.5477334606359
 30
0.0
 40
1.0
100
AcDbArc
 50
270.0
 51
0.0
  0
ARC
  5
5D2
330
F5
100
AcDbEntity
  8
3
100
AcDbCircle
 10
319.2760836975659
 20
131.5497632751468
 30
0.0
 40
1.0
100
AcDbArc
 50
0.0
 51
90.0
  0
ARC
  5
5D3
330
F5
100
AcDbEntity
  8
3
100
AcDbCircle
 10
318.1236522058202
 20
138.5477334606359
 30
0.0
 40
1.0
100
AcDbArc
 50
90.0
 51
180.0
  0
LINE
  5
5D4
330
F5
100
AcDbEntity
  8
2
100
AcDbLine
 10
323.4236522058202
 20
136.7477334606359
 30
0.0
 11
320.6236522058202
 21
139.5477334606359
 31
0.0
  0
LINE
  5
5D5
330
F5
100
AcDbEntity
  8
2
100
AcDbLine
 10
334.6236522058202
 20
137.5477334606359
 30
0.0
 11
334.6236522058202
 21
126.5477334606359
 31
0.0
  0
LINE
  5
5D6
330
F5
100
AcDbEntity
  8
2
100
AcDbLine
 10
333.8236522058202
 20
136.7477334606359
 30
0.0
 11
333.8236522058203
 21
127.3477334606359
 31
0.0
  0
LINE
  5
5D7
330
F5
100
AcDbEntity
  8
3
100
AcDbLine
 10
340.1236522058202
 20
138.5477334606359
 30
0.0
 11
340.1236522058202
 21
126.0477334606359
 31
0.0
  0
LINE
  5
5D8
330
F5
100
AcDbEntity
  8
3
100
AcDbLine
 10
338.6236522058202
 20
124.5477334606359
 30
0.0
 11
328.6236522058202
 21
124.5477334606359
 31
0.0
  0
LINE
  5
5D9
330
F5
100
AcDbEntity
  8
2
100
AcDbLine
 10
333.8236522058203
 20
127.3477334606359
 30
0.0
 11
336.6236522058202
 21
124.5477334606359
 31
0.0
  0
ARC
  5
5DA
330
F5
100
AcDbEntity
  8
3
100
AcDbCircle
 10
338.6236522058202
 20
126.0477334606359
 30
0.0
 40
1.5
100
AcDbArc
 50
270.0
 51
0.0
  0
LINE
  5
5DB
330
F5
100
AcDbEntity
  8
2
100
AcDbLine
 10
336.6236522058202
 20
139.5477334606359
 30
0.0
 11
333.8236522058202
 21
136.7477334606359
 31
0.0
  0
ARC
  5
5DC
330
F5
100
AcDbEntity
  8
3
100
AcDbCircle
 10
339.1236522058202
 20
138.5477334606359
 30
0.0
 40
1.0
100
AcDbArc
 50
0.0
 51
90.0
  0
CIRCLE
  5
5DD
330
F5
100
AcDbEntity
  8
0
100
AcDbCircle
 10
328.6236522058202
 20
188.5822971573855
 30
0.0
 40
6.0
  0
LINE
  5
5DE
330
F5
100
AcDbEntity
  8
1
100
AcDbLine
 10
328.6236522058202
 20
172.1722971573856
 30
0.0
 11
328.6236522058202
 21
205.1722971573856
 31
0.0
  0
CIRCLE
  5
5DF
330
F5
100
AcDbEntity
  8
3
100
AcDbCircle
 10
328.6236522058202
 20
188.6722971573856
 30
0.0
 40
8.0
  0
CIRCLE
  5
5E0
330
F5
100
AcDbEntity
  8
3
100
AcDbCircle
 10
328.6236522058202
 20
188.6722971573856
 30
0.0
 40
5.2
  0
CIRCLE
  5
5E1
330
F5
100
AcDbEntity
  8
3
100
AcDbCircle
 10
328.6236522058203
 20
188.7622971573857
 30
0.0
 40
11.5
  0
POINT
  5
5E2
330
F5
100
AcDbEntity
  8
DEFPOINTS
  6
ByBlock
 62
     0
100
AcDbPoint
 10
323.9314622140256
 20
186.4310133554317
 30
0.0
  0
POINT
  5
5E3
330
F5
100
AcDbEntity
  8
DEFPOINTS
  6
ByBlock
 62
     0
100
AcDbPoint
 10
323.6750157869129
 20
182.3865197517291
 30
0.0
  0
LINE
  5
5E4
330
F5
100
AcDbEntity
  8
0
  6
ByBlock
 62
     0
100
AcDbLine
 10
328.5336522058202
 20
188.6722971573856
 30
0.0
 11
328.7136522058202
 21
188.6722971573856
 31
0.0
  0
LINE
  5
5E5
330
F5
100
AcDbEntity
  8
0
  6
ByBlock
 62
     0
100
AcDbLine
 10
328.6236522058202
 20
188.5822971573855
 30
0.0
 11
328.6236522058202
 21
188.7622971573856
 31
0.0
  0
LINE
  5
5E6
330
F5
100
AcDbEntity
  8
0
  6
ByBlock
 62
     0
100
AcDbLine
 10
328.5336522058203
 20
188.6722971573857
 30
0.0
 11
328.7136522058203
 21
188.6722971573857
 31
0.0
  0
LINE
  5
5E7
330
F5
100
AcDbEntity
  8
0
  6
ByBlock
 62
     0
100
AcDbLine
 10
328.6236522058203
 20
188.5822971573857
 30
0.0
 11
328.6236522058203
 21
188.7622971573857
 31
0.0
  0
TEXT
  5
5E8
330
F5
100
AcDbEntity
  8
0
100
AcDbText
 10
183.6122298871182
 20
75.66983328775307
 30
0.0
 40
6.0
  1
CHS-250-N
  7
BIGFONT
100
AcDbText
  0
ENDSEC
  0
SECTION
  2
OBJECTS
  0
DICTIONARY
  5
EA
330
0
100
AcDbDictionary
281
     1
  3
ACAD_GROUP
350
EB
  3
ACAD_LAYOUT
350
11A
  3
ACAD_MLINESTYLE
350
F8
  3
ACAD_PLOTSETTINGS
350
11B
  3
ACAD_PLOTSTYLENAME
350
118
  3
ACDBVARIABLEDICTIONARY
350
109
  3
AcmDictionary
350
1DE
  3
AMG
350
122
  3
AMGSNAPSETTINGS
350
225
  3
DWGPROPS
350
55E
  3
MAPISURF_MODULE
350
1B0
  0
DICTIONARY
  5
21B
330
F5
100
AcDbDictionary
280
     1
281
     1
  3
ACAD_INDEX
360
21C
  0
DICTIONARY
  5
EB
102
{ACAD_REACTORS
330
EA
102
}
330
EA
100
AcDbDictionary
281
     1
  0
DICTIONARY
  5
11A
102
{ACAD_REACTORS
330
EA
102
}
330
EA
100
AcDbDictionary
281
     1
  3
Model
350
11C
  3
ﾚｲｱｳﾄ1
350
11D
  0
DICTIONARY
  5
F8
102
{ACAD_REACTORS
330
EA
102
}
330
EA
100
AcDbDictionary
281
     1
  3
STANDARD
350
F9
  0
DICTIONARY
  5
11B
102
{ACAD_REACTORS
330
EA
102
}
330
EA
100
AcDbDictionary
281
     1
  0
ACDBDICTIONARYWDFLT
  5
118
102
{ACAD_REACTORS
330
EA
102
}
330
EA
100
AcDbDictionary
281
     1
  3
Normal
350
119
100
AcDbDictionaryWithDefault
340
119
  0
DICTIONARY
  5
109
102
{ACAD_REACTORS
330
EA
102
}
330
EA
100
AcDbDictionary
281
     1
  3
DIMADEC
350
10A
  3
DIMASSOC
350
224
  3
INDEXCTL
350
223
  0
DICTIONARY
  5
1DE
102
{ACAD_REACTORS
330
EA
102
}
330
EA
100
AcDbDictionary
281
     1
  3
AcmBOMDATA
350
1DF
  3
AcmStdDictionary
350
1ED
  0
DICTIONARY
  5
122
102
{ACAD_REACTORS
330
EA
102
}
330
EA
100
AcDbDictionary
281
     1
  3
AcMgSettings
350
123
  3
AMGLAYCFG
350
1EF
  0
DICTIONARY
  5
225
102
{ACAD_REACTORS
330
EA
102
}
330
EA
100
AcDbDictionary
281
     1
  3
DIMENSION
350
22A
  3
FEA
350
229
  3
HATCH (1)
350
226
  3
HATCH (2)
350
227
  3
SIMPLE WELD
350
22B
  3
SYMBOLS
350
228
  0
XRECORD
  5
55E
102
{ACAD_REACTORS
330
EA
102
}
330
EA
100
AcDbXrecord
280
     1
  1
DWGPROPS COOKIE
  2

  3

  4

  6

  7

  8

  9

300
AmdtFileType=84
301
=
302
=
303
=
304
=
305
=
306
=
307
=
308
=
309
=
 40
0.0206358449074074
 41
2450867.141740393
 42
2454687.667945775
  1

 90
        1
  0
DICTIONARY
  5
21C
102
{ACAD_REACTORS
330
21B
102
}
330
21B
100
AcDbDictionary
281
     1
  3
*A1
350
21D
  0
LAYOUT
  5
11C
102
{ACAD_REACTORS
330
11A
102
}
330
11A
100
AcDbPlotSettings
  1

  2
EPSON PM-3700C
  4

  6

 40
0.0
 41
0.0
 42
0.0
 43
0.0
 44
0.0
 45
0.0
 46
0.0
 47
0.0
 48
0.0
 49
0.0
140
0.0
141
0.0
142
1.0
143
1.0
 70
  1712
 72
     0
 73
     0
 74
     0
  7

 75
     0
147
1.0
148
0.0
149
0.0
100
AcDbLayout
  1
Model
 70
     1
 71
     0
 10
0.0
 20
0.0
 11
12.0
 21
9.0
 12
0.0
 22
0.0
 32
0.0
 14
0.0
 24
0.0
 34
0.0
 15
0.0
 25
0.0
 35
0.0
146
0.0
 13
0.0
 23
0.0
 33
0.0
 16
1.0
 26
0.0
 36
0.0
 17
0.0
 27
1.0
 37
0.0
 76
     0
330
F5
  0
LAYOUT
  5
11D
102
{ACAD_REACTORS
330
11A
102
}
330
11A
100
AcDbPlotSettings
  1

  2
EPSON PM-3700C
  4

  6

 40
0.0
 41
0.0
 42
0.0
 43
0.0
 44
0.0
 45
0.0
 46
0.0
 47
0.0
 48
0.0
 49
0.0
140
0.0
141
0.0
142
1.0
143
1.0
 70
   688
 72
     0
 73
     0
 74
     5
  7

 75
    16
147
1.0
148
0.0
149
0.0
100
AcDbLayout
  1
ﾚｲｱｳﾄ1
 70
     1
 71
     1
 10
0.0
 20
0.0
 11
12.0
 21
9.0
 12
0.0
 22
0.0
 32
0.0
 14
1.000000000000000E+20
 24
1.000000000000000E+20
 34
1.000000000000000E+20
 15
-1.000000000000000E+20
 25
-1.000000000000000E+20
 35
-1.000000000000000E+20
146
0.0
 13
0.0
 23
0.0
 33
0.0
 16
1.0
 26
0.0
 36
0.0
 17
0.0
 27
1.0
 37
0.0
 76
     0
330
F2
  0
MLINESTYLE
  5
F9
102
{ACAD_REACTORS
330
F8
102
}
330
F8
100
AcDbMlineStyle
  2
STANDARD
 70
     0
  3

 62
   256
 51
90.0
 52
90.0
 71
     2
 49
0.5
 62
   256
  6
BYLAYER
 49
-0.5
 62
   256
  6
BYLAYER
  0
ACDBPLACEHOLDER
  5
119
102
{ACAD_REACTORS
330
118
102
}
330
118
  0
DICTIONARYVAR
  5
10A
102
{ACAD_REACTORS
330
109
102
}
330
109
100
DictionaryVariables
280
     0
  1
0
  0
DICTIONARYVAR
  5
224
102
{ACAD_REACTORS
330
109
102
}
330
109
100
DictionaryVariables
280
     0
  1
1
  0
DICTIONARYVAR
  5
223
102
{ACAD_REACTORS
330
109
102
}
330
109
100
DictionaryVariables
280
     0
  1
1
  0
ACMDATADICTIONARY
  5
1DF
102
{ACAD_REACTORS
330
1DE
102
}
330
1DE
100
AcDbDictionary
281
     1
  3
*A1
350
1E0
100
AcmDataDictionary
  0
DICTIONARY
  5
1ED
102
{ACAD_REACTORS
330
1DE
102
}
330
1DE
100
AcDbDictionary
281
     1
  3
ANSI
350
1EE
  0
DICTIONARY
  5
123
102
{ACAD_REACTORS
330
122
102
}
330
122
100
AcDbDictionary
281
     1
  3
DWGSETTINGS
350
124
  3
TRANSSETTINGS
350
128
  0
ACAMGFILTERDAT
  5
22A
102
{ACAD_REACTORS
330
225
102
}
330
225
100
AcAmgFilterDat
 70
    15
  1
DIMENSION,AMDT_*_DIM
  2
*
  3
*
  4
*
  5
*
290
     1
  0
ACAMGFILTERDAT
  5
229
102
{ACAD_REACTORS
330
225
102
}
330
225
100
AcAmgFilterDat
 70
    15
  1
*
  2
AM_FEA-AM_*
  3
*
  4
*
  5
*
290
     1
  0
ACAMGFILTERDAT
  5
226
102
{ACAD_REACTORS
330
225
102
}
330
225
100
AcAmgFilterDat
 70
    15
  1
HATCH
  2
*
  3
*
  4
*
  5
*
290
     1
  0
ACAMGFILTERDAT
  5
227
102
{ACAD_REACTORS
330
225
102
}
330
225
100
AcAmgFilterDat
 70
    15
  1
LINE
  2
8,8N,*-8,*-8N,AM_8,AM_8N,*-AM_8,*-AM_8N
  3
*
  4
*
  5
INSERT,STDPART2D
290
     1
  0
ACAMGFILTERDAT
  5
22B
102
{ACAD_REACTORS
330
225
102
}
330
225
100
AcAmgFilterDat
 70
    15
  1
ARC
  2
AM_5
  3
*
  4
2
  5
INSERT
290
     0
  0
ACAMGFILTERDAT
  5
228
102
{ACAD_REACTORS
330
225
102
}
330
225
100
AcAmgFilterDat
 70
    15
  1
ACMFCFRAME,ACMDATUMTARGET,ACMDATUMID,ACMWELDSYM,ACMSURFSYM,ACMFEATID,ACMPARTREF,ACMBALLOON,AMDTEDGESYM,AMGSCREWCALCTABLE
  2
*
  3
*
  4
*
  5
*
290
     1
  0
LAYER_INDEX
  5
21D
102
{ACAD_REACTORS
330
21C
102
}
330
21C
100
AcDbIndex
 40
2454687.669019456
100
AcDbLayerIndex
  8
0
360
21E
 90
        6
  8
1
360
21F
 90
        8
  8
2
360
220
 90
       12
  8
3
360
221
 90
       38
  8
DEFPOINTS
360
3D8
 90
        2
  0
ACMDATAENTRYBLOCK
  5
1E0
102
{ACAD_REACTORS
330
1DF
102
}
330
1DF
100
AcmDataEntry
100
AcmDataEntryBlock
  0
IDBUFFER
  5
21E
330
0
100
AcDbIdBuffer
330
5E8
330
5E7
330
5DD
330
5E4
330
5E5
330
5E6
  0
IDBUFFER
  5
21F
330
0
100
AcDbIdBuffer
330
5DE
330
5C4
330
5C1
330
5C0
330
5BF
330
5B7
330
5AF
330
5A6
  0
IDBUFFER
  5
220
330
0
100
AcDbIdBuffer
330
5DB
330
5D9
330
5D6
330
5D5
330
5D4
330
5D0
330
5CB
330
5CA
330
5C7
330
5C6
330
5B5
330
5A9
  0
IDBUFFER
  5
221
330
0
100
AcDbIdBuffer
330
5E1
330
5A7
330
5A8
330
5AA
330
5AB
330
5AC
330
5AD
330
5AE
330
5B0
330
5B1
330
5B2
330
5B3
330
5B4
330
5B6
330
5B8
330
5B9
330
5BA
330
5BB
330
5BC
330
5BD
330
5C2
330
5C3
330
5C5
330
5C8
330
5C9
330
5CC
330
5CD
330
5CE
330
5CF
330
5D1
330
5D2
330
5D3
330
5D7
330
5D8
330
5DA
330
5DC
330
5DF
330
5E0
  0
IDBUFFER
  5
3D8
330
0
100
AcDbIdBuffer
330
5E2
330
5E3
  0
ENDSEC
  0
EOF
