  0
SECTION
  2
HEADER
  9
$ACADVER
  1
AC1015
  9
$ACADMAINTVER
 70
    13
  9
$DWGCODEPAGE
  3
ANSI_932
  9
$INSBASE
 10
0.0
 20
0.0
 30
0.0
  9
$EXTMIN
 10
33.948852
 20
32.5
 30
0.0
  9
$EXTMAX
 10
391.5
 20
180.975480539229
 30
0.0
  9
$LIMMIN
 10
0.0
 20
0.0
  9
$LIMMAX
 10
400.0
 20
280.0
  9
$ORTHOMODE
 70
     1
  9
$REGENMODE
 70
     1
  9
$FILLMODE
 70
     1
  9
$QTEXTMODE
 70
     0
  9
$MIRRTEXT
 70
     1
  9
$LTSCALE
 40
1.0
  9
$ATTMODE
 70
     1
  9
$TEXTSIZE
 40
6.0
  9
$TRACEWID
 40
0.05
  9
$TEXTSTYLE
  7
BIGFONT
  9
$CLAYER
  8
0
  9
$CELTYPE
  6
BYLAYER
  9
$CECOLOR
 62
   256
  9
$CELTSCALE
 40
1.0
  9
$DISPSILH
 70
     0
  9
$DIMSCALE
 40
1.0
  9
$DIMASZ
 40
0.18
  9
$DIMEXO
 40
0.0625
  9
$DIMDLI
 40
0.38
  9
$DIMRND
 40
0.0
  9
$DIMDLE
 40
0.0
  9
$DIMEXE
 40
0.18
  9
$DIMTP
 40
0.0
  9
$DIMTM
 40
0.0
  9
$DIMTXT
 40
0.18
  9
$DIMCEN
 40
0.09
  9
$DIMTSZ
 40
0.0
  9
$DIMTOL
 70
     0
  9
$DIMLIM
 70
     0
  9
$DIMTIH
 70
     1
  9
$DIMTOH
 70
     1
  9
$DIMSE1
 70
     0
  9
$DIMSE2
 70
     0
  9
$DIMTAD
 70
     0
  9
$DIMZIN
 70
     0
  9
$DIMBLK
  1

  9
$DIMASO
 70
     1
  9
$DIMSHO
 70
     1
  9
$DIMPOST
  1

  9
$DIMAPOST
  1

  9
$DIMALT
 70
     0
  9
$DIMALTD
 70
     2
  9
$DIMALTF
 40
25.4
  9
$DIMLFAC
 40
1.0
  9
$DIMTOFL
 70
     0
  9
$DIMTVP
 40
0.0
  9
$DIMTIX
 70
     0
  9
$DIMSOXD
 70
     0
  9
$DIMSAH
 70
     0
  9
$DIMBLK1
  1

  9
$DIMBLK2
  1

  9
$DIMSTYLE
  2
STANDARD
  9
$DIMCLRD
 70
     0
  9
$DIMCLRE
 70
     0
  9
$DIMCLRT
 70
     0
  9
$DIMTFAC
 40
1.0
  9
$DIMGAP
 40
0.09
  9
$DIMJUST
 70
     0
  9
$DIMSD1
 70
     0
  9
$DIMSD2
 70
     0
  9
$DIMTOLJ
 70
     1
  9
$DIMTZIN
 70
     0
  9
$DIMALTZ
 70
     0
  9
$DIMALTTZ
 70
     0
  9
$DIMUPT
 70
     0
  9
$DIMDEC
 70
     4
  9
$DIMTDEC
 70
     4
  9
$DIMALTU
 70
     2
  9
$DIMALTTD
 70
     2
  9
$DIMTXSTY
  7
BIGFONT
  9
$DIMAUNIT
 70
     0
  9
$DIMADEC
 70
     0
  9
$DIMALTRND
 40
0.0
  9
$DIMAZIN
 70
     0
  9
$DIMDSEP
 70
    46
  9
$DIMATFIT
 70
     3
  9
$DIMFRAC
 70
     0
  9
$DIMLDRBLK
  1

  9
$DIMLUNIT
 70
     2
  9
$DIMLWD
 70
    -2
  9
$DIMLWE
 70
    -2
  9
$DIMTMOVE
 70
     0
  9
$LUNITS
 70
     2
  9
$LUPREC
 70
     4
  9
$SKETCHINC
 40
0.1
  9
$FILLETRAD
 40
0.0
  9
$AUNITS
 70
     0
  9
$AUPREC
 70
     0
  9
$MENU
  1
acad
  9
$ELEVATION
 40
0.0
  9
$PELEVATION
 40
0.0
  9
$THICKNESS
 40
0.0
  9
$LIMCHECK
 70
     0
  9
$CHAMFERA
 40
0.0
  9
$CHAMFERB
 40
0.0
  9
$CHAMFERC
 40
0.0
  9
$CHAMFERD
 40
0.0
  9
$SKPOLY
 70
     0
  9
$TDCREATE
 40
2450867.141740393
  9
$TDUCREATE
 40
2450866.766740393
  9
$TDUPDATE
 40
2454687.664833981
  9
$TDUUPDATE
 40
2454687.289833981
  9
$TDINDWG
 40
0.0169527546
  9
$TDUSRTIMER
 40
0.0169527546
  9
$USRTIMER
 70
     1
  9
$ANGBASE
 50
0.0
  9
$ANGDIR
 70
     0
  9
$PDMODE
 70
     0
  9
$PDSIZE
 40
0.0
  9
$PLINEWID
 40
0.0
  9
$SPLFRAME
 70
     0
  9
$SPLINETYPE
 70
     6
  9
$SPLINESEGS
 70
     8
  9
$HANDSEED
  5
45B
  9
$SURFTAB1
 70
     6
  9
$SURFTAB2
 70
     6
  9
$SURFTYPE
 70
     6
  9
$SURFU
 70
     6
  9
$SURFV
 70
     6
  9
$UCSBASE
  2

  9
$UCSNAME
  2

  9
$UCSORG
 10
0.0
 20
0.0
 30
0.0
  9
$UCSXDIR
 10
1.0
 20
0.0
 30
0.0
  9
$UCSYDIR
 10
0.0
 20
1.0
 30
0.0
  9
$UCSORTHOREF
  2

  9
$UCSORTHOVIEW
 70
     0
  9
$UCSORGTOP
 10
0.0
 20
0.0
 30
0.0
  9
$UCSORGBOTTOM
 10
0.0
 20
0.0
 30
0.0
  9
$UCSORGLEFT
 10
0.0
 20
0.0
 30
0.0
  9
$UCSORGRIGHT
 10
0.0
 20
0.0
 30
0.0
  9
$UCSORGFRONT
 10
0.0
 20
0.0
 30
0.0
  9
$UCSORGBACK
 10
0.0
 20
0.0
 30
0.0
  9
$PUCSBASE
  2

  9
$PUCSNAME
  2

  9
$PUCSORG
 10
0.0
 20
0.0
 30
0.0
  9
$PUCSXDIR
 10
1.0
 20
0.0
 30
0.0
  9
$PUCSYDIR
 10
0.0
 20
1.0
 30
0.0
  9
$PUCSORTHOREF
  2

  9
$PUCSORTHOVIEW
 70
     0
  9
$PUCSORGTOP
 10
0.0
 20
0.0
 30
0.0
  9
$PUCSORGBOTTOM
 10
0.0
 20
0.0
 30
0.0
  9
$PUCSORGLEFT
 10
0.0
 20
0.0
 30
0.0
  9
$PUCSORGRIGHT
 10
0.0
 20
0.0
 30
0.0
  9
$PUCSORGFRONT
 10
0.0
 20
0.0
 30
0.0
  9
$PUCSORGBACK
 10
0.0
 20
0.0
 30
0.0
  9
$USERI1
 70
     0
  9
$USERI2
 70
     0
  9
$USERI3
 70
     0
  9
$USERI4
 70
     0
  9
$USERI5
 70
     0
  9
$USERR1
 40
0.0
  9
$USERR2
 40
0.0
  9
$USERR3
 40
0.0
  9
$USERR4
 40
0.0
  9
$USERR5
 40
0.0
  9
$WORLDVIEW
 70
     1
  9
$SHADEDGE
 70
     3
  9
$SHADEDIF
 70
    70
  9
$TILEMODE
 70
     1
  9
$MAXACTVP
 70
    16
  9
$PINSBASE
 10
0.0
 20
0.0
 30
0.0
  9
$PLIMCHECK
 70
     0
  9
$PEXTMIN
 10
1.000000000000000E+20
 20
1.000000000000000E+20
 30
1.000000000000000E+20
  9
$PEXTMAX
 10
-1.000000000000000E+20
 20
-1.000000000000000E+20
 30
-1.000000000000000E+20
  9
$PLIMMIN
 10
0.0
 20
0.0
  9
$PLIMMAX
 10
12.0
 20
9.0
  9
$UNITMODE
 70
     0
  9
$VISRETAIN
 70
     0
  9
$PLINEGEN
 70
     0
  9
$PSLTSCALE
 70
     1
  9
$TREEDEPTH
 70
  3020
  9
$CMLSTYLE
  2
STANDARD
  9
$CMLJUST
 70
     0
  9
$CMLSCALE
 40
1.0
  9
$PROXYGRAPHICS
 70
     1
  9
$MEASUREMENT
 70
     0
  9
$CELWEIGHT
370
    -1
  9
$ENDCAPS
280
     0
  9
$JOINSTYLE
280
     0
  9
$LWDISPLAY
290
     0
  9
$INSUNITS
 70
     0
  9
$HYPERLINKBASE
  1

  9
$STYLESHEET
  1

  9
$XEDIT
290
     1
  9
$CEPSNTYPE
380
     0
  9
$PSTYLEMODE
290
     1
  9
$FINGERPRINTGUID
  2
{D7A5F5EB-00A9-432C-BC5E-84F91161BE45}
  9
$VERSIONGUID
  2
{1E77D850-E239-42A0-BECE-20B354F5EA43}
  9
$EXTNAMES
290
     1
  9
$PSVPSCALE
 40
0.0
  9
$OLESTARTUP
290
     0
  0
ENDSEC
  0
SECTION
  2
CLASSES
  0
CLASS
  1
DICTIONARYVAR
  2
AcDbDictionaryVar
  3
AutoCAD 2000
 90
        0
280
     0
281
     0
  0
CLASS
  1
ACDBDICTIONARYWDFLT
  2
AcDbDictionaryWithDefault
  3
AutoCAD 2000
 90
        0
280
     0
281
     0
  0
CLASS
  1
ACDBPLACEHOLDER
  2
AcDbPlaceHolder
  3
AutoCAD 2000
 90
        0
280
     0
281
     0
  0
CLASS
  1
LAYOUT
  2
AcDbLayout
  3
AutoCAD 2000
 90
        0
280
     0
281
     0
  0
CLASS
  1
AMGSETTINGSOBJ
  2
AmgSettingsObj
  3
"AcadM|Product Description: AutoCAD Mechanical 2000|Company: Autodesk"
 90
        0
280
     0
281
     0
  0
CLASS
  1
ACME_DOCUMENT
  2
AcMeDbDoc
  3
AcMeServices
 90
        0
280
     0
281
     0
  0
CLASS
  1
ACMESCOPE
  2
AcMeScope
  3
AcMeServices
 90
        0
280
     0
281
     0
  0
CLASS
  1
ACMECOMMANDHISTORY
  2
AcMeCommandHistory
  3
AcMeServices
 90
        0
280
     0
281
     0
  0
CLASS
  1
ACIMSYSVARMAN
  2
AcImSysVarManager
  3
AcMeServices
 90
        0
280
     0
281
     0
  0
CLASS
  1
ACIMREALSYSVAR
  2
AcImRealSysVar
  3
AcMeServices
 90
        0
280
     0
281
     0
  0
CLASS
  1
ACIMINTSYSVAR
  2
AcImIntSysVar
  3
AcMeServices
 90
        0
280
     0
281
     0
  0
CLASS
  1
ACMEDRAWINGMAN
  2
AcMeDrawingMan
  3
AcMeServices
 90
        0
280
     0
281
     0
  0
CLASS
  1
ACMEVIEW
  2
AcMeView
  3
AcMeServices
 90
        0
280
     0
281
     0
  0
CLASS
  1
ACDBENTITYCACHE
  2
AcMeEntityCache
  3
AcMeServices
 90
        0
280
     0
281
     0
  0
CLASS
  1
GSMANAGER
  2
AcMeGSManager
  3
AcMeServices
 90
        0
280
     0
281
     0
  0
CLASS
  1
AMDTINTERNALREACTOR
  2
AmdtInternalReactor
  3
AcMeServices
 90
        0
280
     0
281
     0
  0
CLASS
  1
ACMESTATEMGR
  2
AcMeStateMgr
  3
AcMeServices
 90
        0
280
     0
281
     0
  0
CLASS
  1
ACGREFMASTER
  2
AcGrefMaster
  3
AcAttribServices
 90
        0
280
     0
281
     0
  0
CLASS
  1
AM_DRAWING_MGR
  2
AcDmDwgMgr
  3
AcMechDwgViewMgmt
 90
        0
280
     0
281
     0
  0
CLASS
  1
AM_DWG_DOCUMENT
  2
AcDmDwgDocument
  3
AcMechDwgViewMgmt
 90
        0
280
     0
281
     0
  0
CLASS
  1
AM_DWG_SHEET
  2
AcDmSheet
  3
AcMechDwgViewMgmt
 90
        0
280
     0
281
     0
  0
CLASS
  1
AM_VIEWDIMPARMAP
  2
AcDmViewDimParMap
  3
AcMechDwgViewMgmt
 90
        0
280
     0
281
     0
  0
CLASS
  1
AM_DWGMGR_NAME
  2
AcDmDwgMgrName
  3
AcMechDwgViewMgmt
 90
        0
280
     0
281
     0
  0
CLASS
  1
ACME_DATABASE
  2
AcMeDbDatabase
  3
AcMeServices
 90
        0
280
     0
281
     0
  0
CLASS
  1
ACRFINSADJUSTERMGR
  2
AcRfInsAdjusterMgr
  3
AcMeServices
 90
        0
280
     0
281
     0
  0
CLASS
  1
ACGREFACADMASTER
  2
AcGrefacadMaster
  3
AcGrefServices
 90
        0
280
     0
281
     0
  0
CLASS
  1
AMDTMENUSTATEMGR
  2
AmdtMenuStateMgr
  3
McadcomServices
 90
        0
280
     0
281
     0
  0
CLASS
  1
AMDTMCOMMENUSTATE
  2
AmdtMcomMenuState
  3
McadcomServices
 90
        0
280
     0
281
     0
  0
CLASS
  1
AMIMASTER
  2
AmiMaster
  3
AmiServices
 90
        0
280
     0
281
     0
  0
CLASS
  1
ASAPP
  2
AcAsAppObject
  3
AutoSurfServices
 90
        0
280
     0
281
     0
  0
CLASS
  1
IM_STATIC_MAN
  2
AcImStaticVarManager
  3
AcMeServices
 90
        0
280
     0
281
     0
  0
CLASS
  1
ACIMSTRSYSVAR
  2
AcImStrSysVar
  3
AcMeServices
 90
        0
280
     0
281
     0
  0
CLASS
  1
ACIMDBLSTATICVAR
  2
AcImDblStaticVar
  3
AcMeServices
 90
        0
280
     0
281
     0
  0
CLASS
  1
ACIMSTRSTATICVAR
  2
AcImStrStaticVar
  3
AcMeServices
 90
        0
280
     0
281
     0
  0
CLASS
  1
ACIMINTSTATICVAR
  2
AcImIntStaticVar
  3
AcMeServices
 90
        0
280
     0
281
     0
  0
CLASS
  1
ACASGREFMASTER
  2
AcAsGrefMaster
  3
AutoSurfResolverServices
 90
        0
280
     0
281
     0
  0
CLASS
  1
ACADGREFMODULE
  2
AcAdGrefModule
  3
AdGrefServices
 90
        0
280
     0
281
     0
  0
CLASS
  1
AMDTMAPISURFMOUDULE
  2
AmdtMApiSurfModule
  3
MApiSurfServices
 90
        0
280
     0
281
     0
  0
CLASS
  1
MAPIAMMOUDLE
  2
MApiAmModule
  3
MApiAmServices
 90
        0
280
     0
281
     0
  0
CLASS
  1
AMDTADMENUSTATE
  2
AmdtAdMenuState
  3
DesignerServices
 90
        0
280
     0
281
     0
  0
CLASS
  1
ADAPPL
  2
AcAdAppl
  3
DesignerServices
 90
        0
280
     0
281
     0
  0
CLASS
  1
DEPMGR
  2
AcAdDepMgr
  3
DesignerServices
 90
        0
280
     0
281
     0
  0
CLASS
  1
PARAMMGR
  2
AcAdParamMgr
  3
DesignerServices
 90
        0
280
     0
281
     0
  0
CLASS
  1
PARAMSCOPE
  2
AcAdParamScope
  3
DesignerServices
 90
        0
280
     0
281
     0
  0
CLASS
  1
NAMEDAPPL
  2
AcAdNamedAppl
  3
DesignerServices
 90
        0
280
     0
281
     0
  0
CLASS
  1
AMDTDMMENUSTATE
  2
AmdtDmMenuState
  3
AcMechDwgViewMgmt
 90
        0
280
     0
281
     0
  0
CLASS
  1
MAPIADMODULE
  2
MApiAdModule
  3
MApiAdServices
 90
        0
280
     0
281
     0
  0
CLASS
  1
AMDTAMMENUSTATE
  2
AmdtAmMenuState
  3
DesignerAssemblies
 90
        0
280
     0
281
     0
  0
CLASS
  1
ACAMPROJECT
  2
AcAmProject
  3
DesignerAssemblies
 90
        0
280
     0
281
     0
  0
CLASS
  1
ACAMGRCOMPDEF
  2
AcAmGrCompDef
  3
DesignerAssemblies
 90
        0
280
     0
281
     0
  0
CLASS
  1
ACCMCONTEXT
  2
AcCmContext
  3
DesignerAssemblies
 90
        0
280
     0
281
     0
  0
CLASS
  1
ACAMCOMPDEF
  2
AcAmCompDef
  3
DesignerAssemblies
 90
        0
280
     0
281
     0
  0
CLASS
  1
ACAMCOMPDEFMGR
  2
AcAmCompDefMgr
  3
DesignerAssemblies
 90
        0
280
     0
281
     0
  0
CLASS
  1
AMCONTEXTMGR
  2
AcAmContextMgr
  3
DesignerAssemblies
 90
        0
280
     0
281
     0
  0
CLASS
  1
ACAMCONTEXTMODELER
  2
AcAmContextModeler
  3
DesignerAssemblies
 90
        0
280
     0
281
     0
  0
CLASS
  1
ACMDATADICTIONARY
  2
AcmDataDictionary
  3
"AcmSymBB|Product Description: AutoCAD Mechanical 2000|Company: Autodesk"
 90
        0
280
     0
281
     0
  0
CLASS
  1
ACMDATAENTRYBLOCK
  2
AcmDataEntryBlock
  3
"AcmSymBB|Product Description: AutoCAD Mechanical 2000|Company: Autodesk"
 90
        0
280
     0
281
     0
  0
CLASS
  1
CATALOGSTATE
  2
AcAmCatalogState
  3
DesignerAssemblies
 90
        0
280
     0
281
     0
  0
CLASS
  1
ACAMGRCOMPDEFSET
  2
AcAmGrCompDefSet
  3
DesignerAssemblies
 90
        0
280
     0
281
     0
  0
CLASS
  1
AMDTBROWSERDBTAB
  2
AmdtBrowserDbTab
  3
McadcomServices
 90
        0
280
     0
281
     0
  0
CLASS
  1
CBROWSERAPPOBJECT
  2
CBrowserAppObject
  3
McadcomServices
 90
        0
280
     0
281
     0
  0
CLASS
  1
DM_PLACEHOLDER
  2
AcDmSelsetPlaceholder
  3
AcMechDwgViewMgmt
 90
        0
280
     0
281
     0
  0
CLASS
  1
ACMSTANDARDANSI
  2
AcmStandardANSI
  3
"Amdt_StdImp|Product Description: AutoCAD Mechanical 2000|Company: Autodesk"
 90
        0
280
     0
281
     0
  0
CLASS
  1
AMGOBJPROPCFG
  2
AmgObjPropCfg
  3
"AmgLay|Product Description: AutoCAD Mechanical 2000|Company: Autodesk"
 90
        1
280
     0
281
     0
  0
CLASS
  1
ACMSURFSTANDARDANSI
  2
AcmSurfTextStdANSI
  3
"Amdt_StdImp|Product Description: AutoCAD Mechanical 2000|Company: Autodesk"
 90
        0
280
     0
281
     0
  0
CLASS
  1
ACMFCFSTANDARDANSI
  2
AcmFCFStdANSI
  3
"Amdt_StdImp|Product Description: AutoCAD Mechanical 2000|Company: Autodesk"
 90
        0
280
     0
281
     0
  0
CLASS
  1
ACMWELDSTANDARDANSI
  2
AcmWeldingStdANSI
  3
"Amdt_StdImp|Product Description: AutoCAD Mechanical 2000|Company: Autodesk"
 90
        0
280
     0
281
     0
  0
CLASS
  1
ACMIDSTANDARDANSI
  2
AcmIdStdANSI
  3
"Amdt_StdImp|Product Description: AutoCAD Mechanical 2000|Company: Autodesk"
 90
        0
280
     0
281
     0
  0
CLASS
  1
ACMDATUMSTANDARDANSI
  2
AcmDatumStdANSI
  3
"Amdt_StdImp|Product Description: AutoCAD Mechanical 2000|Company: Autodesk"
 90
        0
280
     0
281
     0
  0
CLASS
  1
ACMBOMSTANDARDANSI
  2
AcmBOMStdANSI
  3
"Amdt_StdImp|Product Description: AutoCAD Mechanical 2000|Company: Autodesk"
 90
        0
280
     0
281
     0
  0
CLASS
  1
ACMDETAILSTANDARDANSI
  2
AmdtDetailSymStdANSI
  3
"Amdt_StdImp|Product Description: AutoCAD Mechanical 2000|Company: Autodesk"
 90
        0
280
     0
281
     0
  0
CLASS
  1
ACMSECTIONSTANDARDANSI
  2
AmdtSectionSymStdANSI
  3
"Amdt_StdImp|Product Description: AutoCAD Mechanical 2000|Company: Autodesk"
 90
        0
280
     0
281
     0
  0
CLASS
  1
ACMCENTERLINESTANDARDANSI
  2
AmdtCenterLineStdANSI
  3
"Amdt_StdImp|Product Description: AutoCAD Mechanical 2000|Company: Autodesk"
 90
        0
280
     0
281
     0
  0
CLASS
  1
ACMTHREADLINESTANDARDANSI
  2
AmdtThreadLineStdANSI
  3
"Amdt_StdImp|Product Description: AutoCAD Mechanical 2000|Company: Autodesk"
 90
        0
280
     0
281
     0
  0
CLASS
  1
ACMNOTESTANDARDANSI
  2
AmdtNoteStdANSI
  3
"Amdt_StdImp|Product Description: AutoCAD Mechanical 2000|Company: Autodesk"
 90
        0
280
     0
281
     0
  0
CLASS
  1
ACAMGLAYSTD
  2
AcAmgLayStd
  3
"AcAmgLayStd|Product Description: AutoCAD Mechanical 2000|Company: Autodesk"
 90
        0
280
     0
281
     0
  0
CLASS
  1
ACAMGDIMSTD
  2
AcAmgDimStd
  3
"AcAmgDimStd|Product Description: AutoCAD Mechanical 2000|Company: Autodesk"
 90
        0
280
     0
281
     0
  0
CLASS
  1
ACAMGHOLECHARTSTDANSI
  2
AcAmgHoleChartStdANSI
  3
ACMSYMBB_MODULE_NAME
 90
        0
280
     0
281
     0
  0
CLASS
  1
ACAMGTITLESTD
  2
AcAmgTitleStd
  3
"TITLEAPP"
 90
        0
280
     0
281
     0
  0
CLASS
  1
LAYER_INDEX
  2
AcDbLayerIndex
  3
AutoCAD 2000
 90
        0
280
     0
281
     0
  0
CLASS
  1
IDBUFFER
  2
AcDbIdBuffer
  3
AutoCAD 2000
 90
        0
280
     0
281
     0
  0
CLASS
  1
ACAMGFILTERDAT
  2
AcAmgFilterDat
  3
"AcadM|Product Description: AutoCAD Mechanical 2000|Company: Autodesk"
 90
        0
280
     0
281
     0
  0
CLASS
  1
AMDTFORMULAUPDATEDISPATCHER
  2
AmdtFormulaUpdateDispatcher
  3
AcMeServices
 90
        0
280
     0
281
     0
  0
ENDSEC
  0
SECTION
  2
TABLES
  0
TABLE
  2
VPORT
  5
E6
330
0
100
AcDbSymbolTable
 70
    16
  0
VPORT
  5
45A
330
E6
100
AcDbSymbolTableRecord
100
AcDbViewportTableRecord
  2
*Active
 70
     0
 10
0.0
 20
0.0
 11
1.0
 21
1.0
 12
0.0
 22
0.0
 13
0.0
 23
0.0
 14
5.0
 24
5.0
 15
10.0
 25
10.0
 16
0.0
 26
0.0
 36
1.0
 17
262.5030402095342
 27
173.043022
 37
0.0
 40
346.4919420796385
 41
1.516981132075471
 42
50.0
 43
0.0
 44
0.0
 50
0.0
 51
0.0
 71
     0
 72
   100
 73
     1
 74
     1
 75
     0
 76
     0
 77
     0
 78
     0
281
     0
 65
     0
110
0.0
120
0.0
130
0.0
111
1.0
121
0.0
131
0.0
112
0.0
122
1.0
132
0.0
 79
     0
146
0.0
  0
ENDTAB
  0
TABLE
  2
LTYPE
  5
E3
330
0
100
AcDbSymbolTable
 70
    21
  0
LTYPE
  5
EF
330
E3
100
AcDbSymbolTableRecord
100
AcDbLinetypeTableRecord
  2
BYBLOCK
 70
     0
  3

 72
    65
 73
     0
 40
0.0
  0
LTYPE
  5
F0
330
E3
100
AcDbSymbolTableRecord
100
AcDbLinetypeTableRecord
  2
BYLAYER
 70
     0
  3

 72
    65
 73
     0
 40
0.0
  0
LTYPE
  5
F1
330
E3
100
AcDbSymbolTableRecord
100
AcDbLinetypeTableRecord
  2
CONTINUOUS
 70
     0
  3
Solid line
 72
    65
 73
     0
 40
0.0
  0
LTYPE
  5
FC
330
E3
100
AcDbSymbolTableRecord
100
AcDbLinetypeTableRecord
  2
TENSEN1
 70
     0
  3

 72
    65
 73
     2
 40
0.4
 49
0.3
 74
     0
 49
-0.1
 74
     0
  0
LTYPE
  5
FD
330
E3
100
AcDbSymbolTableRecord
100
AcDbLinetypeTableRecord
  2
ITTEN1
 70
     0
  3

 72
    65
 73
     4
 40
8.199999999999999
 49
5.0
 74
     0
 49
-1.0
 74
     0
 49
1.199999999999999
 74
     0
 49
-1.0
 74
     0
  0
LTYPE
  5
FE
330
E3
100
AcDbSymbolTableRecord
100
AcDbLinetypeTableRecord
  2
TENSEN2
 70
     0
  3

 72
    65
 73
     2
 40
2.1
 49
1.5
 74
     0
 49
-0.6
 74
     0
  0
LTYPE
  5
147
330
E3
100
AcDbSymbolTableRecord
100
AcDbLinetypeTableRecord
  2
HIDDEN
 70
     0
  3
Hidden __ __ __ __ __ __ __ __ __ __ __ __ __ _
 72
    65
 73
     2
 40
0.375
 49
0.25
 74
     0
 49
-0.125
 74
     0
  0
LTYPE
  5
148
330
E3
100
AcDbSymbolTableRecord
100
AcDbLinetypeTableRecord
  2
PHANTOM2
 70
     0
  3
Phantom (.5x) ___ _ _ ___ _ _ ___ _ _ ___ _ _
 72
    65
 73
     6
 40
1.25
 49
0.625
 74
     0
 49
-0.125
 74
     0
 49
0.125
 74
     0
 49
-0.125
 74
     0
 49
0.125
 74
     0
 49
-0.125
 74
     0
  0
LTYPE
  5
149
330
E3
100
AcDbSymbolTableRecord
100
AcDbLinetypeTableRecord
  2
CENTER
 70
     0
  3
Center ____ _ ____ _ ____ _ ____ _ ____ _ ____
 72
    65
 73
     4
 40
2.0
 49
1.25
 74
     0
 49
-0.25
 74
     0
 49
0.25
 74
     0
 49
-0.25
 74
     0
  0
LTYPE
  5
1AB
330
E3
100
AcDbSymbolTableRecord
100
AcDbLinetypeTableRecord
  2
ASULTYPE
 70
     0
  3
実線
 72
    65
 73
     2
 40
3.0
 49
2.5
 74
     0
 49
0.5
 74
     0
  0
LTYPE
  5
1AC
330
E3
100
AcDbSymbolTableRecord
100
AcDbLinetypeTableRecord
  2
ASVLTYPE
 70
     0
  3
__ __ __ __ __ __ __ __ __ __ __ __ __ __ __ __ __ __ __ __ __
 72
    65
 73
     2
 40
0.75
 49
0.5
 74
     0
 49
-0.25
 74
     0
  0
LTYPE
  5
1F0
330
E3
100
AcDbSymbolTableRecord
100
AcDbLinetypeTableRecord
  2
AM_ISO02W050
 70
     0
  3
__ __ __ __ __ __ __ __ __ __ __ __ __ __ __
 72
    65
 73
     2
 40
7.5
 49
6.0
 74
     0
 49
-1.5
 74
     0
  0
LTYPE
  5
1F1
330
E3
100
AcDbSymbolTableRecord
100
AcDbLinetypeTableRecord
  2
AM_ISO08W050
 70
     0
  3
____ . ____ . ____ . ____ . ____ . ____ . ____
 72
    65
 73
     4
 40
18.0
 49
12.0
 74
     0
 49
-1.5
 74
     0
 49
3.0
 74
     0
 49
-1.5
 74
     0
  0
LTYPE
  5
1F2
330
E3
100
AcDbSymbolTableRecord
100
AcDbLinetypeTableRecord
  2
AM_ISO09W050
 70
     0
  3
_____ . . _____ . . _____ . . ____ .. ____
 72
    65
 73
     6
 40
22.5
 49
12.0
 74
     0
 49
-1.5
 74
     0
 49
3.0
 74
     0
 49
-1.5
 74
     0
 49
3.0
 74
     0
 49
-1.5
 74
     0
  0
LTYPE
  5
1F3
330
E3
100
AcDbSymbolTableRecord
100
AcDbLinetypeTableRecord
  2
Amconstr
 70
     0
  3
_______________________
 72
    65
 73
     2
 40
9999.0
 49
9999.0
 74
     0
 49
0.0
 74
     0
  0
LTYPE
  5
1F4
330
E3
100
AcDbSymbolTableRecord
100
AcDbLinetypeTableRecord
  2
AM_ISO08W050x2
 70
     0
  3
__ . __ . __ . __ . __ . __
 72
    65
 73
     4
 40
9.0
 49
6.0
 74
     0
 49
-0.75
 74
     0
 49
1.5
 74
     0
 49
-0.75
 74
     0
  0
LTYPE
  5
1F5
330
E3
100
AcDbSymbolTableRecord
100
AcDbLinetypeTableRecord
  2
AM_ISO02W050x2
 70
     0
  3
 _ _ _ _ _ _ _ _ _ _ _ _
 72
    65
 73
     2
 40
3.75
 49
3.0
 74
     0
 49
-0.75
 74
     0
  0
LTYPE
  5
1F8
330
E3
100
AcDbSymbolTableRecord
100
AcDbLinetypeTableRecord
  2
Amzigzag
 70
     0
  3
/\/-/\/-/\/-/\/-/\/-/\/
 72
    65
 73
     2
 40
11.00009999999999
 49
0.0001
 74
     4
 75
   135
340
1F7
 46
0.04
 50
0.0
 44
0.0
 45
0.0
 49
-11.0
 74
     0
  0
LTYPE
  5
1F9
330
E3
100
AcDbSymbolTableRecord
100
AcDbLinetypeTableRecord
  2
CENTER2
 70
     0
  3
Center (.5x) ___ _ ___ _ ___ _ ___ _ ___ _ ___
 72
    65
 73
     4
 40
1.125
 49
0.75
 74
     0
 49
-0.125
 74
     0
 49
0.125
 74
     0
 49
-0.125
 74
     0
  0
LTYPE
  5
1FA
330
E3
100
AcDbSymbolTableRecord
100
AcDbLinetypeTableRecord
  2
HIDDEN2
 70
     0
  3
Hidden (.5x) _ _ _ _ _ _ _ _ _ _ _ _ _ _ _ _ _
 72
    65
 73
     2
 40
0.1875
 49
0.125
 74
     0
 49
-0.0625
 74
     0
  0
LTYPE
  5
1FB
330
E3
100
AcDbSymbolTableRecord
100
AcDbLinetypeTableRecord
  2
Amzigzag2
 70
     0
  3
/\/-/\/-/\/-/\/-/\/-/\/
 72
    65
 73
     2
 40
0.4401
 49
0.0001
 74
     4
 75
   135
340
1F7
 46
0.0016
 50
0.0
 44
0.0
 45
0.0
 49
-0.4400000000000001
 74
     0
  0
LTYPE
  5
209
330
E3
100
AcDbSymbolTableRecord
100
AcDbLinetypeTableRecord
  2
ACANSTGB
 70
     0
  3
__ . . __ . .
 72
    65
 73
     6
 40
0.35433070866
 49
0.15748031496
 74
     0
 49
-0.03937007874
 74
     0
 49
0.03937007874
 74
     0
 49
-0.03937007874
 74
     0
 49
0.03937007874
 74
     0
 49
-0.03937007874
 74
     0
  0
LTYPE
  5
20A
330
E3
100
AcDbSymbolTableRecord
100
AcDbLinetypeTableRecord
  2
ACANSTGL
 70
     0
  3
_ _ _ _ _
 72
    65
 73
     2
 40
0.11811023622
 49
0.07874015748
 74
     0
 49
-0.03937007874
 74
     0
  0
ENDTAB
  0
TABLE
  2
LAYER
  5
E0
330
0
100
AcDbSymbolTable
 70
     5
  0
LAYER
  5
EC
330
E0
100
AcDbSymbolTableRecord
100
AcDbLayerTableRecord
  2
0
 70
     0
 62
     7
  6
CONTINUOUS
370
    -3
390
119
  0
LAYER
  5
102
330
E0
100
AcDbSymbolTableRecord
100
AcDbLayerTableRecord
  2
1
 70
     0
 62
     1
  6
ITTEN1
370
    -3
390
119
  0
LAYER
  5
103
330
E0
100
AcDbSymbolTableRecord
100
AcDbLayerTableRecord
  2
2
 70
     0
 62
     2
  6
TENSEN2
370
    -3
390
119
  0
LAYER
  5
104
330
E0
100
AcDbSymbolTableRecord
100
AcDbLayerTableRecord
  2
3
 70
     0
 62
     5
  6
CONTINUOUS
370
    -3
390
119
  0
LAYER
  5
333
330
E0
100
AcDbSymbolTableRecord
100
AcDbLayerTableRecord
  2
DEFPOINTS
 70
     0
 62
     7
  6
CONTINUOUS
290
     0
370
    -3
390
119
  0
ENDTAB
  0
TABLE
  2
STYLE
  5
E1
330
0
100
AcDbSymbolTable
 70
     6
  0
STYLE
  5
ED
330
E1
100
AcDbSymbolTableRecord
100
AcDbTextStyleTableRecord
  2
STANDARD
 70
     0
 40
0.0
 41
1.0
 50
0.0
 71
     0
 42
0.2
  3
txt
  4

  0
STYLE
  5
FA
330
E1
100
AcDbSymbolTableRecord
100
AcDbTextStyleTableRecord
  2
BIGFONT
 70
     0
 40
6.0
 41
1.0
 50
0.0
 71
     0
 42
6.0
  3

  4
bigfont
  0
STYLE
  5
FB
330
E1
100
AcDbSymbolTableRecord
100
AcDbTextStyleTableRecord
  2
EXTFONT
 70
     0
 40
10.0
 41
1.0
 50
0.0
 71
     0
 42
10.0
  3

  4
extfont
  0
STYLE
  5
1F7
330
E1
100
AcDbSymbolTableRecord
100
AcDbTextStyleTableRecord
  2

 70
     1
 40
0.0
 41
1.0
 50
0.0
 71
     0
 42
6.0
  3
ltypeshp.shx
  4

  0
STYLE
  5
1FC
330
E1
100
AcDbSymbolTableRecord
100
AcDbTextStyleTableRecord
  2
ACANSTS
 70
     0
 40
1.0
 41
1.0
 50
0.0
 71
     0
 42
6.0
  3
romans.shx
  4
extfont.shx
  0
STYLE
  5
208
330
E1
100
AcDbSymbolTableRecord
100
AcDbTextStyleTableRecord
  2
ACANSGDT
 70
     0
 40
0.0
 41
1.0
 50
0.0
 71
     0
 42
6.0
  3
amgdtans.shx
  4

  0
ENDTAB
  0
TABLE
  2
VIEW
  5
E4
330
0
100
AcDbSymbolTable
 70
     0
  0
ENDTAB
  0
TABLE
  2
UCS
  5
E5
330
0
100
AcDbSymbolTable
 70
     0
  0
ENDTAB
  0
TABLE
  2
APPID
  5
E7
330
0
100
AcDbSymbolTable
 70
    13
  0
APPID
  5
EE
330
E7
100
AcDbSymbolTableRecord
100
AcDbRegAppTableRecord
  2
ACAD
 70
     0
  0
APPID
  5
125
330
E7
100
AcDbSymbolTableRecord
100
AcDbRegAppTableRecord
  2
GENIUS_GENDIM_13
 70
     0
  0
APPID
  5
126
330
E7
100
AcDbSymbolTableRecord
100
AcDbRegAppTableRecord
  2
GENIUS_GENDTOL_13
 70
     0
  0
APPID
  5
127
330
E7
100
AcDbSymbolTableRecord
100
AcDbRegAppTableRecord
  2
GENIUS_GE3DTOL_13
 70
     0
  0
APPID
  5
12A
330
E7
100
AcDbSymbolTableRecord
100
AcDbRegAppTableRecord
  2
MCAD_NO_VIS
 70
     0
  0
APPID
  5
12B
330
E7
100
AcDbSymbolTableRecord
100
AcDbRegAppTableRecord
  2
ACAD_TEMP_GRAPHIC
 70
     0
  0
APPID
  5
15E
330
E7
100
AcDbSymbolTableRecord
100
AcDbRegAppTableRecord
  2
AD_DRAW
 70
     0
  0
APPID
  5
161
330
E7
100
AcDbSymbolTableRecord
100
AcDbRegAppTableRecord
  2
ACATTRIBSERVICES
 70
     0
  0
APPID
  5
1AD
330
E7
100
AcDbSymbolTableRecord
100
AcDbRegAppTableRecord
  2
ASURF_PCURVE_APPNAME
 70
     0
  0
APPID
  5
1B2
330
E7
100
AcDbSymbolTableRecord
100
AcDbRegAppTableRecord
  2
AMG_3D2D_5.0
 70
     0
  0
APPID
  5
1DD
330
E7
100
AcDbSymbolTableRecord
100
AcDbRegAppTableRecord
  2
DESIGNERASSEMBLIES
 70
     0
  0
APPID
  5
1E5
330
E7
100
AcDbSymbolTableRecord
100
AcDbRegAppTableRecord
  2
ACADM_DIM_EDIT
 70
     0
  0
APPID
  5
1E6
330
E7
100
AcDbSymbolTableRecord
100
AcDbRegAppTableRecord
  2
AMDT_DM_ADJ
 70
     0
  0
ENDTAB
  0
TABLE
  2
DIMSTYLE
  5
E8
330
0
100
AcDbSymbolTable
 70
     7
100
AcDbDimStyleTable
 71
     0
  0
DIMSTYLE
105
101
330
E8
100
AcDbSymbolTableRecord
100
AcDbDimStyleTableRecord
  2
STANDARD
 70
     0
340
FA
  0
DIMSTYLE
105
20E
330
E8
100
AcDbSymbolTableRecord
100
AcDbDimStyleTableRecord
  2
AM_ANSI
 70
     0
  4
mm
 41
0.1
 42
0.05
 43
0.5
 44
0.1
 47
0.1
 48
0.1
 78
     7
 79
     2
140
0.12
141
0.0
146
0.71
147
0.06
176
   256
177
   256
178
     2
274
     4
284
     7
340
ED
371
    -1
372
    -1
  0
DIMSTYLE
105
20F
330
E8
100
AcDbSymbolTableRecord
100
AcDbDimStyleTableRecord
  2
AM_ANSI$3
 70
     0
  4
mm
 41
0.1
 42
0.05
 43
0.5
 44
0.1
 47
0.1
 48
0.1
 78
     7
 79
     2
140
0.12
141
0.0
146
0.71
147
0.06
176
   256
177
   256
178
     2
274
     4
284
     7
288
     1
289
     0
340
ED
371
    -1
372
    -1
  0
DIMSTYLE
105
210
330
E8
100
AcDbSymbolTableRecord
100
AcDbDimStyleTableRecord
  2
AM_ANSI$4
 70
     0
  4
mm
 41
0.1
 42
0.05
 43
0.5
 44
0.1
 47
0.1
 48
0.1
 78
     7
 79
     2
140
0.12
141
0.0
146
0.71
147
0.06
176
   256
177
   256
178
     2
274
     4
284
     7
288
     1
289
     0
340
ED
371
    -1
372
    -1
  0
DIMSTYLE
105
211
330
E8
100
AcDbSymbolTableRecord
100
AcDbDimStyleTableRecord
  2
AM_ANSI$7
 70
     0
  4
mm
 41
0.1
 42
0.05
 43
0.5
 44
0.1
 47
0.1
 48
0.1
 78
     7
 79
     2
140
0.24
141
0.0
146
0.71
147
0.06
176
   256
177
   256
178
     2
274
     4
284
     7
340
ED
371
    -1
372
    -1
  0
DIMSTYLE
105
212
330
E8
100
AcDbSymbolTableRecord
100
AcDbDimStyleTableRecord
  2
AM_ANSI$SF
 70
     0
  4
mm
 41
0.1
 42
0.05
 43
0.5
 44
0.1
 47
0.1
 48
0.1
 75
     1
 76
     1
 78
     7
 79
     2
140
0.12
141
0.0
146
0.71
147
0.06
176
   256
177
   256
178
     2
274
     4
284
     7
340
ED
371
    -1
372
    -1
  0
DIMSTYLE
105
217
330
E8
100
AcDbSymbolTableRecord
100
AcDbDimStyleTableRecord
  2
AM_ANSI$SH
 70
     0
  4
mm
 41
0.1
 42
0.05
 43
0.5
 44
0.1
 47
0.1
 48
0.1
 75
     1
 76
     1
 78
     7
 79
     2
140
0.12
141
0.0
146
0.71
147
0.06
173
     1
176
   256
177
   256
178
     2
274
     4
284
     7
340
ED
343
213
371
    -1
372
    -1
  0
ENDTAB
  0
TABLE
  2
BLOCK_RECORD
  5
DF
330
0
100
AcDbSymbolTable
 70
     8
  0
BLOCK_RECORD
  5
F5
102
{ACAD_XDICTIONARY
360
21B
102
}
330
DF
100
AcDbSymbolTableRecord
100
AcDbBlockTableRecord
  2
*MODEL_SPACE
340
11C
  0
BLOCK_RECORD
  5
F2
330
DF
100
AcDbSymbolTableRecord
100
AcDbBlockTableRecord
  2
*PAPER_SPACE
340
11D
  0
BLOCK_RECORD
  5
1D4
330
DF
100
AcDbSymbolTableRecord
100
AcDbBlockTableRecord
  2
*U0
340
0
  0
BLOCK_RECORD
  5
213
330
DF
100
AcDbSymbolTableRecord
100
AcDbBlockTableRecord
  2
GENAXEH
340
0
  0
BLOCK_RECORD
  5
325
330
DF
100
AcDbSymbolTableRecord
100
AcDbBlockTableRecord
  2
*D4
340
0
  0
BLOCK_RECORD
  5
3B3
330
DF
100
AcDbSymbolTableRecord
100
AcDbBlockTableRecord
  2
*D6
340
0
  0
ENDTAB
  0
ENDSEC
  0
SECTION
  2
BLOCKS
  0
BLOCK
  5
107
330
F5
100
AcDbEntity
  8
0
100
AcDbBlockBegin
  2
*MODEL_SPACE
 70
     0
 10
0.0
 20
0.0
 30
0.0
  3
*MODEL_SPACE
  1

  0
ENDBLK
  5
108
330
F5
100
AcDbEntity
  8
0
100
AcDbBlockEnd
  0
BLOCK
  5
105
330
F2
100
AcDbEntity
 67
     1
  8
0
100
AcDbBlockBegin
  2
*PAPER_SPACE
 70
     0
 10
0.0
 20
0.0
 30
0.0
  3
*PAPER_SPACE
  1

  0
ENDBLK
  5
106
330
F2
100
AcDbEntity
 67
     1
  8
0
100
AcDbBlockEnd
  0
BLOCK
  5
1D5
330
1D4
100
AcDbEntity
  8
0
100
AcDbBlockBegin
  2
*U0
 70
     1
 10
0.0
 20
0.0
 30
0.0
  3
*U0
  1

  0
ENDBLK
  5
1D6
330
1D4
100
AcDbEntity
  8
0
100
AcDbBlockEnd
  0
BLOCK
  5
215
330
213
100
AcDbEntity
  8
0
100
AcDbBlockBegin
  2
GENAXEH
 70
     0
 10
0.0
 20
0.0
 30
0.0
  3
GENAXEH
  1

  0
LINE
  5
214
330
213
100
AcDbEntity
  8
0
100
AcDbLine
 10
-1.0
 20
0.0
 30
0.0
 11
1.0
 21
0.0
 31
0.0
  0
ENDBLK
  5
216
330
213
100
AcDbEntity
  8
0
100
AcDbBlockEnd
  0
BLOCK
  5
331
330
325
100
AcDbEntity
  8
0
100
AcDbBlockBegin
  2
*D4
 70
     1
 10
0.0
 20
0.0
 30
0.0
  3
*D4
  1

  0
LINE
  5
326
330
325
100
AcDbEntity
  8
0
  6
ByBlock
 62
     0
100
AcDbLine
 10
215.4999999999999
 20
155.2008876044293
 30
0.0
 11
179.4871929761283
 21
155.2008876044293
 31
0.0
  0
LINE
  5
327
330
325
100
AcDbEntity
  8
0
  6
ByBlock
 62
     0
100
AcDbLine
 10
215.9104452294641
 20
149.7033855657466
 30
0.0
 11
179.4871929761283
 21
149.7033855657466
 31
0.0
  0
LINE
  5
328
330
325
100
AcDbEntity
  8
0
  6
ByBlock
 62
     0
100
AcDbLine
 10
180.4871929761283
 20
151.7033855657467
 30
0.0
 11
180.4871929761283
 21
153.2008876044293
 31
0.0
  0
LINE
  5
329
330
325
100
AcDbEntity
  8
0
  6
ByBlock
 62
     0
100
AcDbLine
 10
180.4871929761283
 20
155.2008876044293
 30
0.0
 11
180.4871929761283
 21
161.1841631331504
 31
0.0
  0
LINE
  5
32A
330
325
100
AcDbEntity
  8
0
  6
ByBlock
 62
     0
100
AcDbLine
 10
180.4871929761283
 20
161.1841631331504
 30
0.0
 11
182.4871929761283
 21
161.1841631331504
 31
0.0
  0
SOLID
  5
32B
330
325
100
AcDbEntity
  8
0
  6
ByBlock
 62
     0
100
AcDbTrace
 10
180.1538596427949
 20
151.7033855657467
 30
0.0
 11
180.8205263094616
 21
151.7033855657467
 31
0.0
 12
180.4871929761283
 22
149.7033855657466
 32
0.0
 13
180.4871929761283
 23
149.7033855657466
 33
0.0
  0
SOLID
  5
32C
330
325
100
AcDbEntity
  8
0
  6
ByBlock
 62
     0
100
AcDbTrace
 10
180.1538596427949
 20
153.2008876044293
 30
0.0
 11
180.8205263094616
 21
153.2008876044293
 31
0.0
 12
180.4871929761283
 22
155.2008876044293
 32
0.0
 13
180.4871929761283
 23
155.2008876044293
 33
0.0
  0
MTEXT
  5
32D
330
325
100
AcDbEntity
  8
0
  6
ByBlock
 62
     0
100
AcDbMText
 10
185.5771929761283
 20
161.1841631331504
 30
0.0
 40
4.0
 41
0.0
 71
     5
 72
     1
  1
\A1;5.5
  7
EXTFONT
 73
     1
 44
1.0
  0
POINT
  5
32E
330
325
100
AcDbEntity
  8
DEFPOINTS
  6
ByBlock
 62
     0
100
AcDbPoint
 10
216.4999999999999
 20
155.2008876044293
 30
0.0
  0
POINT
  5
32F
330
325
100
AcDbEntity
  8
DEFPOINTS
  6
ByBlock
 62
     0
100
AcDbPoint
 10
216.9104452294641
 20
149.7033855657466
 30
0.0
  0
POINT
  5
330
330
325
100
AcDbEntity
  8
DEFPOINTS
  6
ByBlock
 62
     0
100
AcDbPoint
 10
180.4871929761283
 20
149.7033855657466
 30
0.0
  0
ENDBLK
  5
332
330
325
100
AcDbEntity
  8
0
100
AcDbBlockEnd
  0
BLOCK
  5
3BF
330
3B3
100
AcDbEntity
  8
0
100
AcDbBlockBegin
  2
*D6
 70
     1
 10
0.0
 20
0.0
 30
0.0
  3
*D6
  1

  0
LINE
  5
3CC
330
3B3
100
AcDbEntity
  8
0
 62
     0
370
    -2
100
AcDbLine
 10
197.7707955808872
 20
113.6368843283999
 30
0.0
 11
154.2817980808251
 21
113.6368843283999
 31
0.0
  0
LINE
  5
3CD
330
3B3
100
AcDbEntity
  8
0
 62
     0
370
    -2
100
AcDbLine
 10
198.1812408103514
 20
108.1393822897172
 30
0.0
 11
154.2817980808251
 21
108.1393822897172
 31
0.0
  0
LINE
  5
3CE
330
3B3
100
AcDbEntity
  8
0
 62
     0
370
    -2
100
AcDbLine
 10
155.2817980808251
 20
110.1393822897172
 30
0.0
 11
155.2817980808251
 21
111.6368843283999
 31
0.0
  0
LINE
  5
3CF
330
3B3
100
AcDbEntity
  8
0
 62
     0
370
    -2
100
AcDbLine
 10
155.2817980808251
 20
113.6368843283999
 30
0.0
 11
155.2817980808251
 21
119.620159857121
 31
0.0
  0
LINE
  5
3D0
330
3B3
100
AcDbEntity
  8
0
 62
     0
370
    -2
100
AcDbLine
 10
155.2817980808251
 20
119.620159857121
 30
0.0
 11
157.2817980808251
 21
119.620159857121
 31
0.0
  0
SOLID
  5
3D1
330
3B3
100
AcDbEntity
  8
0
 62
     0
100
AcDbTrace
 10
154.9484647474918
 20
110.1393822897172
 30
0.0
 11
155.6151314141585
 21
110.1393822897172
 31
0.0
 12
155.2817980808251
 22
108.1393822897172
 32
0.0
 13
155.2817980808251
 23
108.1393822897172
 33
0.0
  0
SOLID
  5
3D2
330
3B3
100
AcDbEntity
  8
0
 62
     0
100
AcDbTrace
 10
154.9484647474918
 20
111.6368843283999
 30
0.0
 11
155.6151314141585
 21
111.6368843283999
 31
0.0
 12
155.2817980808251
 22
113.6368843283999
 32
0.0
 13
155.2817980808251
 23
113.6368843283999
 33
0.0
  0
MTEXT
  5
3D3
330
3B3
100
AcDbEntity
  8
0
 62
     0
100
AcDbMText
 10
167.8479885570156
 20
119.620159857121
 30
0.0
 40
10.0
 41
0.0
 71
     5
 72
     1
  1
\A1;5.5
  7
EXTFONT
 73
     1
 44
1.0
  0
POINT
  5
3D4
330
3B3
100
AcDbEntity
  8
DEFPOINTS
 62
     0
100
AcDbPoint
 10
198.7707955808872
 20
113.6368843283999
 30
0.0
  0
POINT
  5
3D5
330
3B3
100
AcDbEntity
  8
DEFPOINTS
 62
     0
100
AcDbPoint
 10
199.1812408103514
 20
108.1393822897172
 30
0.0
  0
POINT
  5
3D6
330
3B3
100
AcDbEntity
  8
DEFPOINTS
 62
     0
100
AcDbPoint
 10
155.2817980808251
 20
108.1393822897172
 30
0.0
  0
ENDBLK
  5
3C0
330
3B3
100
AcDbEntity
  8
0
100
AcDbBlockEnd
  0
ENDSEC
  0
SECTION
  2
ENTITIES
  0
ARC
  5
41E
330
F5
100
AcDbEntity
  8
3
100
AcDbCircle
 10
193.3703452144115
 20
-183.0258349458754
 30
0.0
 40
291.5390880060201
100
AcDbArc
 50
88.13347403738061
 51
109.0071734273924
  0
ARC
  5
41F
330
F5
100
AcDbEntity
  8
3
100
AcDbCircle
 10
197.8482769151524
 20
-185.4782777086974
 30
0.0
 40
288.8552472748439
100
AcDbArc
 50
89.00673493887909
 51
110.0680130558672
  0
ARC
  5
420
330
F5
100
AcDbEntity
  8
2
100
AcDbCircle
 10
197.967985023685
 20
-191.5992762189892
 30
0.0
 40
300.0
100
AcDbArc
 50
89.30180420335508
 51
108.8332187512608
  0
ARC
  5
421
330
F5
100
AcDbEntity
  8
3
100
AcDbCircle
 10
202.0887505381781
 20
-196.6602379955151
 30
0.0
 40
300.000000000003
100
AcDbArc
 50
90.08882975961677
 51
109.6668428200944
  0
LINE
  5
422
330
F5
100
AcDbEntity
  8
1
100
AcDbLine
 10
70.02183976737587
 20
164.2052309930898
 30
0.0
 11
223.349807577414
 21
164.2052309930898
 31
0.0
  0
LINE
  5
423
330
F5
100
AcDbEntity
  8
3
100
AcDbLine
 10
203.848179259456
 20
170.2052309930898
 30
0.0
 11
97.73182595702801
 21
173.7052309930898
 31
0.0
  0
LINE
  5
424
330
F5
100
AcDbEntity
  8
3
100
AcDbLine
 10
203.848179259456
 20
158.2052309930898
 30
0.0
 11
97.73182595702801
 21
154.7052309930898
 31
0.0
  0
LINE
  5
425
330
F5
100
AcDbEntity
  8
3
100
AcDbLine
 10
101.1236391907841
 20
72.33940145666207
 30
0.0
 11
101.1236391907841
 21
85.83940145666208
 31
0.0
  0
LINE
  5
426
330
F5
100
AcDbEntity
  8
3
100
AcDbLine
 10
71.1236391907841
 20
72.33940145666207
 30
0.0
 11
71.1236391907841
 21
91.33940145666207
 31
0.0
  0
LINE
  5
427
330
F5
100
AcDbEntity
  8
1
100
AcDbLine
 10
86.1236391907841
 20
99.61066195997927
 30
0.0
 11
86.1236391907841
 21
65.30840412183493
 31
0.0
  0
LINE
  5
428
330
F5
100
AcDbEntity
  8
3
100
AcDbLine
 10
86.1236391907841
 20
70.33940145666207
 30
0.0
 11
99.1236391907841
 21
70.33940145666207
 31
0.0
  0
LINE
  5
429
330
F5
100
AcDbEntity
  8
3
100
AcDbLine
 10
86.1236391907841
 20
70.33940145666207
 30
0.0
 11
73.12363919078411
 21
70.33940145666207
 31
0.0
  0
ARC
  5
42A
330
F5
100
AcDbEntity
  8
3
100
AcDbCircle
 10
73.12363919078411
 20
72.33940145666207
 30
0.0
 40
2.0
100
AcDbArc
 50
180.0
 51
270.0
  0
ARC
  5
42B
330
F5
100
AcDbEntity
  8
3
100
AcDbCircle
 10
99.1236391907841
 20
72.33940145666207
 30
0.0
 40
2.0
100
AcDbArc
 50
270.0
 51
0.0
  0
LINE
  5
42C
330
F5
100
AcDbEntity
  8
1
100
AcDbLine
 10
86.1236391907841
 20
180.975480539229
 30
0.0
 11
86.1236391907841
 21
146.6732227010847
 31
0.0
  0
LINE
  5
42D
330
F5
100
AcDbEntity
  8
3
100
AcDbLine
 10
97.9909438537336
 20
92.33940145666208
 30
0.0
 11
86.1236391907841
 21
92.33940145666208
 31
0.0
  0
ARC
  5
42E
330
F5
100
AcDbEntity
  8
3
100
AcDbCircle
 10
72.1236391907841
 20
91.33940145666207
 30
0.0
 40
1.0
100
AcDbArc
 50
90.0
 51
180.0
  0
LINE
  5
42F
330
F5
100
AcDbEntity
  8
3
100
AcDbLine
 10
72.1236391907841
 20
92.33940145666208
 30
0.0
 11
86.1236391907841
 21
92.33940145666208
 31
0.0
  0
LINE
  5
430
330
F5
100
AcDbEntity
  8
3
100
AcDbLine
 10
97.73182595702801
 20
86.83940145666207
 30
0.0
 11
97.73182595702801
 21
91.6677663555707
 31
0.0
  0
LINE
  5
431
330
F5
100
AcDbEntity
  8
3
100
AcDbLine
 10
98.731825957028
 20
85.83940145666208
 30
0.0
 11
101.1236391907841
 21
85.83940145666208
 31
0.0
  0
ARC
  5
432
330
F5
100
AcDbEntity
  8
3
100
AcDbCircle
 10
98.731825957028
 20
86.83940145666207
 30
0.0
 40
1.0
100
AcDbArc
 50
180.0
 51
270.0
  0
LINE
  5
433
330
F5
100
AcDbEntity
  8
2
100
AcDbLine
 10
97.9909438537336
 20
92.33940145666208
 30
0.0
 11
101.1236391907841
 21
92.33940145666222
 31
0.0
  0
ARC
  5
434
330
F5
100
AcDbEntity
  8
3
100
AcDbCircle
 10
98.73182595702804
 20
91.6677663555707
 30
0.0
 40
1.0
100
AcDbArc
 50
108.1698447298715
 51
180.0
  0
CIRCLE
  5
435
330
F5
100
AcDbEntity
  8
3
100
AcDbCircle
 10
86.1236391907841
 20
164.2052309930898
 30
0.0
 40
15.0
  0
LINE
  5
436
330
F5
100
AcDbEntity
  8
2
100
AcDbLine
 10
206.1236391907841
 20
104.839401456662
 30
0.0
 11
206.1236391907841
 21
113.839401456662
 31
0.0
  0
LINE
  5
437
330
F5
100
AcDbEntity
  8
2
100
AcDbLine
 10
216.1236391907841
 20
113.839401456662
 30
0.0
 11
216.1236391907841
 21
104.8394014566621
 31
0.0
  0
LINE
  5
438
330
F5
100
AcDbEntity
  8
2
100
AcDbLine
 10
206.8236391907841
 20
113.1394014566621
 30
0.0
 11
206.8236391907841
 21
105.539401456662
 31
0.0
  0
LINE
  5
439
330
F5
100
AcDbEntity
  8
2
100
AcDbLine
 10
215.4236391907841
 20
113.1394014566621
 30
0.0
 11
215.4236391907841
 21
105.539401456662
 31
0.0
  0
LINE
  5
43A
330
F5
100
AcDbEntity
  8
3
100
AcDbLine
 10
220.6236391907841
 20
114.839401456662
 30
0.0
 11
220.623639190784
 21
104.339401456662
 31
0.0
  0
LINE
  5
43B
330
F5
100
AcDbEntity
  8
3
100
AcDbLine
 10
201.623639190784
 20
108.3784499418218
 30
0.0
 11
201.6236391907841
 21
114.8394014566621
 31
0.0
  0
LINE
  5
43C
330
F5
100
AcDbEntity
  8
1
100
AcDbLine
 10
211.1236391907841
 20
122.9361973388767
 30
0.0
 11
211.1236391907841
 21
97.78120821677141
 31
0.0
  0
ARC
  5
43D
330
F5
100
AcDbEntity
  8
3
100
AcDbCircle
 10
188.6006732813252
 20
105.5727319151472
 30
0.0
 40
3.233248276628537
100
AcDbArc
 50
234.3435555558702
 51
310.7670546691366
  0
LINE
  5
43E
330
F5
100
AcDbEntity
  8
1
100
AcDbLine
 10
183.7136391907841
 20
99.46398403929215
 30
0.0
 11
183.7136391907841
 21
104.8455216615399
 31
0.0
  0
ARC
  5
43F
330
F5
100
AcDbEntity
  8
3
100
AcDbCircle
 10
183.5583047336656
 20
105.307787805758
 30
0.0
 40
3.235027239804834
100
AcDbArc
 50
235.3246362907851
 51
311.6985352723858
  0
LINE
  5
440
330
F5
100
AcDbEntity
  8
1
100
AcDbLine
 10
188.7136391907841
 20
99.52907574033174
 30
0.0
 11
188.7136391907841
 21
105.086778418011
 31
0.0
  0
LINE
  5
441
330
F5
100
AcDbEntity
  8
1
100
AcDbLine
 10
193.7136391907841
 20
99.72434993651512
 30
0.0
 11
193.7136391907841
 21
105.086778418011
 31
0.0
  0
ARC
  5
442
330
F5
100
AcDbEntity
  8
3
100
AcDbCircle
 10
193.642946370875
 20
105.7540945578325
 30
0.0
 40
3.232032698854499
100
AcDbArc
 50
233.371020104759
 51
309.828452465458
  0
LINE
  5
443
330
F5
100
AcDbEntity
  8
2
100
AcDbLine
 10
215.4236391907841
 20
105.539401456662
 30
0.0
 11
206.8236391907841
 21
105.539401456662
 31
0.0
  0
LINE
  5
444
330
F5
100
AcDbEntity
  8
3
100
AcDbLine
 10
211.1236391907841
 20
103.339401456662
 30
0.0
 11
219.6236391907841
 21
103.339401456662
 31
0.0
  0
LINE
  5
445
330
F5
100
AcDbEntity
  8
3
100
AcDbLine
 10
211.1236391907841
 20
103.339401456662
 30
0.0
 11
201.623639190784
 21
103.339401456662
 31
0.0
  0
LINE
  5
446
330
F5
100
AcDbEntity
  8
3
100
AcDbLine
 10
203.848179259456
 20
104.3335389534129
 30
0.0
 11
203.848179259456
 21
107.3587283232532
 31
0.0
  0
ARC
  5
447
330
F5
100
AcDbEntity
  8
3
100
AcDbCircle
 10
202.8481792594559
 20
104.3335389534129
 30
0.0
 40
1.0
100
AcDbArc
 50
270.4221558258188
 51
0.0
  0
LWPOLYLINE
  5
448
330
F5
100
AcDbEntity
  8
2
100
AcDbPolyline
 90
        2
 70
     0
 43
0.0
 10
206.8236391907841
 20
105.539401456662
 10
204.6236391907841
 20
103.339401456662
  0
LINE
  5
449
330
F5
100
AcDbEntity
  8
0
100
AcDbLine
 10
201.623639190784
 20
108.3784499418218
 30
0.0
 11
201.623639190784
 21
105.8784499418218
 31
0.0
  0
ARC
  5
44A
330
F5
100
AcDbEntity
  8
3
100
AcDbCircle
 10
202.8481792594559
 20
107.3587283232532
 30
0.0
 40
1.0
100
AcDbArc
 50
0.0
 51
88.97080273489963
  0
LWPOLYLINE
  5
44B
330
F5
100
AcDbEntity
  8
2
100
AcDbPolyline
 90
        2
 70
     0
 43
0.0
 10
215.4236391907842
 20
105.539401456662
 10
217.6236391907842
 20
103.339401456662
  0
ARC
  5
44C
330
F5
100
AcDbEntity
  8
3
100
AcDbCircle
 10
219.6236391907841
 20
104.339401456662
 30
0.0
 40
1.0
100
AcDbArc
 50
270.0
 51
0.0
  0
LINE
  5
44D
330
F5
100
AcDbEntity
  8
2
100
AcDbLine
 10
215.4236391907841
 20
113.139401456662
 30
0.0
 11
206.8236391907841
 21
113.139401456662
 31
0.0
  0
LINE
  5
44E
330
F5
100
AcDbEntity
  8
3
100
AcDbLine
 10
202.1236391907841
 20
115.3394014566621
 30
0.0
 11
220.1236391907841
 21
115.339401456662
 31
0.0
  0
LWPOLYLINE
  5
44F
330
F5
100
AcDbEntity
  8
2
100
AcDbPolyline
 90
        2
 70
     0
 43
0.0
 10
204.6236391907841
 20
115.339401456662
 10
206.8236391907841
 20
113.139401456662
  0
ARC
  5
450
330
F5
100
AcDbEntity
  8
3
100
AcDbCircle
 10
202.1236391907841
 20
114.8394014566621
 30
0.0
 40
0.5
100
AcDbArc
 50
90.0
 51
180.0
  0
LWPOLYLINE
  5
451
330
F5
100
AcDbEntity
  8
2
100
AcDbPolyline
 90
        2
 70
     0
 43
0.0
 10
215.4236391907841
 20
113.139401456662
 10
217.6236391907841
 20
115.339401456662
  0
ARC
  5
452
330
F5
100
AcDbEntity
  8
3
100
AcDbCircle
 10
220.1236391907841
 20
114.839401456662
 30
0.0
 40
0.5
100
AcDbArc
 50
0.0
 51
90.0
  0
CIRCLE
  5
453
330
F5
100
AcDbEntity
  8
0
100
AcDbCircle
 10
211.1236391907841
 20
164.2052309930898
 30
0.0
 40
5.0
  0
LINE
  5
454
330
F5
100
AcDbEntity
  8
1
100
AcDbLine
 10
211.1236391907841
 20
153.6013394210096
 30
0.0
 11
211.1236391907841
 21
175.4442175669604
 31
0.0
  0
CIRCLE
  5
455
330
F5
100
AcDbEntity
  8
3
100
AcDbCircle
 10
211.1236391907841
 20
164.2052309930898
 30
0.0
 40
6.5
  0
CIRCLE
  5
456
330
F5
100
AcDbEntity
  8
3
100
AcDbCircle
 10
211.1236391907841
 20
164.2052309930898
 30
0.0
 40
4.299999999999999
  0
CIRCLE
  5
457
330
F5
100
AcDbEntity
  8
3
100
AcDbCircle
 10
211.2136391907841
 20
164.2052309930898
 30
0.0
 40
9.5
  0
TEXT
  5
458
330
F5
100
AcDbEntity
  8
0
100
AcDbText
 10
122.2791784904075
 20
65.30840399984396
 30
0.0
 40
6.0
  1
CHS-125-N
  7
BIGFONT
100
AcDbText
  0
ENDSEC
  0
SECTION
  2
OBJECTS
  0
DICTIONARY
  5
EA
330
0
100
AcDbDictionary
281
     1
  3
ACAD_GROUP
350
EB
  3
ACAD_LAYOUT
350
11A
  3
ACAD_MLINESTYLE
350
F8
  3
ACAD_PLOTSETTINGS
350
11B
  3
ACAD_PLOTSTYLENAME
350
118
  3
ACDBVARIABLEDICTIONARY
350
109
  3
AcmDictionary
350
1DE
  3
AMG
350
122
  3
AMGSNAPSETTINGS
350
225
  3
DWGPROPS
350
3DE
  3
MAPISURF_MODULE
350
1B0
  0
DICTIONARY
  5
21B
330
F5
100
AcDbDictionary
280
     1
281
     1
  3
ACAD_INDEX
360
21C
  0
DICTIONARY
  5
EB
102
{ACAD_REACTORS
330
EA
102
}
330
EA
100
AcDbDictionary
281
     1
  0
DICTIONARY
  5
11A
102
{ACAD_REACTORS
330
EA
102
}
330
EA
100
AcDbDictionary
281
     1
  3
Model
350
11C
  3
ﾚｲｱｳﾄ1
350
11D
  0
DICTIONARY
  5
F8
102
{ACAD_REACTORS
330
EA
102
}
330
EA
100
AcDbDictionary
281
     1
  3
STANDARD
350
F9
  0
DICTIONARY
  5
11B
102
{ACAD_REACTORS
330
EA
102
}
330
EA
100
AcDbDictionary
281
     1
  0
ACDBDICTIONARYWDFLT
  5
118
102
{ACAD_REACTORS
330
EA
102
}
330
EA
100
AcDbDictionary
281
     1
  3
Normal
350
119
100
AcDbDictionaryWithDefault
340
119
  0
DICTIONARY
  5
109
102
{ACAD_REACTORS
330
EA
102
}
330
EA
100
AcDbDictionary
281
     1
  3
DIMADEC
350
10A
  3
DIMASSOC
350
224
  3
INDEXCTL
350
223
  0
DICTIONARY
  5
1DE
102
{ACAD_REACTORS
330
EA
102
}
330
EA
100
AcDbDictionary
281
     1
  3
AcmBOMDATA
350
1DF
  3
AcmStdDictionary
350
1ED
  0
DICTIONARY
  5
122
102
{ACAD_REACTORS
330
EA
102
}
330
EA
100
AcDbDictionary
281
     1
  3
AcMgSettings
350
123
  3
AMGLAYCFG
350
1EF
  0
DICTIONARY
  5
225
102
{ACAD_REACTORS
330
EA
102
}
330
EA
100
AcDbDictionary
281
     1
  3
DIMENSION
350
22A
  3
FEA
350
229
  3
HATCH (1)
350
226
  3
HATCH (2)
350
227
  3
SIMPLE WELD
350
22B
  3
SYMBOLS
350
228
  0
XRECORD
  5
3DE
102
{ACAD_REACTORS
330
EA
102
}
330
EA
100
AcDbXrecord
280
     1
  1
DWGPROPS COOKIE
  2

  3

  4

  6

  7

  8

  9

300
AmdtFileType=84
301
=
302
=
303
=
304
=
305
=
306
=
307
=
308
=
309
=
 40
0.0166196412037037
 41
2450867.141740393
 42
2454687.663696099
  1

 90
        1
  0
DICTIONARY
  5
21C
102
{ACAD_REACTORS
330
21B
102
}
330
21B
100
AcDbDictionary
281
     1
  3
*A1
350
21D
  0
LAYOUT
  5
11C
102
{ACAD_REACTORS
330
11A
102
}
330
11A
100
AcDbPlotSettings
  1

  2
EPSON PM-3700C
  4

  6

 40
0.0
 41
0.0
 42
0.0
 43
0.0
 44
0.0
 45
0.0
 46
0.0
 47
0.0
 48
0.0
 49
0.0
140
0.0
141
0.0
142
1.0
143
1.0
 70
  1712
 72
     0
 73
     0
 74
     0
  7

 75
     0
147
1.0
148
0.0
149
0.0
100
AcDbLayout
  1
Model
 70
     1
 71
     0
 10
0.0
 20
0.0
 11
12.0
 21
9.0
 12
0.0
 22
0.0
 32
0.0
 14
0.0
 24
0.0
 34
0.0
 15
0.0
 25
0.0
 35
0.0
146
0.0
 13
0.0
 23
0.0
 33
0.0
 16
1.0
 26
0.0
 36
0.0
 17
0.0
 27
1.0
 37
0.0
 76
     0
330
F5
  0
LAYOUT
  5
11D
102
{ACAD_REACTORS
330
11A
102
}
330
11A
100
AcDbPlotSettings
  1

  2
EPSON PM-3700C
  4

  6

 40
0.0
 41
0.0
 42
0.0
 43
0.0
 44
0.0
 45
0.0
 46
0.0
 47
0.0
 48
0.0
 49
0.0
140
0.0
141
0.0
142
1.0
143
1.0
 70
   688
 72
     0
 73
     0
 74
     5
  7

 75
    16
147
1.0
148
0.0
149
0.0
100
AcDbLayout
  1
ﾚｲｱｳﾄ1
 70
     1
 71
     1
 10
0.0
 20
0.0
 11
12.0
 21
9.0
 12
0.0
 22
0.0
 32
0.0
 14
1.000000000000000E+20
 24
1.000000000000000E+20
 34
1.000000000000000E+20
 15
-1.000000000000000E+20
 25
-1.000000000000000E+20
 35
-1.000000000000000E+20
146
0.0
 13
0.0
 23
0.0
 33
0.0
 16
1.0
 26
0.0
 36
0.0
 17
0.0
 27
1.0
 37
0.0
 76
     0
330
F2
  0
MLINESTYLE
  5
F9
102
{ACAD_REACTORS
330
F8
102
}
330
F8
100
AcDbMlineStyle
  2
STANDARD
 70
     0
  3

 62
   256
 51
90.0
 52
90.0
 71
     2
 49
0.5
 62
   256
  6
BYLAYER
 49
-0.5
 62
   256
  6
BYLAYER
  0
ACDBPLACEHOLDER
  5
119
102
{ACAD_REACTORS
330
118
102
}
330
118
  0
DICTIONARYVAR
  5
10A
102
{ACAD_REACTORS
330
109
102
}
330
109
100
DictionaryVariables
280
     0
  1
0
  0
DICTIONARYVAR
  5
224
102
{ACAD_REACTORS
330
109
102
}
330
109
100
DictionaryVariables
280
     0
  1
1
  0
DICTIONARYVAR
  5
223
102
{ACAD_REACTORS
330
109
102
}
330
109
100
DictionaryVariables
280
     0
  1
1
  0
ACMDATADICTIONARY
  5
1DF
102
{ACAD_REACTORS
330
1DE
102
}
330
1DE
100
AcDbDictionary
281
     1
  3
*A1
350
1E0
100
AcmDataDictionary
  0
DICTIONARY
  5
1ED
102
{ACAD_REACTORS
330
1DE
102
}
330
1DE
100
AcDbDictionary
281
     1
  3
ANSI
350
1EE
  0
DICTIONARY
  5
123
102
{ACAD_REACTORS
330
122
102
}
330
122
100
AcDbDictionary
281
     1
  3
DWGSETTINGS
350
124
  3
TRANSSETTINGS
350
128
  0
ACAMGFILTERDAT
  5
22A
102
{ACAD_REACTORS
330
225
102
}
330
225
100
AcAmgFilterDat
 70
    15
  1
DIMENSION,AMDT_*_DIM
  2
*
  3
*
  4
*
  5
*
290
     1
  0
ACAMGFILTERDAT
  5
229
102
{ACAD_REACTORS
330
225
102
}
330
225
100
AcAmgFilterDat
 70
    15
  1
*
  2
AM_FEA-AM_*
  3
*
  4
*
  5
*
290
     1
  0
ACAMGFILTERDAT
  5
226
102
{ACAD_REACTORS
330
225
102
}
330
225
100
AcAmgFilterDat
 70
    15
  1
HATCH
  2
*
  3
*
  4
*
  5
*
290
     1
  0
ACAMGFILTERDAT
  5
227
102
{ACAD_REACTORS
330
225
102
}
330
225
100
AcAmgFilterDat
 70
    15
  1
LINE
  2
8,8N,*-8,*-8N,AM_8,AM_8N,*-AM_8,*-AM_8N
  3
*
  4
*
  5
INSERT,STDPART2D
290
     1
  0
ACAMGFILTERDAT
  5
22B
102
{ACAD_REACTORS
330
225
102
}
330
225
100
AcAmgFilterDat
 70
    15
  1
ARC
  2
AM_5
  3
*
  4
2
  5
INSERT
290
     0
  0
ACAMGFILTERDAT
  5
228
102
{ACAD_REACTORS
330
225
102
}
330
225
100
AcAmgFilterDat
 70
    15
  1
ACMFCFRAME,ACMDATUMTARGET,ACMDATUMID,ACMWELDSYM,ACMSURFSYM,ACMFEATID,ACMPARTREF,ACMBALLOON,AMDTEDGESYM,AMGSCREWCALCTABLE
  2
*
  3
*
  4
*
  5
*
290
     1
  0
LAYER_INDEX
  5
21D
102
{ACAD_REACTORS
330
21C
102
}
330
21C
100
AcDbIndex
 40
2454687.664833981
100
AcDbLayerIndex
  8
0
360
21E
 90
        3
  8
1
360
21F
 90
        8
  8
2
360
220
 90
       12
  8
3
360
221
 90
       36
  8
DEFPOINTS
360
3D8
 90
        0
  0
ACMDATAENTRYBLOCK
  5
1E0
102
{ACAD_REACTORS
330
1DF
102
}
330
1DF
100
AcmDataEntry
100
AcmDataEntryBlock
  0
IDBUFFER
  5
21E
330
0
100
AcDbIdBuffer
330
458
330
449
330
453
  0
IDBUFFER
  5
21F
330
0
100
AcDbIdBuffer
330
422
330
427
330
42C
330
43C
330
43E
330
440
330
441
330
454
  0
IDBUFFER
  5
220
330
0
100
AcDbIdBuffer
330
420
330
433
330
436
330
437
330
438
330
439
330
443
330
448
330
44B
330
44D
330
44F
330
451
  0
IDBUFFER
  5
221
330
0
100
AcDbIdBuffer
330
421
330
423
330
424
330
425
330
426
330
428
330
429
330
42A
330
42B
330
42D
330
42E
330
42F
330
430
330
431
330
432
330
434
330
435
330
43A
330
43B
330
43D
330
43F
330
442
330
444
330
445
330
446
330
447
330
44A
330
44C
330
44E
330
450
330
452
330
455
330
456
330
457
330
41F
330
41E
  0
IDBUFFER
  5
3D8
330
0
100
AcDbIdBuffer
  0
ENDSEC
  0
EOF
