  0
SECTION
  2
HEADER
  9
$ACADVER
  1
AC1014
  9
$ACADMAINTVER
 70
     0
  9
$DWGCODEPAGE
  3
ANSI_932
  9
$INSBASE
 10
0.0
 20
0.0
 30
0.0
  9
$EXTMIN
 10
23.948852
 20
56.25
 30
0.0
  9
$EXTMAX
 10
379.0
 20
233.75
 30
0.0
  9
$LIMMIN
 10
0.0
 20
0.0
  9
$LIMMAX
 10
400.0
 20
280.0
  9
$ORTHOMODE
 70
     1
  9
$REGENMODE
 70
     1
  9
$FILLMODE
 70
     1
  9
$QTEXTMODE
 70
     0
  9
$MIRRTEXT
 70
     1
  9
$DRAGMODE
 70
     2
  9
$LTSCALE
 40
1.0
  9
$OSMODE
 70
    33
  9
$ATTMODE
 70
     1
  9
$TEXTSIZE
 40
5.0
  9
$TRACEWID
 40
0.05
  9
$TEXTSTYLE
  7
BIGFONT
  9
$CLAYER
  8
2
  9
$CELTYPE
  6
BYLAYER
  9
$CECOLOR
 62
   256
  9
$CELTSCALE
 40
1.0
  9
$DELOBJ
 70
     1
  9
$DISPSILH
 70
     0
  9
$DIMSCALE
 40
1.0
  9
$DIMASZ
 40
0.18
  9
$DIMEXO
 40
0.0625
  9
$DIMDLI
 40
0.38
  9
$DIMRND
 40
0.0
  9
$DIMDLE
 40
0.0
  9
$DIMEXE
 40
0.18
  9
$DIMTP
 40
0.0
  9
$DIMTM
 40
0.0
  9
$DIMTXT
 40
0.18
  9
$DIMCEN
 40
0.09
  9
$DIMTSZ
 40
0.0
  9
$DIMTOL
 70
     0
  9
$DIMLIM
 70
     0
  9
$DIMTIH
 70
     1
  9
$DIMTOH
 70
     1
  9
$DIMSE1
 70
     0
  9
$DIMSE2
 70
     0
  9
$DIMTAD
 70
     0
  9
$DIMZIN
 70
     0
  9
$DIMBLK
  1

  9
$DIMASO
 70
     1
  9
$DIMSHO
 70
     1
  9
$DIMPOST
  1

  9
$DIMAPOST
  1

  9
$DIMALT
 70
     0
  9
$DIMALTD
 70
     2
  9
$DIMALTF
 40
25.4
  9
$DIMLFAC
 40
1.0
  9
$DIMTOFL
 70
     0
  9
$DIMTVP
 40
0.0
  9
$DIMTIX
 70
     0
  9
$DIMSOXD
 70
     0
  9
$DIMSAH
 70
     0
  9
$DIMBLK1
  1

  9
$DIMBLK2
  1

  9
$DIMSTYLE
  2
STANDARD
  9
$DIMCLRD
 70
     0
  9
$DIMCLRE
 70
     0
  9
$DIMCLRT
 70
     0
  9
$DIMTFAC
 40
1.0
  9
$DIMGAP
 40
0.09
  9
$DIMJUST
 70
     0
  9
$DIMSD1
 70
     0
  9
$DIMSD2
 70
     0
  9
$DIMTOLJ
 70
     1
  9
$DIMTZIN
 70
     0
  9
$DIMALTZ
 70
     0
  9
$DIMALTTZ
 70
     0
  9
$DIMFIT
 70
     5
  9
$DIMUPT
 70
     0
  9
$DIMUNIT
 70
     2
  9
$DIMDEC
 70
     4
  9
$DIMTDEC
 70
     4
  9
$DIMALTU
 70
     2
  9
$DIMALTTD
 70
     2
  9
$DIMTXSTY
  7
BIGFONT
  9
$DIMAUNIT
 70
     0
  9
$LUNITS
 70
     2
  9
$LUPREC
 70
     4
  9
$SKETCHINC
 40
0.1
  9
$FILLETRAD
 40
0.0
  9
$AUNITS
 70
     0
  9
$AUPREC
 70
     0
  9
$MENU
  1
acad
  9
$ELEVATION
 40
0.0
  9
$PELEVATION
 40
0.0
  9
$THICKNESS
 40
0.0
  9
$LIMCHECK
 70
     0
  9
$BLIPMODE
 70
     0
  9
$CHAMFERA
 40
0.0
  9
$CHAMFERB
 40
0.0
  9
$CHAMFERC
 40
0.0
  9
$CHAMFERD
 40
0.0
  9
$SKPOLY
 70
     0
  9
$TDCREATE
 40
2450868.738546990
  9
$TDUPDATE
 40
2453551.719878645
  9
$TDINDWG
 40
0.0006486921
  9
$TDUSRTIMER
 40
0.0006486921
  9
$USRTIMER
 70
     1
  9
$ANGBASE
 50
0.0
  9
$ANGDIR
 70
     0
  9
$PDMODE
 70
     0
  9
$PDSIZE
 40
0.0
  9
$PLINEWID
 40
0.0
  9
$COORDS
 70
     2
  9
$SPLFRAME
 70
     0
  9
$SPLINETYPE
 70
     6
  9
$SPLINESEGS
 70
     8
  9
$ATTDIA
 70
     0
  9
$ATTREQ
 70
     1
  9
$HANDLING
 70
     1
  9
$HANDSEED
  5
11B
  9
$SURFTAB1
 70
     6
  9
$SURFTAB2
 70
     6
  9
$SURFTYPE
 70
     6
  9
$SURFU
 70
     6
  9
$SURFV
 70
     6
  9
$UCSNAME
  2

  9
$UCSORG
 10
0.0
 20
0.0
 30
0.0
  9
$UCSXDIR
 10
1.0
 20
0.0
 30
0.0
  9
$UCSYDIR
 10
0.0
 20
1.0
 30
0.0
  9
$PUCSNAME
  2

  9
$PUCSORG
 10
0.0
 20
0.0
 30
0.0
  9
$PUCSXDIR
 10
1.0
 20
0.0
 30
0.0
  9
$PUCSYDIR
 10
0.0
 20
1.0
 30
0.0
  9
$USERI1
 70
     0
  9
$USERI2
 70
     0
  9
$USERI3
 70
     0
  9
$USERI4
 70
     0
  9
$USERI5
 70
     0
  9
$USERR1
 40
0.0
  9
$USERR2
 40
0.0
  9
$USERR3
 40
0.0
  9
$USERR4
 40
0.0
  9
$USERR5
 40
0.0
  9
$WORLDVIEW
 70
     1
  9
$SHADEDGE
 70
     3
  9
$SHADEDIF
 70
    70
  9
$TILEMODE
 70
     1
  9
$MAXACTVP
 70
    16
  9
$PINSBASE
 10
0.0
 20
0.0
 30
0.0
  9
$PLIMCHECK
 70
     0
  9
$PEXTMIN
 10
1.000000E+20
 20
1.000000E+20
 30
1.000000E+20
  9
$PEXTMAX
 10
-1.000000E+20
 20
-1.000000E+20
 30
-1.000000E+20
  9
$PLIMMIN
 10
0.0
 20
0.0
  9
$PLIMMAX
 10
12.0
 20
9.0
  9
$UNITMODE
 70
     0
  9
$VISRETAIN
 70
     0
  9
$PLINEGEN
 70
     0
  9
$PSLTSCALE
 70
     1
  9
$TREEDEPTH
 70
  3020
  9
$PICKSTYLE
 70
     1
  9
$CMLSTYLE
  2
STANDARD
  9
$CMLJUST
 70
     0
  9
$CMLSCALE
 40
1.0
  9
$PROXYGRAPHICS
 70
     1
  9
$MEASUREMENT
 70
     0
  0
ENDSEC
  0
SECTION
  2
CLASSES
  0
CLASS
  1
DICTIONARYVAR
  2
AcDbDictionaryVar
  3
"AutoCAD"
 90
        0
280
     0
281
     0
  0
ENDSEC
  0
SECTION
  2
TABLES
  0
TABLE
  2
VPORT
  5
EB
100
AcDbSymbolTable
 70
     3
  0
VPORT
  5
11A
100
AcDbSymbolTableRecord
100
AcDbViewportTableRecord
  2
*ACTIVE
 70
     0
 10
0.0
 20
0.0
 11
1.0
 21
1.0
 12
248.307087
 22
173.043022
 13
0.0
 23
0.0
 14
5.0
 24
5.0
 15
10.0
 25
10.0
 16
0.0
 26
0.0
 36
1.0
 17
0.0
 27
0.0
 37
0.0
 40
346.086043
 41
1.434944
 42
50.0
 43
0.0
 44
0.0
 50
0.0
 51
0.0
 71
     0
 72
   100
 73
     1
 74
     1
 75
     0
 76
     0
 77
     0
 78
     0
  0
ENDTAB
  0
TABLE
  2
LTYPE
  5
E8
100
AcDbSymbolTable
 70
     4
  0
LTYPE
  5
F4
100
AcDbSymbolTableRecord
100
AcDbLinetypeTableRecord
  2
BYBLOCK
 70
     0
  3

 72
    65
 73
     0
 40
0.0
  0
LTYPE
  5
F5
100
AcDbSymbolTableRecord
100
AcDbLinetypeTableRecord
  2
BYLAYER
 70
     0
  3

 72
    65
 73
     0
 40
0.0
  0
LTYPE
  5
F6
100
AcDbSymbolTableRecord
100
AcDbLinetypeTableRecord
  2
CONTINUOUS
 70
     0
  3
Solid line
 72
    65
 73
     0
 40
0.0
  0
LTYPE
  5
101
100
AcDbSymbolTableRecord
100
AcDbLinetypeTableRecord
  2
TENSEN1
 70
     0
  3

 72
    65
 73
     2
 40
0.4
 49
0.3
 74
     0
 49
-0.1
 74
     0
  0
LTYPE
  5
102
100
AcDbSymbolTableRecord
100
AcDbLinetypeTableRecord
  2
ITTEN1
 70
     0
  3

 72
    65
 73
     4
 40
8.2
 49
5.0
 74
     0
 49
-1.0
 74
     0
 49
1.2
 74
     0
 49
-1.0
 74
     0
  0
LTYPE
  5
103
100
AcDbSymbolTableRecord
100
AcDbLinetypeTableRecord
  2
TENSEN2
 70
     0
  3

 72
    65
 73
     2
 40
2.1
 49
1.5
 74
     0
 49
-0.6
 74
     0
  0
ENDTAB
  0
TABLE
  2
LAYER
  5
E5
100
AcDbSymbolTable
 70
     4
  0
LAYER
  5
F1
100
AcDbSymbolTableRecord
100
AcDbLayerTableRecord
  2
0
 70
     0
 62
     7
  6
CONTINUOUS
  0
LAYER
  5
107
100
AcDbSymbolTableRecord
100
AcDbLayerTableRecord
  2
1
 70
     0
 62
     1
  6
ITTEN1
  0
LAYER
  5
108
100
AcDbSymbolTableRecord
100
AcDbLayerTableRecord
  2
2
 70
     0
 62
     2
  6
TENSEN2
  0
LAYER
  5
109
100
AcDbSymbolTableRecord
100
AcDbLayerTableRecord
  2
3
 70
     0
 62
     3
  6
CONTINUOUS
  0
ENDTAB
  0
TABLE
  2
STYLE
  5
E6
100
AcDbSymbolTable
 70
     3
  0
STYLE
  5
F2
100
AcDbSymbolTableRecord
100
AcDbTextStyleTableRecord
  2
STANDARD
 70
     0
 40
0.0
 41
1.0
 50
0.0
 71
     0
 42
0.2
  3
txt
  4

  0
STYLE
  5
FF
100
AcDbSymbolTableRecord
100
AcDbTextStyleTableRecord
  2
BIGFONT
 70
     0
 40
5.0
 41
1.0
 50
0.0
 71
     0
 42
5.0
  3

  4
bigfont
  0
STYLE
  5
100
100
AcDbSymbolTableRecord
100
AcDbTextStyleTableRecord
  2
EXTFONT
 70
     0
 40
10.0
 41
1.0
 50
0.0
 71
     0
 42
10.0
  3

  4
extfont
  0
ENDTAB
  0
TABLE
  2
VIEW
  5
E9
100
AcDbSymbolTable
 70
     0
  0
ENDTAB
  0
TABLE
  2
UCS
  5
EA
100
AcDbSymbolTable
 70
     0
  0
ENDTAB
  0
TABLE
  2
APPID
  5
EC
100
AcDbSymbolTable
 70
     1
  0
APPID
  5
F3
100
AcDbSymbolTableRecord
100
AcDbRegAppTableRecord
  2
ACAD
 70
     0
  0
ENDTAB
  0
TABLE
  2
DIMSTYLE
  5
ED
100
AcDbSymbolTable
 70
     1
  0
DIMSTYLE
105
106
100
AcDbSymbolTableRecord
100
AcDbDimStyleTableRecord
  2
STANDARD
 70
     0
  3

  4

  5

  6

  7

 40
1.0
 41
0.18
 42
0.0625
 43
0.38
 44
0.18
 45
0.0
 46
0.0
 47
0.0
 48
0.0
140
0.18
141
0.09
142
0.0
143
25.4
144
1.0
145
0.0
146
1.0
147
0.09
 71
     0
 72
     0
 73
     1
 74
     1
 75
     0
 76
     0
 77
     0
 78
     0
170
     0
171
     2
172
     0
173
     0
174
     0
175
     0
176
     0
177
     0
178
     0
270
     2
271
     4
272
     4
273
     2
274
     2
340
FF
275
     0
280
     0
281
     0
282
     0
283
     1
284
     0
285
     0
286
     0
287
     5
288
     0
  0
ENDTAB
  0
TABLE
  2
BLOCK_RECORD
  5
E4
100
AcDbSymbolTable
 70
     0
  0
BLOCK_RECORD
  5
FA
100
AcDbSymbolTableRecord
100
AcDbBlockTableRecord
  2
*MODEL_SPACE
  0
BLOCK_RECORD
  5
F7
100
AcDbSymbolTableRecord
100
AcDbBlockTableRecord
  2
*PAPER_SPACE
  0
ENDTAB
  0
ENDSEC
  0
SECTION
  2
BLOCKS
  0
BLOCK
  5
10C
100
AcDbEntity
  8
0
100
AcDbBlockBegin
  2
*MODEL_SPACE
 70
     0
 10
0.0
 20
0.0
 30
0.0
  3
*MODEL_SPACE
  1

  0
ENDBLK
  5
10D
100
AcDbEntity
  8
0
100
AcDbBlockEnd
  0
BLOCK
  5
10A
100
AcDbEntity
 67
     1
  8
0
100
AcDbBlockBegin
  2
*PAPER_SPACE
 70
     0
 10
0.0
 20
0.0
 30
0.0
  3
*PAPER_SPACE
  1

  0
ENDBLK
  5
10B
100
AcDbEntity
 67
     1
  8
0
100
AcDbBlockEnd
  0
ENDSEC
  0
SECTION
  2
ENTITIES
  0
LINE
  5
3D
100
AcDbEntity
  8
1
100
AcDbLine
 10
350.5
 20
233.25
 30
0.0
 11
350.5
 21
94.75
 31
0.0
  0
LINE
  5
46
100
AcDbEntity
  8
0
100
AcDbLine
 10
350.5
 20
124.25
 30
0.0
 11
362.5
 21
124.25
 31
0.0
  0
LINE
  5
47
100
AcDbEntity
  8
0
100
AcDbLine
 10
362.5
 20
124.25
 30
0.0
 11
362.5
 21
106.25
 31
0.0
  0
LINE
  5
48
100
AcDbEntity
  8
0
100
AcDbLine
 10
361.5
 20
105.25
 30
0.0
 11
350.5
 21
105.25
 31
0.0
  0
LINE
  5
49
100
AcDbEntity
  8
0
100
AcDbLine
 10
350.5
 20
124.25
 30
0.0
 11
338.5
 21
124.25
 31
0.0
  0
LINE
  5
4A
100
AcDbEntity
  8
0
100
AcDbLine
 10
338.5
 20
124.25
 30
0.0
 11
338.5
 21
115.25
 31
0.0
  0
LINE
  5
4B
100
AcDbEntity
  8
0
100
AcDbLine
 10
350.5
 20
105.25
 30
0.0
 11
338.5
 21
105.25
 31
0.0
  0
LINE
  5
4C
100
AcDbEntity
  8
0
100
AcDbLine
 10
361.5
 20
105.25
 30
0.0
 11
362.5
 21
106.25
 31
0.0
  0
LINE
  5
4D
100
AcDbEntity
  8
0
100
AcDbLine
 10
338.5
 20
115.25
 30
0.0
 11
150.5
 21
115.25
 31
0.0
  0
LINE
  5
4E
100
AcDbEntity
  8
0
100
AcDbLine
 10
150.5
 20
115.25
 30
0.0
 11
126.5
 21
115.25
 31
0.0
  0
LINE
  5
4F
100
AcDbEntity
  8
0
100
AcDbLine
 10
126.5
 20
103.25
 30
0.0
 11
174.5
 21
103.25
 31
0.0
  0
LINE
  5
50
100
AcDbEntity
  8
0
100
AcDbLine
 10
174.5
 20
103.25
 30
0.0
 11
338.5
 21
105.25
 31
0.0
  0
LINE
  5
51
100
AcDbEntity
  8
1
100
AcDbLine
 10
110.5
 20
110.25
 30
0.0
 11
379.0
 21
110.25
 31
0.0
  0
ARC
  5
52
100
AcDbEntity
  8
0
100
AcDbCircle
 10
134.25
 20
109.25
 30
0.0
 40
9.801148
100
AcDbArc
 50
142.253195
 51
217.746805
  0
LINE
  5
53
100
AcDbEntity
  8
0
100
AcDbLine
 10
126.5
 20
103.25
 30
0.0
 11
126.5
 21
68.25
 31
0.0
  0
LINE
  5
54
100
AcDbEntity
  8
0
100
AcDbLine
 10
126.5
 20
68.25
 30
0.0
 11
174.5
 21
68.25
 31
0.0
  0
LINE
  5
55
100
AcDbEntity
  8
0
100
AcDbLine
 10
174.5
 20
68.25
 30
0.0
 11
174.5
 21
103.25
 31
0.0
  0
LINE
  5
56
100
AcDbEntity
  8
1
100
AcDbLine
 10
150.5
 20
130.75
 30
0.0
 11
150.5
 21
56.25
 31
0.0
  0
LINE
  5
6D
100
AcDbEntity
  8
1
100
AcDbLine
 10
50.0
 20
56.25
 30
0.0
 11
50.0
 21
233.75
 31
0.0
  0
LINE
  5
6E
100
AcDbEntity
  8
0
100
AcDbLine
 10
50.0
 20
115.25
 30
0.0
 11
74.0
 21
115.25
 31
0.0
  0
LINE
  5
6F
100
AcDbEntity
  8
0
100
AcDbLine
 10
26.0
 20
103.25
 30
0.0
 11
74.0
 21
103.25
 31
0.0
  0
LINE
  5
70
100
AcDbEntity
  8
0
100
AcDbLine
 10
26.0
 20
68.25
 30
0.0
 11
74.0
 21
68.25
 31
0.0
  0
LINE
  5
72
100
AcDbEntity
  8
0
100
AcDbLine
 10
50.0
 20
124.25
 30
0.0
 11
62.0
 21
124.25
 31
0.0
  0
LINE
  5
73
100
AcDbEntity
  8
0
100
AcDbLine
 10
26.0
 20
103.25
 30
0.0
 11
26.0
 21
68.25
 31
0.0
  0
ARC
  5
74
100
AcDbEntity
  8
0
100
AcDbCircle
 10
33.75
 20
109.25
 30
0.0
 40
9.801148
100
AcDbArc
 50
142.253195
 51
217.746805
  0
LINE
  5
75
100
AcDbEntity
  8
0
100
AcDbLine
 10
50.0
 20
115.25
 30
0.0
 11
26.0
 21
115.25
 31
0.0
  0
LINE
  5
77
100
AcDbEntity
  8
0
100
AcDbLine
 10
50.0
 20
124.25
 30
0.0
 11
38.0
 21
124.25
 31
0.0
  0
LINE
  5
78
100
AcDbEntity
  8
0
100
AcDbLine
 10
38.0
 20
124.25
 30
0.0
 11
38.0
 21
115.25
 31
0.0
  0
LINE
  5
79
100
AcDbEntity
  8
0
100
AcDbLine
 10
74.0
 20
68.25
 30
0.0
 11
74.0
 21
103.25
 31
0.0
  0
ARC
  5
7A
100
AcDbEntity
  8
0
100
AcDbCircle
 10
66.25
 20
109.25
 30
0.0
 40
9.801148
100
AcDbArc
 50
322.253195
 51
37.746805
  0
LINE
  5
7B
100
AcDbEntity
  8
0
100
AcDbLine
 10
62.0
 20
124.25
 30
0.0
 11
62.0
 21
115.25
 31
0.0
  0
LINE
  5
9D
100
AcDbEntity
  8
0
100
AcDbLine
 10
169.0
 20
103.25
 30
0.0
 11
169.0
 21
115.25
 31
0.0
  0
ARC
  5
9E
100
AcDbEntity
  8
0
100
AcDbCircle
 10
335.958738
 20
107.339806
 30
0.0
 40
8.30838
100
AcDbArc
 50
345.43194
 51
72.189648
  0
LINE
  5
AC
100
AcDbEntity
  8
2
100
AcDbLine
 10
165.9
 20
68.35
 30
0.0
 11
165.9
 21
115.35
 31
0.0
  0
LINE
  5
AD
100
AcDbEntity
  8
2
100
AcDbLine
 10
165.9
 20
115.35
 30
0.0
 11
150.4
 21
68.35
 31
0.0
  0
LINE
  5
AE
100
AcDbEntity
  8
2
100
AcDbLine
 10
150.4
 20
68.35
 30
0.0
 11
134.6
 21
115.35
 31
0.0
  0
LINE
  5
AF
100
AcDbEntity
  8
2
100
AcDbLine
 10
134.6
 20
115.35
 30
0.0
 11
134.6
 21
68.35
 31
0.0
  0
LINE
  5
B0
100
AcDbEntity
  8
2
100
AcDbLine
 10
134.6
 20
68.35
 30
0.0
 11
150.4
 21
115.35
 31
0.0
  0
LINE
  5
B1
100
AcDbEntity
  8
2
100
AcDbLine
 10
150.4
 20
115.35
 30
0.0
 11
165.9
 21
68.35
 31
0.0
  0
LINE
  5
115
100
AcDbEntity
  8
2
100
AcDbLine
 10
356.5
 20
124.25
 30
0.0
 11
356.5
 21
105.25
 31
0.0
  0
LINE
  5
117
100
AcDbEntity
  8
2
100
AcDbLine
 10
355.5
 20
105.25
 30
0.0
 11
355.5
 21
124.25
 31
0.0
  0
LINE
  5
118
100
AcDbEntity
  8
2
100
AcDbLine
 10
345.5
 20
105.25
 30
0.0
 11
345.5
 21
124.25
 31
0.0
  0
LINE
  5
119
100
AcDbEntity
  8
2
100
AcDbLine
 10
344.5
 20
124.25
 30
0.0
 11
344.5
 21
105.25
 31
0.0
  0
ENDSEC
  0
SECTION
  2
OBJECTS
  0
DICTIONARY
  5
EF
100
AcDbDictionary
  3
ACAD_GROUP
350
F0
  3
ACAD_MLINESTYLE
350
FD
  3
ACDBVARIABLEDICTIONARY
350
10E
  0
DICTIONARY
  5
F0
102
{ACAD_REACTORS
330
EF
102
}
100
AcDbDictionary
  0
DICTIONARY
  5
FD
102
{ACAD_REACTORS
330
EF
102
}
100
AcDbDictionary
  3
STANDARD
350
FE
  0
DICTIONARY
  5
10E
102
{ACAD_REACTORS
330
EF
102
}
100
AcDbDictionary
  3
DIMADEC
350
10F
  0
MLINESTYLE
  5
FE
102
{ACAD_REACTORS
330
FD
102
}
100
AcDbMlineStyle
  2
STANDARD
 70
     0
  3

 62
   256
 51
90.0
 52
90.0
 71
     2
 49
0.5
 62
   256
  6
BYLAYER
 49
-0.5
 62
   256
  6
BYLAYER
  0
DICTIONARYVAR
  5
10F
102
{ACAD_REACTORS
330
10E
102
}
100
DictionaryVariables
280
     0
  1
0
  0
ENDSEC
  0
EOF
