  0
SECTION
  2
HEADER
  9
$ACADVER
  1
AC1014
  9
$ACADMAINTVER
 70
     0
  9
$DWGCODEPAGE
  3
ANSI_932
  9
$INSBASE
 10
0.0
 20
0.0
 30
0.0
  9
$EXTMIN
 10
0.0
 20
0.0
 30
0.0
  9
$EXTMAX
 10
375.0
 20
270.0
 30
0.0
  9
$LIMMIN
 10
0.0
 20
0.0
  9
$LIMMAX
 10
375.0
 20
270.0
  9
$ORTHOMODE
 70
     1
  9
$REGENMODE
 70
     1
  9
$FILLMODE
 70
     1
  9
$QTEXTMODE
 70
     0
  9
$MIRRTEXT
 70
     1
  9
$DRAGMODE
 70
     1
  9
$LTSCALE
 40
10.0
  9
$OSMODE
 70
    33
  9
$ATTMODE
 70
     1
  9
$TEXTSIZE
 40
6.0
  9
$TRACEWID
 40
0.05
  9
$TEXTSTYLE
  7
BIGFONT
  9
$CLAYER
  8
2
  9
$CELTYPE
  6
BYLAYER
  9
$CECOLOR
 62
   256
  9
$CELTSCALE
 40
1.0
  9
$DELOBJ
 70
     1
  9
$DISPSILH
 70
     0
  9
$DIMSCALE
 40
1.0
  9
$DIMASZ
 40
3.0
  9
$DIMEXO
 40
2.0
  9
$DIMDLI
 40
0.38
  9
$DIMRND
 40
0.0
  9
$DIMDLE
 40
0.0
  9
$DIMEXE
 40
2.0
  9
$DIMTP
 40
0.0
  9
$DIMTM
 40
0.0
  9
$DIMTXT
 40
3.2
  9
$DIMCEN
 40
0.0
  9
$DIMTSZ
 40
0.0
  9
$DIMTOL
 70
     0
  9
$DIMLIM
 70
     0
  9
$DIMTIH
 70
     0
  9
$DIMTOH
 70
     0
  9
$DIMSE1
 70
     0
  9
$DIMSE2
 70
     0
  9
$DIMTAD
 70
     1
  9
$DIMZIN
 70
     0
  9
$DIMBLK
  1

  9
$DIMASO
 70
     0
  9
$DIMSHO
 70
     0
  9
$DIMPOST
  1

  9
$DIMAPOST
  1

  9
$DIMALT
 70
     0
  9
$DIMALTD
 70
     2
  9
$DIMALTF
 40
25.4
  9
$DIMLFAC
 40
1.0
  9
$DIMTOFL
 70
     1
  9
$DIMTVP
 40
1.6
  9
$DIMTIX
 70
     1
  9
$DIMSOXD
 70
     0
  9
$DIMSAH
 70
     0
  9
$DIMBLK1
  1

  9
$DIMBLK2
  1

  9
$DIMSTYLE
  2
STANDARD
  9
$DIMCLRD
 70
     0
  9
$DIMCLRE
 70
     0
  9
$DIMCLRT
 70
     0
  9
$DIMTFAC
 40
1.0
  9
$DIMGAP
 40
0.09
  9
$DIMJUST
 70
     0
  9
$DIMSD1
 70
     0
  9
$DIMSD2
 70
     0
  9
$DIMTOLJ
 70
     1
  9
$DIMTZIN
 70
     0
  9
$DIMALTZ
 70
     0
  9
$DIMALTTZ
 70
     0
  9
$DIMFIT
 70
     5
  9
$DIMUPT
 70
     0
  9
$DIMUNIT
 70
     2
  9
$DIMDEC
 70
     4
  9
$DIMTDEC
 70
     4
  9
$DIMALTU
 70
     2
  9
$DIMALTTD
 70
     2
  9
$DIMTXSTY
  7
BIGFONT
  9
$DIMAUNIT
 70
     0
  9
$LUNITS
 70
     2
  9
$LUPREC
 70
     4
  9
$SKETCHINC
 40
0.1
  9
$FILLETRAD
 40
0.0
  9
$AUNITS
 70
     0
  9
$AUPREC
 70
     4
  9
$MENU
  1
ACAD
  9
$ELEVATION
 40
0.0
  9
$PELEVATION
 40
0.0
  9
$THICKNESS
 40
0.0
  9
$LIMCHECK
 70
     0
  9
$BLIPMODE
 70
     0
  9
$CHAMFERA
 40
0.0
  9
$CHAMFERB
 40
0.0
  9
$CHAMFERC
 40
0.0
  9
$CHAMFERD
 40
0.0
  9
$SKPOLY
 70
     0
  9
$TDCREATE
 40
2450683.466284722
  9
$TDUPDATE
 40
2453551.753183947
  9
$TDINDWG
 40
0.0016999421
  9
$TDUSRTIMER
 40
0.0016999421
  9
$USRTIMER
 70
     1
  9
$ANGBASE
 50
0.0
  9
$ANGDIR
 70
     0
  9
$PDMODE
 70
     0
  9
$PDSIZE
 40
0.0
  9
$PLINEWID
 40
0.0
  9
$COORDS
 70
     2
  9
$SPLFRAME
 70
     0
  9
$SPLINETYPE
 70
     6
  9
$SPLINESEGS
 70
     8
  9
$ATTDIA
 70
     0
  9
$ATTREQ
 70
     1
  9
$HANDLING
 70
     1
  9
$HANDSEED
  5
E9
  9
$SURFTAB1
 70
     6
  9
$SURFTAB2
 70
     6
  9
$SURFTYPE
 70
     6
  9
$SURFU
 70
     6
  9
$SURFV
 70
     6
  9
$UCSNAME
  2

  9
$UCSORG
 10
0.0
 20
0.0
 30
0.0
  9
$UCSXDIR
 10
1.0
 20
0.0
 30
0.0
  9
$UCSYDIR
 10
0.0
 20
1.0
 30
0.0
  9
$PUCSNAME
  2

  9
$PUCSORG
 10
0.0
 20
0.0
 30
0.0
  9
$PUCSXDIR
 10
1.0
 20
0.0
 30
0.0
  9
$PUCSYDIR
 10
0.0
 20
1.0
 30
0.0
  9
$USERI1
 70
     0
  9
$USERI2
 70
     0
  9
$USERI3
 70
     0
  9
$USERI4
 70
     0
  9
$USERI5
 70
     0
  9
$USERR1
 40
0.0
  9
$USERR2
 40
0.0
  9
$USERR3
 40
0.0
  9
$USERR4
 40
0.0
  9
$USERR5
 40
0.0
  9
$WORLDVIEW
 70
     1
  9
$SHADEDGE
 70
     3
  9
$SHADEDIF
 70
    70
  9
$TILEMODE
 70
     1
  9
$MAXACTVP
 70
    16
  9
$PINSBASE
 10
0.0
 20
0.0
 30
0.0
  9
$PLIMCHECK
 70
     0
  9
$PEXTMIN
 10
1.000000E+20
 20
1.000000E+20
 30
1.000000E+20
  9
$PEXTMAX
 10
-1.000000E+20
 20
-1.000000E+20
 30
-1.000000E+20
  9
$PLIMMIN
 10
0.0
 20
0.0
  9
$PLIMMAX
 10
12.0
 20
9.0
  9
$UNITMODE
 70
     0
  9
$VISRETAIN
 70
     0
  9
$PLINEGEN
 70
   126
  9
$PSLTSCALE
 70
     0
  9
$TREEDEPTH
 70
  3020
  9
$PICKSTYLE
 70
     1
  9
$CMLSTYLE
  2
STANDARD
  9
$CMLJUST
 70
     0
  9
$CMLSCALE
 40
1.0
  9
$PROXYGRAPHICS
 70
     1
  9
$MEASUREMENT
 70
     0
  0
ENDSEC
  0
SECTION
  2
CLASSES
  0
ENDSEC
  0
SECTION
  2
TABLES
  0
TABLE
  2
VPORT
  5
B1
100
AcDbSymbolTable
 70
     3
  0
VPORT
  5
E8
100
AcDbSymbolTableRecord
100
AcDbViewportTableRecord
  2
*ACTIVE
 70
     0
 10
0.0
 20
0.0
 11
1.0
 21
1.0
 12
167.223841
 22
86.915692
 13
0.0
 23
0.0
 14
10.0
 24
10.0
 15
10.0
 25
10.0
 16
0.0
 26
0.0
 36
1.0
 17
0.0
 27
0.0
 37
0.0
 40
236.737439
 41
1.434944
 42
50.0
 43
0.0
 44
0.0
 50
0.0
 51
0.0
 71
     0
 72
   500
 73
     1
 74
     1
 75
     0
 76
     0
 77
     0
 78
     2
  0
ENDTAB
  0
TABLE
  2
LTYPE
  5
AE
100
AcDbSymbolTable
 70
     3
  0
LTYPE
  5
BA
100
AcDbSymbolTableRecord
100
AcDbLinetypeTableRecord
  2
BYBLOCK
 70
     0
  3

 72
    65
 73
     0
 40
0.0
  0
LTYPE
  5
BB
100
AcDbSymbolTableRecord
100
AcDbLinetypeTableRecord
  2
BYLAYER
 70
     0
  3

 72
    65
 73
     0
 40
0.0
  0
LTYPE
  5
BC
100
AcDbSymbolTableRecord
100
AcDbLinetypeTableRecord
  2
CONTINUOUS
 70
     0
  3
実線
 72
    65
 73
     0
 40
0.0
  0
LTYPE
  5
C8
100
AcDbSymbolTableRecord
100
AcDbLinetypeTableRecord
  2
CENTER
 70
     0
  3
____ _ ____ _ ____ _ ____ _ ____ _ ____ _ ____
 72
    65
 73
     4
 40
2.0
 49
1.25
 74
     0
 49
-0.25
 74
     0
 49
0.25
 74
     0
 49
-0.25
 74
     0
  0
LTYPE
  5
C9
100
AcDbSymbolTableRecord
100
AcDbLinetypeTableRecord
  2
HIDDEN
 70
     0
  3
_ _ _ _ _ _ _ _ _ _ _ _ _ _ _ _ _ _ _ _ _ _ _
 72
    65
 73
     2
 40
0.375
 49
0.25
 74
     0
 49
-0.125
 74
     0
  0
ENDTAB
  0
TABLE
  2
LAYER
  5
AB
100
AcDbSymbolTable
 70
     6
  0
LAYER
  5
B7
100
AcDbSymbolTableRecord
100
AcDbLayerTableRecord
  2
0
 70
     0
 62
     7
  6
CONTINUOUS
  0
LAYER
  5
CE
100
AcDbSymbolTableRecord
100
AcDbLayerTableRecord
  2
1
 70
     0
 62
     1
  6
CENTER
  0
LAYER
  5
CF
100
AcDbSymbolTableRecord
100
AcDbLayerTableRecord
  2
2
 70
     0
 62
     2
  6
HIDDEN
  0
LAYER
  5
D0
100
AcDbSymbolTableRecord
100
AcDbLayerTableRecord
  2
3
 70
     0
 62
     3
  6
CONTINUOUS
  0
LAYER
  5
D1
100
AcDbSymbolTableRecord
100
AcDbLayerTableRecord
  2
10
 70
     0
 62
     7
  6
CONTINUOUS
  0
LAYER
  5
D2
100
AcDbSymbolTableRecord
100
AcDbLayerTableRecord
  2
11
 70
     0
 62
     3
  6
CONTINUOUS
  0
ENDTAB
  0
TABLE
  2
STYLE
  5
AC
100
AcDbSymbolTable
 70
     3
  0
STYLE
  5
B8
100
AcDbSymbolTableRecord
100
AcDbTextStyleTableRecord
  2
STANDARD
 70
     0
 40
0.0
 41
1.0
 50
0.0
 71
     0
 42
0.2
  3
TXT
  4
BIGFONT
  0
STYLE
  5
C6
100
AcDbSymbolTableRecord
100
AcDbTextStyleTableRecord
  2
07500
 70
     0
 40
0.0
 41
0.75
 50
0.0
 71
     0
 42
0.2
  3
TXT
  4
BIGFONT
  0
STYLE
  5
C7
100
AcDbSymbolTableRecord
100
AcDbTextStyleTableRecord
  2
BIGFONT
 70
     0
 40
6.0
 41
0.8
 50
0.0
 71
     0
 42
6.0
  3

  4
bigfont
  0
ENDTAB
  0
TABLE
  2
VIEW
  5
AF
100
AcDbSymbolTable
 70
     1
  0
VIEW
  5
CA
100
AcDbSymbolTableRecord
100
AcDbViewTableRecord
  2
ALL
 70
     0
 40
270.0
 10
220.991597
 20
135.0
 41
0.0
 11
0.0
 21
0.0
 31
1.0
 12
0.0
 22
0.0
 32
0.0
 42
0.0
 43
0.0
 44
0.0
 50
0.0
 71
     0
  0
ENDTAB
  0
TABLE
  2
UCS
  5
B0
100
AcDbSymbolTable
 70
     0
  0
ENDTAB
  0
TABLE
  2
APPID
  5
B2
100
AcDbSymbolTable
 70
     1
  0
APPID
  5
B9
100
AcDbSymbolTableRecord
100
AcDbRegAppTableRecord
  2
ACAD
 70
     0
  0
ENDTAB
  0
TABLE
  2
DIMSTYLE
  5
B3
100
AcDbSymbolTable
 70
     1
  0
DIMSTYLE
105
CD
100
AcDbSymbolTableRecord
100
AcDbDimStyleTableRecord
  2
STANDARD
 70
     0
  3

  4

  5

  6

  7

 40
1.0
 41
0.18
 42
0.0625
 43
0.38
 44
0.18
 45
0.0
 46
0.0
 47
0.0
 48
0.0
140
0.18
141
0.09
142
0.0
143
25.4
144
1.0
145
0.0
146
1.0
147
0.09
 71
     0
 72
     0
 73
     1
 74
     1
 75
     0
 76
     0
 77
     0
 78
     0
170
     0
171
     2
172
     0
173
     0
174
     0
175
     0
176
     0
177
     0
178
     0
270
     2
271
     4
272
     4
273
     2
274
     2
340
C7
275
     0
280
     0
281
     0
282
     0
283
     1
284
     0
285
     0
286
     0
287
     5
288
     0
  0
ENDTAB
  0
TABLE
  2
BLOCK_RECORD
  5
AA
100
AcDbSymbolTable
 70
     1
  0
BLOCK_RECORD
  5
C0
100
AcDbSymbolTableRecord
100
AcDbBlockTableRecord
  2
*MODEL_SPACE
  0
BLOCK_RECORD
  5
BD
100
AcDbSymbolTableRecord
100
AcDbBlockTableRecord
  2
*PAPER_SPACE
  0
BLOCK_RECORD
  5
C5
100
AcDbSymbolTableRecord
100
AcDbBlockTableRecord
  2
QQ
  0
ENDTAB
  0
ENDSEC
  0
SECTION
  2
BLOCKS
  0
BLOCK
  5
D5
100
AcDbEntity
  8
0
100
AcDbBlockBegin
  2
*MODEL_SPACE
 70
     0
 10
0.0
 20
0.0
 30
0.0
  3
*MODEL_SPACE
  1

  0
ENDBLK
  5
D6
100
AcDbEntity
  8
0
100
AcDbBlockEnd
  0
BLOCK
  5
D3
100
AcDbEntity
 67
     1
  8
0
100
AcDbBlockBegin
  2
*PAPER_SPACE
 70
     0
 10
0.0
 20
0.0
 30
0.0
  3
*PAPER_SPACE
  1

  0
ENDBLK
  5
D4
100
AcDbEntity
 67
     1
  8
0
100
AcDbBlockEnd
  0
BLOCK
  5
2D
100
AcDbEntity
  8
0
100
AcDbBlockBegin
  2
QQ
 70
     0
 10
270.0
 20
0.0
 30
0.0
  3
QQ
  1

  0
LINE
  5
2E
100
AcDbEntity
  8
11
100
AcDbLine
 10
173.0
 20
36.0
 30
0.0
 11
270.0
 21
36.0
 31
0.0
  0
TEXT
  5
2F
100
AcDbEntity
  8
11
100
AcDbText
 10
175.0
 20
32.5
 30
0.0
 40
2.5
  1
部品名称
100
AcDbText
  0
LINE
  5
30
100
AcDbEntity
  8
11
100
AcDbLine
 10
173.0
 20
36.0
 30
0.0
 11
173.0
 21
0.0
 31
0.0
  0
LINE
  5
31
100
AcDbEntity
  8
11
100
AcDbLine
 10
173.0
 20
24.0
 30
0.0
 11
270.0
 21
24.0
 31
0.0
  0
TEXT
  5
32
100
AcDbEntity
  8
11
100
AcDbText
 10
175.0
 20
20.5
 30
0.0
 40
2.5
  1
品番
100
AcDbText
  0
LINE
  5
33
100
AcDbEntity
  8
11
100
AcDbLine
 10
173.0
 20
12.0
 30
0.0
 11
270.0
 21
12.0
 31
0.0
  0
TEXT
  5
34
100
AcDbEntity
  8
11
100
AcDbText
 10
175.0
 20
8.5
 30
0.0
 40
2.5
  1
尺度
100
AcDbText
  0
TEXT
  5
35
100
AcDbEntity
  8
11
100
AcDbText
 10
200.0
 20
8.5
 30
0.0
 40
2.5
  1
図番
100
AcDbText
  0
LINE
  5
36
100
AcDbEntity
  8
11
100
AcDbLine
 10
198.0
 20
0.0
 30
0.0
 11
198.0
 21
12.0
 31
0.0
  0
ENDBLK
  5
37
100
AcDbEntity
  8
0
100
AcDbBlockEnd
  0
ENDSEC
  0
SECTION
  2
ENTITIES
  0
ARC
  5
44
100
AcDbEntity
  8
0
100
AcDbCircle
 10
53.36576
 20
110.064
 30
0.0
 40
16.0
100
AcDbArc
 50
223.432537
 51
316.567463
  0
ARC
  5
48
100
AcDbEntity
  8
0
100
AcDbCircle
 10
53.36576
 20
110.064
 30
0.0
 40
16.0
100
AcDbArc
 50
180.0
 51
223.432537
  0
ARC
  5
49
100
AcDbEntity
  8
0
100
AcDbCircle
 10
53.36576
 20
110.064
 30
0.0
 40
16.0
100
AcDbArc
 50
316.567463
 51
360.0
  0
LINE
  5
4A
100
AcDbEntity
  8
0
100
AcDbLine
 10
64.98471
 20
99.064
 30
0.0
 11
41.74681
 21
99.064
 31
0.0
  0
ARC
  5
4C
100
AcDbEntity
  8
0
100
AcDbCircle
 10
53.36576
 20
110.064
 30
0.0
 40
9.5
100
AcDbArc
 50
133.421584
 51
46.578416
  0
LINE
  5
4D
100
AcDbEntity
  8
1
100
AcDbLine
 10
32.36576
 20
110.064
 30
0.0
 11
74.36576
 21
110.064
 31
0.0
  0
LINE
  5
4E
100
AcDbEntity
  8
0
100
AcDbLine
 10
59.895691
 20
116.964
 30
0.0
 11
46.835829
 21
116.964
 31
0.0
  0
LINE
  5
57
100
AcDbEntity
  8
1
100
AcDbLine
 10
53.36576
 20
185.964
 30
0.0
 11
53.36576
 21
89.064
 31
0.0
  0
LINE
  5
58
100
AcDbEntity
  8
2
100
AcDbLine
 10
188.36576
 20
121.064
 30
0.0
 11
188.36576
 21
99.064
 31
0.0
  0
LINE
  5
59
100
AcDbEntity
  8
2
100
AcDbLine
 10
178.36576
 20
121.064
 30
0.0
 11
178.36576
 21
99.064
 31
0.0
  0
ARC
  5
5A
100
AcDbEntity
  8
0
100
AcDbCircle
 10
233.36576
 20
32.88
 30
0.0
 40
16.0
100
AcDbArc
 50
210.0
 51
150.0
  0
ARC
  5
5B
100
AcDbEntity
  8
0
100
AcDbCircle
 10
183.36576
 20
32.88
 30
0.0
 40
16.0
100
AcDbArc
 50
27.151119
 51
156.501822
  0
ARC
  5
5C
100
AcDbEntity
  8
0
100
AcDbCircle
 10
183.36576
 20
32.88
 30
0.0
 40
16.0
100
AcDbArc
 50
203.498178
 51
332.848881
  0
LINE
  5
5D
100
AcDbEntity
  8
0
100
AcDbLine
 10
219.509354
 20
40.88
 30
0.0
 11
219.509354
 21
24.88
 31
0.0
  0
LINE
  5
5E
100
AcDbEntity
  8
0
100
AcDbLine
 10
197.602656
 20
40.181423
 30
0.0
 11
197.602656
 21
25.578577
 31
0.0
  0
LINE
  5
5F
100
AcDbEntity
  8
0
100
AcDbLine
 10
168.692596
 20
39.259519
 30
0.0
 11
168.692596
 21
26.500481
 31
0.0
  0
LINE
  5
60
100
AcDbEntity
  8
0
100
AcDbLine
 10
219.509354
 20
24.88
 30
0.0
 11
197.602656
 21
25.578577
 31
0.0
  0
LINE
  5
61
100
AcDbEntity
  8
0
100
AcDbLine
 10
168.692596
 20
26.500481
 30
0.0
 11
141.111727
 21
27.38
 31
0.0
  0
LINE
  5
62
100
AcDbEntity
  8
0
100
AcDbLine
 10
168.692596
 20
39.259519
 30
0.0
 11
141.111727
 21
38.38
 31
0.0
  0
LINE
  5
63
100
AcDbEntity
  8
0
100
AcDbLine
 10
219.509354
 20
40.88
 30
0.0
 11
197.602656
 21
40.181423
 31
0.0
  0
LINE
  5
64
100
AcDbEntity
  8
1
100
AcDbLine
 10
233.36576
 20
53.88
 30
0.0
 11
233.36576
 21
11.88
 31
0.0
  0
LINE
  5
65
100
AcDbEntity
  8
1
100
AcDbLine
 10
183.36576
 20
53.88
 30
0.0
 11
183.36576
 21
11.88
 31
0.0
  0
LINE
  5
66
100
AcDbEntity
  8
1
100
AcDbLine
 10
133.36576
 20
47.88
 30
0.0
 11
133.36576
 21
17.88
 31
0.0
  0
LINE
  5
67
100
AcDbEntity
  8
1
100
AcDbLine
 10
118.36576
 20
32.88
 30
0.0
 11
254.36576
 21
32.88
 31
0.0
  0
CIRCLE
  5
68
100
AcDbEntity
  8
0
100
AcDbCircle
 10
183.36576
 20
32.88
 30
0.0
 40
11.61895
  0
CIRCLE
  5
69
100
AcDbEntity
  8
0
100
AcDbCircle
 10
183.36576
 20
32.88
 30
0.0
 40
5.0
  0
ARC
  5
6B
100
AcDbEntity
  8
0
100
AcDbCircle
 10
133.36576
 20
32.88
 30
0.0
 40
9.5
100
AcDbArc
 50
35.37654
 51
324.62346
  0
LINE
  5
6C
100
AcDbEntity
  8
0
100
AcDbLine
 10
141.111727
 20
38.38
 30
0.0
 11
141.111727
 21
27.38
 31
0.0
  0
LINE
  5
6E
100
AcDbEntity
  8
1
100
AcDbLine
 10
133.36576
 20
185.964
 30
0.0
 11
133.36576
 21
95.564
 31
0.0
  0
ARC
  5
77
100
AcDbEntity
  8
0
100
AcDbCircle
 10
133.36576
 20
110.064
 30
0.0
 40
9.5
100
AcDbArc
 50
133.421584
 51
324.62346
  0
LINE
  5
78
100
AcDbEntity
  8
0
100
AcDbLine
 10
139.895691
 20
116.964
 30
0.0
 11
126.835829
 21
116.964
 31
0.0
  0
ARC
  5
7B
100
AcDbEntity
  8
0
100
AcDbCircle
 10
183.36576
 20
110.064
 30
0.0
 40
16.0
100
AcDbArc
 50
136.567463
 51
156.501822
  0
ARC
  5
7C
100
AcDbEntity
  8
0
100
AcDbCircle
 10
183.36576
 20
110.064
 30
0.0
 40
16.0
100
AcDbArc
 50
316.567463
 51
332.848881
  0
LINE
  5
7D
100
AcDbEntity
  8
0
100
AcDbLine
 10
171.74681
 20
99.064
 30
0.0
 11
194.98471
 21
99.064
 31
0.0
  0
LINE
  5
7E
100
AcDbEntity
  8
0
100
AcDbLine
 10
171.74681
 20
121.064
 30
0.0
 11
194.98471
 21
121.064
 31
0.0
  0
ARC
  5
8D
100
AcDbEntity
  8
0
100
AcDbCircle
 10
233.36576
 20
110.064
 30
0.0
 40
16.0
100
AcDbArc
 50
210.0
 51
150.0
  0
ARC
  5
8E
100
AcDbEntity
  8
0
100
AcDbCircle
 10
183.36576
 20
110.064
 30
0.0
 40
16.0
100
AcDbArc
 50
27.151119
 51
43.432537
  0
ARC
  5
8F
100
AcDbEntity
  8
0
100
AcDbCircle
 10
183.36576
 20
110.064
 30
0.0
 40
16.0
100
AcDbArc
 50
203.498178
 51
223.432537
  0
ARC
  5
90
100
AcDbEntity
  8
0
100
AcDbCircle
 10
133.36576
 20
110.064
 30
0.0
 40
9.5
100
AcDbArc
 50
35.37654
 51
46.578416
  0
LINE
  5
91
100
AcDbEntity
  8
0
100
AcDbLine
 10
219.509354
 20
118.064
 30
0.0
 11
219.509354
 21
102.064
 31
0.0
  0
LINE
  5
92
100
AcDbEntity
  8
0
100
AcDbLine
 10
197.602656
 20
117.365423
 30
0.0
 11
197.602656
 21
102.762577
 31
0.0
  0
LINE
  5
93
100
AcDbEntity
  8
0
100
AcDbLine
 10
168.692596
 20
116.443519
 30
0.0
 11
168.692596
 21
103.684481
 31
0.0
  0
LINE
  5
94
100
AcDbEntity
  8
0
100
AcDbLine
 10
141.111727
 20
115.564
 30
0.0
 11
141.111727
 21
104.564
 31
0.0
  0
LINE
  5
95
100
AcDbEntity
  8
0
100
AcDbLine
 10
219.509354
 20
102.064
 30
0.0
 11
197.602656
 21
102.762577
 31
0.0
  0
LINE
  5
96
100
AcDbEntity
  8
0
100
AcDbLine
 10
168.692596
 20
103.684481
 30
0.0
 11
141.111727
 21
104.564
 31
0.0
  0
LINE
  5
97
100
AcDbEntity
  8
0
100
AcDbLine
 10
168.692596
 20
116.443519
 30
0.0
 11
141.111727
 21
115.564
 31
0.0
  0
LINE
  5
98
100
AcDbEntity
  8
0
100
AcDbLine
 10
219.509354
 20
118.064
 30
0.0
 11
197.602656
 21
117.365423
 31
0.0
  0
LINE
  5
99
100
AcDbEntity
  8
1
100
AcDbLine
 10
118.86576
 20
110.064
 30
0.0
 11
254.36576
 21
110.064
 31
0.0
  0
LINE
  5
9A
100
AcDbEntity
  8
1
100
AcDbLine
 10
233.36576
 20
131.064
 30
0.0
 11
233.36576
 21
89.064
 31
0.0
  0
LINE
  5
9B
100
AcDbEntity
  8
1
100
AcDbLine
 10
183.36576
 20
126.064
 30
0.0
 11
183.36576
 21
94.064
 31
0.0
  0
CIRCLE
  5
9C
100
AcDbEntity
  8
3
100
AcDbCircle
 10
133.36576
 20
32.88
 30
0.0
 40
4.0
  0
CIRCLE
  5
9D
100
AcDbEntity
  8
0
100
AcDbCircle
 10
133.36576
 20
32.88
 30
0.0
 40
3.3235
  0
ARC
  5
DB
100
AcDbEntity
  8
0
100
AcDbCircle
 10
53.36576
 20
110.064
 30
0.0
 40
16.0
100
AcDbArc
 50
0.0
 51
43.432537
  0
LINE
  5
DC
100
AcDbEntity
  8
0
100
AcDbLine
 10
64.98471
 20
121.064
 30
0.0
 11
41.74681
 21
121.064
 31
0.0
  0
ARC
  5
DD
100
AcDbEntity
  8
0
100
AcDbCircle
 10
53.36576
 20
110.064
 30
0.0
 40
16.0
100
AcDbArc
 50
43.432537
 51
136.567463
  0
ARC
  5
DE
100
AcDbEntity
  8
0
100
AcDbCircle
 10
53.36576
 20
110.064
 30
0.0
 40
16.0
100
AcDbArc
 50
136.567463
 51
180.0
  0
LINE
  5
DF
100
AcDbEntity
  8
2
100
AcDbLine
 10
129.36576
 20
101.447156
 30
0.0
 11
129.36576
 21
116.964
 31
0.0
  0
LINE
  5
E1
100
AcDbEntity
  8
2
100
AcDbLine
 10
130.36576
 20
116.964
 30
0.0
 11
130.36576
 21
101.050122
 31
0.0
  0
LINE
  5
E2
100
AcDbEntity
  8
2
100
AcDbLine
 10
136.36576
 20
116.964
 30
0.0
 11
136.36576
 21
101.050122
 31
0.0
  0
LINE
  5
E3
100
AcDbEntity
  8
2
100
AcDbLine
 10
137.36576
 20
101.447156
 30
0.0
 11
137.36576
 21
116.964
 31
0.0
  0
LINE
  5
E4
100
AcDbEntity
  8
2
100
AcDbLine
 10
57.36576
 20
101.447156
 30
0.0
 11
57.36576
 21
116.964
 31
0.0
  0
LINE
  5
E5
100
AcDbEntity
  8
2
100
AcDbLine
 10
56.36576
 20
116.964
 30
0.0
 11
56.36576
 21
101.050122
 31
0.0
  0
LINE
  5
E6
100
AcDbEntity
  8
2
100
AcDbLine
 10
50.36576
 20
116.964
 30
0.0
 11
50.36576
 21
101.050122
 31
0.0
  0
LINE
  5
E7
100
AcDbEntity
  8
2
100
AcDbLine
 10
49.36576
 20
101.447156
 30
0.0
 11
49.36576
 21
116.964
 31
0.0
  0
ENDSEC
  0
SECTION
  2
OBJECTS
  0
DICTIONARY
  5
B5
100
AcDbDictionary
  3
ACAD_GROUP
350
B6
  3
ACAD_MLINESTYLE
350
C3
  0
DICTIONARY
  5
B6
102
{ACAD_REACTORS
330
B5
102
}
100
AcDbDictionary
  0
DICTIONARY
  5
C3
102
{ACAD_REACTORS
330
B5
102
}
100
AcDbDictionary
  3
STANDARD
350
C4
  0
MLINESTYLE
  5
C4
102
{ACAD_REACTORS
330
C3
102
}
100
AcDbMlineStyle
  2
STANDARD
 70
     0
  3

 62
   256
 51
90.0
 52
90.0
 71
     2
 49
0.5
 62
   256
  6
BYLAYER
 49
-0.5
 62
   256
  6
BYLAYER
  0
ENDSEC
  0
EOF
