  0
SECTION
  2
HEADER
  9
$ACADVER
  1
AC1014
  9
$ACADMAINTVER
 70
     0
  9
$DWGCODEPAGE
  3
ANSI_932
  9
$INSBASE
 10
0.0
 20
0.0
 30
0.0
  9
$EXTMIN
 10
0.0
 20
0.0
 30
0.0
  9
$EXTMAX
 10
375.0
 20
270.0
 30
0.0
  9
$LIMMIN
 10
0.0
 20
0.0
  9
$LIMMAX
 10
375.0
 20
270.0
  9
$ORTHOMODE
 70
     1
  9
$REGENMODE
 70
     1
  9
$FILLMODE
 70
     1
  9
$QTEXTMODE
 70
     0
  9
$MIRRTEXT
 70
     1
  9
$DRAGMODE
 70
     1
  9
$LTSCALE
 40
10.0
  9
$OSMODE
 70
    33
  9
$ATTMODE
 70
     1
  9
$TEXTSIZE
 40
6.0
  9
$TRACEWID
 40
0.05
  9
$TEXTSTYLE
  7
BIGFONT
  9
$CLAYER
  8
0
  9
$CELTYPE
  6
BYLAYER
  9
$CECOLOR
 62
   256
  9
$CELTSCALE
 40
1.0
  9
$DELOBJ
 70
     1
  9
$DISPSILH
 70
     0
  9
$DIMSCALE
 40
1.0
  9
$DIMASZ
 40
3.0
  9
$DIMEXO
 40
2.0
  9
$DIMDLI
 40
0.38
  9
$DIMRND
 40
0.0
  9
$DIMDLE
 40
0.0
  9
$DIMEXE
 40
2.0
  9
$DIMTP
 40
0.0
  9
$DIMTM
 40
0.0
  9
$DIMTXT
 40
3.2
  9
$DIMCEN
 40
0.0
  9
$DIMTSZ
 40
0.0
  9
$DIMTOL
 70
     0
  9
$DIMLIM
 70
     0
  9
$DIMTIH
 70
     0
  9
$DIMTOH
 70
     0
  9
$DIMSE1
 70
     0
  9
$DIMSE2
 70
     0
  9
$DIMTAD
 70
     1
  9
$DIMZIN
 70
     0
  9
$DIMBLK
  1

  9
$DIMASO
 70
     0
  9
$DIMSHO
 70
     0
  9
$DIMPOST
  1

  9
$DIMAPOST
  1

  9
$DIMALT
 70
     0
  9
$DIMALTD
 70
     2
  9
$DIMALTF
 40
25.4
  9
$DIMLFAC
 40
1.0
  9
$DIMTOFL
 70
     1
  9
$DIMTVP
 40
1.6
  9
$DIMTIX
 70
     1
  9
$DIMSOXD
 70
     0
  9
$DIMSAH
 70
     0
  9
$DIMBLK1
  1

  9
$DIMBLK2
  1

  9
$DIMSTYLE
  2
STANDARD
  9
$DIMCLRD
 70
     0
  9
$DIMCLRE
 70
     0
  9
$DIMCLRT
 70
     0
  9
$DIMTFAC
 40
1.0
  9
$DIMGAP
 40
0.09
  9
$DIMJUST
 70
     0
  9
$DIMSD1
 70
     0
  9
$DIMSD2
 70
     0
  9
$DIMTOLJ
 70
     1
  9
$DIMTZIN
 70
     0
  9
$DIMALTZ
 70
     0
  9
$DIMALTTZ
 70
     0
  9
$DIMFIT
 70
     5
  9
$DIMUPT
 70
     0
  9
$DIMUNIT
 70
     2
  9
$DIMDEC
 70
     4
  9
$DIMTDEC
 70
     4
  9
$DIMALTU
 70
     2
  9
$DIMALTTD
 70
     2
  9
$DIMTXSTY
  7
BIGFONT
  9
$DIMAUNIT
 70
     0
  9
$LUNITS
 70
     2
  9
$LUPREC
 70
     4
  9
$SKETCHINC
 40
0.1
  9
$FILLETRAD
 40
0.0
  9
$AUNITS
 70
     0
  9
$AUPREC
 70
     4
  9
$MENU
  1
ACAD
  9
$ELEVATION
 40
0.0
  9
$PELEVATION
 40
0.0
  9
$THICKNESS
 40
0.0
  9
$LIMCHECK
 70
     0
  9
$BLIPMODE
 70
     0
  9
$CHAMFERA
 40
0.0
  9
$CHAMFERB
 40
0.0
  9
$CHAMFERC
 40
0.0
  9
$CHAMFERD
 40
0.0
  9
$SKPOLY
 70
     0
  9
$TDCREATE
 40
2450683.464282407
  9
$TDUPDATE
 40
2453551.745827002
  9
$TDINDWG
 40
0.0014143866
  9
$TDUSRTIMER
 40
0.0014143866
  9
$USRTIMER
 70
     1
  9
$ANGBASE
 50
0.0
  9
$ANGDIR
 70
     0
  9
$PDMODE
 70
     0
  9
$PDSIZE
 40
0.0
  9
$PLINEWID
 40
0.0
  9
$COORDS
 70
     0
  9
$SPLFRAME
 70
     0
  9
$SPLINETYPE
 70
     6
  9
$SPLINESEGS
 70
     8
  9
$ATTDIA
 70
     0
  9
$ATTREQ
 70
     1
  9
$HANDLING
 70
     1
  9
$HANDSEED
  5
FF
  9
$SURFTAB1
 70
     6
  9
$SURFTAB2
 70
     6
  9
$SURFTYPE
 70
     6
  9
$SURFU
 70
     6
  9
$SURFV
 70
     6
  9
$UCSNAME
  2

  9
$UCSORG
 10
0.0
 20
0.0
 30
0.0
  9
$UCSXDIR
 10
1.0
 20
0.0
 30
0.0
  9
$UCSYDIR
 10
0.0
 20
1.0
 30
0.0
  9
$PUCSNAME
  2

  9
$PUCSORG
 10
0.0
 20
0.0
 30
0.0
  9
$PUCSXDIR
 10
1.0
 20
0.0
 30
0.0
  9
$PUCSYDIR
 10
0.0
 20
1.0
 30
0.0
  9
$USERI1
 70
     0
  9
$USERI2
 70
     0
  9
$USERI3
 70
     0
  9
$USERI4
 70
     0
  9
$USERI5
 70
     0
  9
$USERR1
 40
0.0
  9
$USERR2
 40
0.0
  9
$USERR3
 40
0.0
  9
$USERR4
 40
0.0
  9
$USERR5
 40
0.0
  9
$WORLDVIEW
 70
     1
  9
$SHADEDGE
 70
     3
  9
$SHADEDIF
 70
    70
  9
$TILEMODE
 70
     1
  9
$MAXACTVP
 70
    16
  9
$PINSBASE
 10
0.0
 20
0.0
 30
0.0
  9
$PLIMCHECK
 70
     0
  9
$PEXTMIN
 10
1.000000E+20
 20
1.000000E+20
 30
1.000000E+20
  9
$PEXTMAX
 10
-1.000000E+20
 20
-1.000000E+20
 30
-1.000000E+20
  9
$PLIMMIN
 10
0.0
 20
0.0
  9
$PLIMMAX
 10
12.0
 20
9.0
  9
$UNITMODE
 70
     0
  9
$VISRETAIN
 70
     0
  9
$PLINEGEN
 70
   150
  9
$PSLTSCALE
 70
     0
  9
$TREEDEPTH
 70
  3020
  9
$PICKSTYLE
 70
     1
  9
$CMLSTYLE
  2
STANDARD
  9
$CMLJUST
 70
     0
  9
$CMLSCALE
 40
1.0
  9
$PROXYGRAPHICS
 70
     1
  9
$MEASUREMENT
 70
     0
  0
ENDSEC
  0
SECTION
  2
CLASSES
  0
ENDSEC
  0
SECTION
  2
TABLES
  0
TABLE
  2
VPORT
  5
CD
100
AcDbSymbolTable
 70
     5
  0
VPORT
  5
FE
100
AcDbSymbolTableRecord
100
AcDbViewportTableRecord
  2
*ACTIVE
 70
     0
 10
0.0
 20
0.0
 11
1.0
 21
1.0
 12
187.444379
 22
130.575667
 13
0.0
 23
0.0
 14
10.0
 24
10.0
 15
10.0
 25
10.0
 16
0.0
 26
0.0
 36
1.0
 17
0.0
 27
0.0
 37
0.0
 40
240.938384
 41
1.434944
 42
50.0
 43
0.0
 44
0.0
 50
0.0
 51
0.0
 71
     0
 72
   500
 73
     1
 74
     1
 75
     0
 76
     0
 77
     0
 78
     0
  0
ENDTAB
  0
TABLE
  2
LTYPE
  5
CA
100
AcDbSymbolTable
 70
     3
  0
LTYPE
  5
D6
100
AcDbSymbolTableRecord
100
AcDbLinetypeTableRecord
  2
BYBLOCK
 70
     0
  3

 72
    65
 73
     0
 40
0.0
  0
LTYPE
  5
D7
100
AcDbSymbolTableRecord
100
AcDbLinetypeTableRecord
  2
BYLAYER
 70
     0
  3

 72
    65
 73
     0
 40
0.0
  0
LTYPE
  5
D8
100
AcDbSymbolTableRecord
100
AcDbLinetypeTableRecord
  2
CONTINUOUS
 70
     0
  3
実線
 72
    65
 73
     0
 40
0.0
  0
LTYPE
  5
E4
100
AcDbSymbolTableRecord
100
AcDbLinetypeTableRecord
  2
CENTER
 70
     0
  3
____ _ ____ _ ____ _ ____ _ ____ _ ____ _ ____
 72
    65
 73
     4
 40
2.0
 49
1.25
 74
     0
 49
-0.25
 74
     0
 49
0.25
 74
     0
 49
-0.25
 74
     0
  0
LTYPE
  5
E5
100
AcDbSymbolTableRecord
100
AcDbLinetypeTableRecord
  2
HIDDEN
 70
     0
  3
_ _ _ _ _ _ _ _ _ _ _ _ _ _ _ _ _ _ _ _ _ _ _
 72
    65
 73
     2
 40
0.375
 49
0.25
 74
     0
 49
-0.125
 74
     0
  0
ENDTAB
  0
TABLE
  2
LAYER
  5
C7
100
AcDbSymbolTable
 70
     6
  0
LAYER
  5
D3
100
AcDbSymbolTableRecord
100
AcDbLayerTableRecord
  2
0
 70
     0
 62
     7
  6
CONTINUOUS
  0
LAYER
  5
EA
100
AcDbSymbolTableRecord
100
AcDbLayerTableRecord
  2
1
 70
     0
 62
     1
  6
CENTER
  0
LAYER
  5
EB
100
AcDbSymbolTableRecord
100
AcDbLayerTableRecord
  2
2
 70
     0
 62
     2
  6
HIDDEN
  0
LAYER
  5
EC
100
AcDbSymbolTableRecord
100
AcDbLayerTableRecord
  2
3
 70
     0
 62
     3
  6
CONTINUOUS
  0
LAYER
  5
ED
100
AcDbSymbolTableRecord
100
AcDbLayerTableRecord
  2
10
 70
     0
 62
     7
  6
CONTINUOUS
  0
LAYER
  5
EE
100
AcDbSymbolTableRecord
100
AcDbLayerTableRecord
  2
11
 70
     0
 62
     3
  6
CONTINUOUS
  0
ENDTAB
  0
TABLE
  2
STYLE
  5
C8
100
AcDbSymbolTable
 70
     3
  0
STYLE
  5
D4
100
AcDbSymbolTableRecord
100
AcDbTextStyleTableRecord
  2
STANDARD
 70
     0
 40
0.0
 41
1.0
 50
0.0
 71
     0
 42
0.2
  3
TXT
  4
BIGFONT
  0
STYLE
  5
E2
100
AcDbSymbolTableRecord
100
AcDbTextStyleTableRecord
  2
07500
 70
     0
 40
0.0
 41
0.75
 50
0.0
 71
     0
 42
6.0
  3
TXT
  4
BIGFONT
  0
STYLE
  5
E3
100
AcDbSymbolTableRecord
100
AcDbTextStyleTableRecord
  2
BIGFONT
 70
     0
 40
6.0
 41
0.8
 50
0.0
 71
     0
 42
6.0
  3

  4
bigfont
  0
ENDTAB
  0
TABLE
  2
VIEW
  5
CB
100
AcDbSymbolTable
 70
     1
  0
VIEW
  5
E6
100
AcDbSymbolTableRecord
100
AcDbViewTableRecord
  2
ALL
 70
     0
 40
270.0
 10
220.991597
 20
135.0
 41
0.0
 11
0.0
 21
0.0
 31
1.0
 12
0.0
 22
0.0
 32
0.0
 42
0.0
 43
0.0
 44
0.0
 50
0.0
 71
     0
  0
ENDTAB
  0
TABLE
  2
UCS
  5
CC
100
AcDbSymbolTable
 70
     0
  0
ENDTAB
  0
TABLE
  2
APPID
  5
CE
100
AcDbSymbolTable
 70
     1
  0
APPID
  5
D5
100
AcDbSymbolTableRecord
100
AcDbRegAppTableRecord
  2
ACAD
 70
     0
  0
ENDTAB
  0
TABLE
  2
DIMSTYLE
  5
CF
100
AcDbSymbolTable
 70
     1
  0
DIMSTYLE
105
E9
100
AcDbSymbolTableRecord
100
AcDbDimStyleTableRecord
  2
STANDARD
 70
     0
  3

  4

  5

  6

  7

 40
1.0
 41
0.18
 42
0.0625
 43
0.38
 44
0.18
 45
0.0
 46
0.0
 47
0.0
 48
0.0
140
0.18
141
0.09
142
0.0
143
25.4
144
1.0
145
0.0
146
1.0
147
0.09
 71
     0
 72
     0
 73
     1
 74
     1
 75
     0
 76
     0
 77
     0
 78
     0
170
     0
171
     2
172
     0
173
     0
174
     0
175
     0
176
     0
177
     0
178
     0
270
     2
271
     4
272
     4
273
     2
274
     2
340
E3
275
     0
280
     0
281
     0
282
     0
283
     1
284
     0
285
     0
286
     0
287
     5
288
     0
  0
ENDTAB
  0
TABLE
  2
BLOCK_RECORD
  5
C6
100
AcDbSymbolTable
 70
     1
  0
BLOCK_RECORD
  5
DC
100
AcDbSymbolTableRecord
100
AcDbBlockTableRecord
  2
*MODEL_SPACE
  0
BLOCK_RECORD
  5
D9
100
AcDbSymbolTableRecord
100
AcDbBlockTableRecord
  2
*PAPER_SPACE
  0
BLOCK_RECORD
  5
E1
100
AcDbSymbolTableRecord
100
AcDbBlockTableRecord
  2
QQ
  0
ENDTAB
  0
ENDSEC
  0
SECTION
  2
BLOCKS
  0
BLOCK
  5
F1
100
AcDbEntity
  8
0
100
AcDbBlockBegin
  2
*MODEL_SPACE
 70
     0
 10
0.0
 20
0.0
 30
0.0
  3
*MODEL_SPACE
  1

  0
ENDBLK
  5
F2
100
AcDbEntity
  8
0
100
AcDbBlockEnd
  0
BLOCK
  5
EF
100
AcDbEntity
 67
     1
  8
0
100
AcDbBlockBegin
  2
*PAPER_SPACE
 70
     0
 10
0.0
 20
0.0
 30
0.0
  3
*PAPER_SPACE
  1

  0
ENDBLK
  5
F0
100
AcDbEntity
 67
     1
  8
0
100
AcDbBlockEnd
  0
BLOCK
  5
2D
100
AcDbEntity
  8
0
100
AcDbBlockBegin
  2
QQ
 70
     0
 10
270.0
 20
0.0
 30
0.0
  3
QQ
  1

  0
LINE
  5
2E
100
AcDbEntity
  8
11
100
AcDbLine
 10
173.0
 20
36.0
 30
0.0
 11
270.0
 21
36.0
 31
0.0
  0
TEXT
  5
2F
100
AcDbEntity
  8
11
100
AcDbText
 10
175.0
 20
32.5
 30
0.0
 40
2.5
  1
部品名称
100
AcDbText
  0
LINE
  5
30
100
AcDbEntity
  8
11
100
AcDbLine
 10
173.0
 20
36.0
 30
0.0
 11
173.0
 21
0.0
 31
0.0
  0
LINE
  5
31
100
AcDbEntity
  8
11
100
AcDbLine
 10
173.0
 20
24.0
 30
0.0
 11
270.0
 21
24.0
 31
0.0
  0
TEXT
  5
32
100
AcDbEntity
  8
11
100
AcDbText
 10
175.0
 20
20.5
 30
0.0
 40
2.5
  1
品番
100
AcDbText
  0
LINE
  5
33
100
AcDbEntity
  8
11
100
AcDbLine
 10
173.0
 20
12.0
 30
0.0
 11
270.0
 21
12.0
 31
0.0
  0
TEXT
  5
34
100
AcDbEntity
  8
11
100
AcDbText
 10
175.0
 20
8.5
 30
0.0
 40
2.5
  1
尺度
100
AcDbText
  0
TEXT
  5
35
100
AcDbEntity
  8
11
100
AcDbText
 10
200.0
 20
8.5
 30
0.0
 40
2.5
  1
図番
100
AcDbText
  0
LINE
  5
36
100
AcDbEntity
  8
11
100
AcDbLine
 10
198.0
 20
0.0
 30
0.0
 11
198.0
 21
12.0
 31
0.0
  0
ENDBLK
  5
37
100
AcDbEntity
  8
0
100
AcDbBlockEnd
  0
ENDSEC
  0
SECTION
  2
ENTITIES
  0
ARC
  5
4C
100
AcDbEntity
  8
0
100
AcDbCircle
 10
85.225873
 20
124.720984
 30
0.0
 40
7.5
100
AcDbArc
 50
233.130102
 51
306.869898
  0
ARC
  5
4E
100
AcDbEntity
  8
0
100
AcDbCircle
 10
85.225873
 20
124.720984
 30
0.0
 40
9.0
100
AcDbArc
 50
138.189685
 51
221.810315
  0
LINE
  5
4F
100
AcDbEntity
  8
0
100
AcDbLine
 10
91.934077
 20
118.720984
 30
0.0
 11
78.517669
 21
118.720984
 31
0.0
  0
ARC
  5
51
100
AcDbEntity
  8
0
100
AcDbCircle
 10
85.225873
 20
124.720984
 30
0.0
 40
9.0
100
AcDbArc
 50
318.189685
 51
41.810315
  0
LINE
  5
52
100
AcDbEntity
  8
1
100
AcDbLine
 10
85.225873
 20
112.220984
 30
0.0
 11
85.225873
 21
165.220984
 31
0.0
  0
LINE
  5
53
100
AcDbEntity
  8
1
100
AcDbLine
 10
165.225873
 20
114.220984
 30
0.0
 11
165.225873
 21
165.220984
 31
0.0
  0
ARC
  5
54
100
AcDbEntity
  8
0
100
AcDbCircle
 10
85.225873
 20
124.720984
 30
0.0
 40
5.0
100
AcDbArc
 50
135.572996
 51
44.427004
  0
LINE
  5
55
100
AcDbEntity
  8
1
100
AcDbLine
 10
71.225873
 20
124.720984
 30
0.0
 11
99.225873
 21
124.720984
 31
0.0
  0
LINE
  5
56
100
AcDbEntity
  8
0
100
AcDbLine
 10
88.796587
 20
128.220984
 30
0.0
 11
81.655158
 21
128.220984
 31
0.0
  0
LINE
  5
7C
100
AcDbEntity
  8
2
100
AcDbLine
 10
169.225873
 20
214.194955
 30
0.0
 11
169.225873
 21
208.194955
 31
0.0
  0
CIRCLE
  5
7D
100
AcDbEntity
  8
0
100
AcDbCircle
 10
165.225873
 20
211.194955
 30
0.0
 40
5.0
  0
ARC
  5
8F
100
AcDbEntity
  8
0
100
AcDbCircle
 10
165.225873
 20
124.720984
 30
0.0
 40
5.0
100
AcDbArc
 50
135.572996
 51
323.130102
  0
LINE
  5
90
100
AcDbEntity
  8
0
100
AcDbLine
 10
168.796587
 20
128.220984
 30
0.0
 11
161.655158
 21
128.220984
 31
0.0
  0
ARC
  5
91
100
AcDbEntity
  8
0
100
AcDbCircle
 10
165.225873
 20
124.720984
 30
0.0
 40
5.0
100
AcDbArc
 50
36.869898
 51
44.427004
  0
LINE
  5
92
100
AcDbEntity
  8
0
100
AcDbLine
 10
169.225873
 20
127.720984
 30
0.0
 11
169.225873
 21
121.720984
 31
0.0
  0
CIRCLE
  5
93
100
AcDbEntity
  8
0
100
AcDbCircle
 10
185.225873
 20
211.194955
 30
0.0
 40
6.708204
  0
CIRCLE
  5
94
100
AcDbEntity
  8
0
100
AcDbCircle
 10
185.225873
 20
211.194955
 30
0.0
 40
2.5
  0
ARC
  5
95
100
AcDbEntity
  8
0
100
AcDbCircle
 10
185.225873
 20
124.720984
 30
0.0
 40
9.0
100
AcDbArc
 50
318.189685
 51
334.923841
  0
ARC
  5
96
100
AcDbEntity
  8
0
100
AcDbCircle
 10
185.225873
 20
124.720984
 30
0.0
 40
9.0
100
AcDbArc
 50
138.189685
 51
158.786441
  0
LINE
  5
97
100
AcDbEntity
  8
0
100
AcDbLine
 10
178.517669
 20
118.720984
 30
0.0
 11
191.934077
 21
118.720984
 31
0.0
  0
LINE
  5
98
100
AcDbEntity
  8
0
100
AcDbLine
 10
178.517669
 20
130.720984
 30
0.0
 11
191.934077
 21
130.720984
 31
0.0
  0
LINE
  5
99
100
AcDbEntity
  8
1
100
AcDbLine
 10
165.225873
 20
221.194955
 30
0.0
 11
165.225873
 21
201.194955
 31
0.0
  0
LINE
  5
9A
100
AcDbEntity
  8
1
100
AcDbLine
 10
155.225873
 20
211.194955
 30
0.0
 11
217.725873
 21
211.194955
 31
0.0
  0
LINE
  5
9B
100
AcDbEntity
  8
1
100
AcDbLine
 10
185.225873
 20
225.194955
 30
0.0
 11
185.225873
 21
197.194955
 31
0.0
  0
LINE
  5
9C
100
AcDbEntity
  8
1
100
AcDbLine
 10
205.225873
 20
223.694955
 30
0.0
 11
205.225873
 21
198.694955
 31
0.0
  0
LINE
  5
9D
100
AcDbEntity
  8
0
100
AcDbLine
 10
198.881584
 20
215.194955
 30
0.0
 11
193.37758
 21
215.009358
 31
0.0
  0
LINE
  5
9E
100
AcDbEntity
  8
0
100
AcDbLine
 10
176.835729
 20
214.451562
 30
0.0
 11
169.225873
 21
214.194955
 31
0.0
  0
LINE
  5
9F
100
AcDbEntity
  8
0
100
AcDbLine
 10
176.835729
 20
207.938348
 30
0.0
 11
169.225873
 21
208.194955
 31
0.0
  0
LINE
  5
A0
100
AcDbEntity
  8
0
100
AcDbLine
 10
198.881584
 20
207.194955
 30
0.0
 11
193.37758
 21
207.380552
 31
0.0
  0
LINE
  5
A1
100
AcDbEntity
  8
0
100
AcDbLine
 10
176.835729
 20
214.451562
 30
0.0
 11
176.835729
 21
207.938348
 31
0.0
  0
LINE
  5
A2
100
AcDbEntity
  8
0
100
AcDbLine
 10
193.37758
 20
215.009358
 30
0.0
 11
193.37758
 21
207.380552
 31
0.0
  0
LINE
  5
A3
100
AcDbEntity
  8
0
100
AcDbLine
 10
198.881584
 20
215.194955
 30
0.0
 11
198.881584
 21
207.194955
 31
0.0
  0
ARC
  5
A4
100
AcDbEntity
  8
0
100
AcDbCircle
 10
185.225873
 20
211.194955
 30
0.0
 40
9.0
100
AcDbArc
 50
201.213559
 51
334.923841
  0
ARC
  5
A5
100
AcDbEntity
  8
0
100
AcDbCircle
 10
185.225873
 20
211.194955
 30
0.0
 40
9.0
100
AcDbArc
 50
25.076159
 51
158.786441
  0
ARC
  5
A6
100
AcDbEntity
  8
0
100
AcDbCircle
 10
205.225873
 20
211.194955
 30
0.0
 40
7.5
100
AcDbArc
 50
212.230953
 51
147.769047
  0
ARC
  5
A7
100
AcDbEntity
  8
0
100
AcDbCircle
 10
205.225873
 20
124.720984
 30
0.0
 40
7.5
100
AcDbArc
 50
212.230953
 51
147.769047
  0
ARC
  5
A8
100
AcDbEntity
  8
0
100
AcDbCircle
 10
185.225873
 20
124.720984
 30
0.0
 40
9.0
100
AcDbArc
 50
25.076159
 51
41.810315
  0
ARC
  5
A9
100
AcDbEntity
  8
0
100
AcDbCircle
 10
185.225873
 20
124.720984
 30
0.0
 40
9.0
100
AcDbArc
 50
201.213559
 51
221.810315
  0
LINE
  5
AA
100
AcDbEntity
  8
0
100
AcDbLine
 10
198.881584
 20
128.720984
 30
0.0
 11
198.881584
 21
120.720984
 31
0.0
  0
LINE
  5
AB
100
AcDbEntity
  8
0
100
AcDbLine
 10
193.37758
 20
128.535387
 30
0.0
 11
193.37758
 21
120.906581
 31
0.0
  0
LINE
  5
AC
100
AcDbEntity
  8
0
100
AcDbLine
 10
176.835729
 20
127.977591
 30
0.0
 11
176.835729
 21
121.464377
 31
0.0
  0
LINE
  5
AD
100
AcDbEntity
  8
0
100
AcDbLine
 10
198.881584
 20
120.720984
 30
0.0
 11
193.37758
 21
120.906581
 31
0.0
  0
LINE
  5
AE
100
AcDbEntity
  8
0
100
AcDbLine
 10
176.835729
 20
121.464377
 30
0.0
 11
169.225873
 21
121.720984
 31
0.0
  0
LINE
  5
AF
100
AcDbEntity
  8
0
100
AcDbLine
 10
176.835729
 20
127.977591
 30
0.0
 11
169.225873
 21
127.720984
 31
0.0
  0
LINE
  5
B0
100
AcDbEntity
  8
0
100
AcDbLine
 10
198.881584
 20
128.720984
 30
0.0
 11
193.37758
 21
128.535387
 31
0.0
  0
LINE
  5
B1
100
AcDbEntity
  8
1
100
AcDbLine
 10
155.225873
 20
124.720984
 30
0.0
 11
217.725873
 21
124.720984
 31
0.0
  0
LINE
  5
B2
100
AcDbEntity
  8
1
100
AcDbLine
 10
205.225873
 20
137.220984
 30
0.0
 11
205.225873
 21
112.220984
 31
0.0
  0
LINE
  5
B3
100
AcDbEntity
  8
1
100
AcDbLine
 10
185.225873
 20
135.720984
 30
0.0
 11
185.225873
 21
113.720984
 31
0.0
  0
LINE
  5
B4
100
AcDbEntity
  8
2
100
AcDbLine
 10
182.725873
 20
130.720984
 30
0.0
 11
182.725873
 21
118.720984
 31
0.0
  0
LINE
  5
B5
100
AcDbEntity
  8
2
100
AcDbLine
 10
187.725873
 20
130.720984
 30
0.0
 11
187.725873
 21
118.720984
 31
0.0
  0
LINE
  5
B6
100
AcDbEntity
  8
2
100
AcDbLine
 10
163.225873
 20
120.138408
 30
0.0
 11
163.225873
 21
128.220984
 31
0.0
  0
LINE
  5
B7
100
AcDbEntity
  8
2
100
AcDbLine
 10
163.604873
 20
119.991041
 30
0.0
 11
163.604873
 21
128.220984
 31
0.0
  0
LINE
  5
B8
100
AcDbEntity
  8
2
100
AcDbLine
 10
166.846873
 20
119.991041
 30
0.0
 11
166.846873
 21
128.220984
 31
0.0
  0
LINE
  5
B9
100
AcDbEntity
  8
2
100
AcDbLine
 10
167.225873
 20
120.138408
 30
0.0
 11
167.225873
 21
128.220984
 31
0.0
  0
LINE
  5
F7
100
AcDbEntity
  8
0
100
AcDbLine
 10
91.934077
 20
130.720984
 30
0.0
 11
78.517669
 21
130.720984
 31
0.0
  0
ARC
  5
F8
100
AcDbEntity
  8
0
100
AcDbCircle
 10
85.225873
 20
124.720984
 30
0.0
 40
7.5
100
AcDbArc
 50
53.130102
 51
126.869898
  0
LINE
  5
F9
100
AcDbEntity
  8
2
100
AcDbLine
 10
87.225873
 20
120.138408
 30
0.0
 11
87.225873
 21
128.220984
 31
0.0
  0
LINE
  5
FA
100
AcDbEntity
  8
2
100
AcDbLine
 10
86.846873
 20
119.991041
 30
0.0
 11
86.846873
 21
128.220984
 31
0.0
  0
LINE
  5
FB
100
AcDbEntity
  8
2
100
AcDbLine
 10
83.604873
 20
119.991041
 30
0.0
 11
83.604873
 21
128.220984
 31
0.0
  0
LINE
  5
FC
100
AcDbEntity
  8
2
100
AcDbLine
 10
83.225873
 20
120.138408
 30
0.0
 11
83.225873
 21
128.220984
 31
0.0
  0
ENDSEC
  0
SECTION
  2
OBJECTS
  0
DICTIONARY
  5
D1
100
AcDbDictionary
  3
ACAD_GROUP
350
D2
  3
ACAD_MLINESTYLE
350
DF
  0
DICTIONARY
  5
D2
102
{ACAD_REACTORS
330
D1
102
}
100
AcDbDictionary
  0
DICTIONARY
  5
DF
102
{ACAD_REACTORS
330
D1
102
}
100
AcDbDictionary
  3
STANDARD
350
E0
  0
MLINESTYLE
  5
E0
102
{ACAD_REACTORS
330
DF
102
}
100
AcDbMlineStyle
  2
STANDARD
 70
     0
  3

 62
   256
 51
90.0
 52
90.0
 71
     2
 49
0.5
 62
   256
  6
BYLAYER
 49
-0.5
 62
   256
  6
BYLAYER
  0
ENDSEC
  0
EOF
