  0
SECTION
  2
HEADER
  9
$ACADVER
  1
AC1009
  9
$INSBASE
 10
0.0
 20
0.0
 30
0.0
  9
$EXTMIN
 10
10.8232502660519
 20
22.49038730339424
 30
-0.0015258207003583
  9
$EXTMAX
 10
179.18014569054361
 20
127.5059512333315
 30
0.0000000349246037
  9
$LIMMIN
 10
0.0
 20
0.0
  9
$LIMMAX
 10
187.5
 20
135.0
  9
$ORTHOMODE
 70
     1
  9
$REGENMODE
 70
     1
  9
$FILLMODE
 70
     1
  9
$QTEXTMODE
 70
     0
  9
$MIRRTEXT
 70
     0
  9
$DRAGMODE
 70
     2
  9
$LTSCALE
 40
5.0
  9
$OSMODE
 70
   231
  9
$ATTMODE
 70
     1
  9
$TEXTSIZE
 40
0.2
  9
$TRACEWID
 40
0.05
  9
$TEXTSTYLE
  7
STANDARD
  9
$CLAYER
  8
0
  9
$CELTYPE
  6
BYLAYER
  9
$CECOLOR
 62
   256
  9
$DIMSCALE
 40
0.5
  9
$DIMASZ
 40
3.0
  9
$DIMEXO
 40
2.0
  9
$DIMDLI
 40
0.38
  9
$DIMRND
 40
0.0
  9
$DIMDLE
 40
0.0
  9
$DIMEXE
 40
2.0
  9
$DIMTP
 40
0.0
  9
$DIMTM
 40
0.0
  9
$DIMTXT
 40
3.2000000000000002
  9
$DIMCEN
 40
0.0
  9
$DIMTSZ
 40
0.0
  9
$DIMTOL
 70
     0
  9
$DIMLIM
 70
     0
  9
$DIMTIH
 70
     0
  9
$DIMTOH
 70
     0
  9
$DIMSE1
 70
     0
  9
$DIMSE2
 70
     0
  9
$DIMTAD
 70
     1
  9
$DIMZIN
 70
     0
  9
$DIMBLK
  1

  9
$DIMASO
 70
     1
  9
$DIMSHO
 70
     0
  9
$DIMPOST
  1

  9
$DIMAPOST
  1

  9
$DIMALT
 70
     0
  9
$DIMALTD
 70
     2
  9
$DIMALTF
 40
25.399999999999999
  9
$DIMLFAC
 40
1.0
  9
$DIMTOFL
 70
     1
  9
$DIMTVP
 40
1.6000000000000001
  9
$DIMTIX
 70
     1
  9
$DIMSOXD
 70
     0
  9
$DIMSAH
 70
     0
  9
$DIMBLK1
  1

  9
$DIMBLK2
  1

  9
$DIMSTYLE
  2
STANDARD
  9
$DIMCLRD
 70
     0
  9
$DIMCLRE
 70
     0
  9
$DIMCLRT
 70
     0
  9
$DIMTFAC
 40
1.0
  9
$DIMGAP
 40
0.09
  9
$LUNITS
 70
     2
  9
$LUPREC
 70
     4
  9
$SKETCHINC
 40
0.1
  9
$FILLETRAD
 40
1.8
  9
$AUNITS
 70
     0
  9
$AUPREC
 70
     4
  9
$MENU
  1
E:\r13\win\SUPPORT\ACAD
  9
$ELEVATION
 40
0.0
  9
$PELEVATION
 40
0.0
  9
$THICKNESS
 40
0.0
  9
$LIMCHECK
 70
     0
  9
$BLIPMODE
 70
     1
  9
$CHAMFERA
 40
0.0
  9
$CHAMFERB
 40
0.0
  9
$SKPOLY
 70
     0
  9
$TDCREATE
 40
2449839.7896180549
  9
$TDUPDATE
 40
2453236.830535301
  9
$TDINDWG
 40
0.0001490162
  9
$TDUSRTIMER
 40
0.0001490162
  9
$USRTIMER
 70
     1
  9
$ANGBASE
 50
0.0
  9
$ANGDIR
 70
     0
  9
$PDMODE
 70
     0
  9
$PDSIZE
 40
0.0
  9
$PLINEWID
 40
0.0
  9
$COORDS
 70
     0
  9
$SPLFRAME
 70
     0
  9
$SPLINETYPE
 70
     6
  9
$SPLINESEGS
 70
     8
  9
$ATTDIA
 70
     0
  9
$ATTREQ
 70
     1
  9
$HANDLING
 70
-16383
  9
$HANDSEED
  5
192
  9
$SURFTAB1
 70
     6
  9
$SURFTAB2
 70
     6
  9
$SURFTYPE
 70
     6
  9
$SURFU
 70
     6
  9
$SURFV
 70
     6
  9
$UCSNAME
  2

  9
$UCSORG
 10
0.0
 20
0.0
 30
0.0
  9
$UCSXDIR
 10
1.0
 20
0.0
 30
0.0
  9
$UCSYDIR
 10
0.0
 20
1.0
 30
0.0
  9
$PUCSNAME
  2

  9
$PUCSORG
 10
0.0
 20
0.0
 30
0.0
  9
$PUCSXDIR
 10
1.0
 20
0.0
 30
0.0
  9
$PUCSYDIR
 10
0.0
 20
1.0
 30
0.0
  9
$USERI1
 70
     0
  9
$USERI2
 70
     1
  9
$USERI3
 70
     1
  9
$USERI4
 70
     0
  9
$USERI5
 70
     0
  9
$USERR1
 40
0.0
  9
$USERR2
 40
0.0
  9
$USERR3
 40
0.0
  9
$USERR4
 40
0.0
  9
$USERR5
 40
0.0
  9
$WORLDVIEW
 70
     1
  9
$SHADEDGE
 70
     3
  9
$SHADEDIF
 70
    70
  9
$TILEMODE
 70
     1
  9
$MAXACTVP
 70
    16
  9
$PLIMCHECK
 70
     0
  9
$PEXTMIN
 10
1.0000000000000000E+020
 20
1.0000000000000000E+020
 30
1.0000000000000000E+020
  9
$PEXTMAX
 10
-1.0000000000000000E+020
 20
-1.0000000000000000E+020
 30
-1.0000000000000000E+020
  9
$PLIMMIN
 10
0.0
 20
0.0
  9
$PLIMMAX
 10
12.0
 20
9.0
  9
$UNITMODE
 70
     0
  9
$VISRETAIN
 70
     0
  9
$PLINEGEN
 70
     0
  9
$PSLTSCALE
 70
     0
  0
ENDSEC
  0
SECTION
  2
TABLES
  0
TABLE
  2
VPORT
 70
     3
  0
VPORT
  2
*ACTIVE
 70
     0
 10
0.0
 20
0.0
 11
1.0
 21
1.0
 12
95.001697978297784
 22
74.998169268362901
 13
0.0
 23
0.0
 14
5.0
 24
5.0
 15
5.0
 25
5.0
 16
0.0
 26
0.0
 36
1.0
 17
0.0
 27
0.0
 37
0.0
 40
200.52174987497631
 41
0.9407114624505929
 42
50.0
 43
0.0
 44
0.0
 50
0.0
 51
0.0
 71
     0
 72
   500
 73
     1
 74
     0
 75
     0
 76
     0
 77
     0
 78
     2
  0
ENDTAB
  0
TABLE
  2
LTYPE
 70
     3
  0
LTYPE
  2
CONTINUOUS
 70
     0
  3
Solid Line
 72
    65
 73
     0
 40
0.0
  0
LTYPE
  2
CENTER
 70
     0
  3
____ _ ____ _ ____ _ ____ _ ____ _ ____ _ ____
 72
    65
 73
     4
 40
2.0
 49
1.25
 49
-0.25
 49
0.25
 49
-0.25
  0
LTYPE
  2
HIDDEN
 70
     0
  3
_ _ _ _ _ _ _ _ _ _ _ _ _ _ _ _ _ _ _ _ _ _ _
 72
    65
 73
     2
 40
0.375
 49
0.25
 49
-0.125
  0
ENDTAB
  0
TABLE
  2
LAYER
 70
     3
  0
LAYER
  2
0
 70
     0
 62
     7
  6
CONTINUOUS
  0
LAYER
  2
1
 70
     0
 62
     1
  6
CENTER
  0
LAYER
  2
2
 70
     0
 62
     2
  6
HIDDEN
  0
ENDTAB
  0
TABLE
  2
STYLE
 70
     1
  0
STYLE
  2
STANDARD
 70
     0
 40
0.0
 41
1.0
 50
0.0
 71
     0
 42
0.2
  3
TXT
  4
BIGFONT
  0
ENDTAB
  0
TABLE
  2
VIEW
 70
     1
  0
VIEW
  2
ALL
 70
     0
 40
135.0
 10
110.4957983193277
 20
67.5
 41
0.0
 11
0.0
 21
0.0
 31
1.0
 12
0.0
 22
0.0
 32
0.0
 42
0.0
 43
0.0
 44
0.0
 50
0.0
 71
     0
  0
ENDTAB
  0
TABLE
  2
UCS
 70
     0
  0
ENDTAB
  0
TABLE
  2
APPID
 70
     1
  0
APPID
  2
ACAD
 70
     0
  0
ENDTAB
  0
TABLE
  2
DIMSTYLE
 70
     1
  0
DIMSTYLE
  2
STANDARD
 70
     0
  3

  4

  5

  6

  7

 40
1.0
 41
0.18
 42
0.0625
 43
0.38
 44
0.18
 45
0.0
 46
0.0
 47
0.0
 48
0.0
140
0.18
141
0.09
142
0.0
143
25.399999999999999
144
1.0
145
0.0
146
1.0
147
0.09
 71
     0
 72
     0
 73
     1
 74
     1
 75
     0
 76
     0
 77
     0
 78
     0
170
     0
171
     2
172
     0
173
     0
174
     0
175
     0
176
     0
177
     0
178
     0
  0
ENDTAB
  0
ENDSEC
  0
SECTION
  2
BLOCKS
  0
BLOCK
  8
0
  2
$MODEL_SPACE
 70
     0
 10
0.0
 20
0.0
 30
0.0
  3
$MODEL_SPACE
  1

  0
ENDBLK
  5
13A
  8
0
  0
BLOCK
 67
     1
  8
0
  2
$PAPER_SPACE
 70
     0
 10
0.0
 20
0.0
 30
0.0
  3
$PAPER_SPACE
  1

  0
ENDBLK
  5
138
 67
     1
  8
0
  0
ENDSEC
  0
SECTION
  2
ENTITIES
  0
LINE
  5
35
  8
0
 10
148.5
 20
25.0
 30
0.0
 11
161.5
 21
25.0
 31
0.0
  0
LINE
  5
36
  8
0
 10
145.2999999999999
 20
57.0
 30
0.0
 11
164.69999999999999
 21
57.0
 31
0.0
  0
LINE
  5
37
  8
1
 10
155.0
 20
59.5
 30
0.0
 11
155.0
 21
22.5
 31
0.0
  0
LINE
  5
38
  8
0
 10
130.83203922298219
 20
52.102918891924702
 30
0.0
 11
130.8320392229821
 21
42.6367743704809
 31
0.0
  0
LINE
  5
39
  8
0
 10
179.1679607770177
 20
52.102918891924674
 30
0.0
 11
179.1679607770177
 21
42.6367743704809
 31
0.0
  0
LINE
  5
3A
  8
0
 10
164.5
 20
39.0
 30
0.0
 11
164.5
 21
26.29999999999999
 31
0.0
  0
LINE
  5
3B
  8
2
 10
148.5
 20
44.0
 30
0.0
 11
148.5
 21
25.29999999999999
 31
0.0
  0
LINE
  5
3C
  8
0
 10
161.5
 20
25.29999999999999
 30
0.0
 11
161.5
 21
25.0
 31
0.0
  0
LINE
  5
3D
  8
0
 10
146.5
 20
25.29999999999999
 30
0.0
 11
163.49999999999989
 21
25.29999999999999
 31
0.0
  0
LINE
  5
3E
  8
0
 10
145.5
 20
26.29999999999999
 30
0.0
 11
146.5
 21
25.29999999999999
 31
0.0
  0
LINE
  5
3F
  8
0
 10
163.49999999999989
 20
25.29999999999999
 30
0.0
 11
164.5
 21
26.29999999999999
 31
0.0
  0
LINE
  5
40
  8
0
 10
164.5
 20
26.29999999999999
 30
0.0
 11
145.5
 21
26.29999999999999
 31
0.0
  0
LINE
  5
41
  8
2
 10
149.5
 20
45.0
 30
0.0
 11
160.49999999999989
 21
45.0
 31
0.0
  0
LINE
  5
42
  8
0
 10
139.25
 20
38.999999999999979
 30
0.0
 11
170.74999999999989
 21
39.0
 31
0.0
  0
ARC
  5
43
  8
0
 10
155.0
 20
-12.324670933225489
 30
0.0
 40
70.0
 50
70.854029268625283
 51
82.034810593218381
  0
LINE
  5
44
  8
0
 10
170.75
 20
39.0
 30
0.0
 11
177.8338350582022
 21
40.89810788316057
 31
0.0
  0
ARC
  5
45
  8
0
 10
132.6320392229822
 20
52.102918891924702
 30
0.0
 40
1.8
 50
109.1459707313745
 51
180.0
  0
ARC
  5
46
  8
0
 10
132.6320392229822
 20
42.6367743704809
 30
0.0
 40
1.8
 50
180.0
 51
254.99999999999989
  0
ARC
  5
47
  8
0
 10
177.36796077701769
 20
42.6367743704809
 30
0.0
 40
1.8
 50
285.0
 51
0.0
  0
ARC
  5
48
  8
0
 10
177.36796077701769
 20
52.102918891924674
 30
0.0
 40
1.8
 50
0.0
 51
70.85402926862551
  0
LINE
  5
49
  8
0
 10
139.25
 20
39.0
 30
0.0
 11
132.16616494179769
 21
40.89810788316057
 31
0.0
  0
ARC
  5
4A
  8
0
 10
155.0
 20
-12.324670933225489
 30
0.0
 40
70.0
 50
97.965189406781647
 51
109.1459707313747
  0
LINE
  5
4B
  8
2
 10
150.0
 20
25.688000000000098
 30
0.0
 11
150.0
 21
45.0
 31
0.0
  0
LINE
  5
4C
  8
2
 10
150.8119999999999
 20
26.50000000000005
 30
0.0
 11
150.8119999999999
 21
45.0
 31
0.0
  0
LINE
  5
4D
  8
2
 10
159.1880000000001
 20
26.5
 30
0.0
 11
150.8119999999999
 21
26.5
 31
0.0
  0
LINE
  5
4E
  8
2
 10
149.31199999999981
 20
24.99999999999994
 30
0.0
 11
150.8119999999999
 21
26.5
 31
0.0
  0
ARC
  5
4F
  8
0
 10
155.0
 20
34.46324910514582
 30
0.0
 40
20.0
 50
72.824631290738097
 51
107.1753643684665
  0
ARC
  5
50
  8
0
 10
165.92600109829749
 20
69.813249105145815
 30
0.0
 40
17.0
 50
252.82463438975199
 51
283.14647883218112
  0
ARC
  5
51
  8
0
 10
174.34132952987699
 20
33.782952861725221
 30
0.0
 40
20.0
 50
77.374832291176915
 51
103.1464765259837
  0
ARC
  5
52
  8
0
 10
155.0
 20
60.16324910514583
 30
0.0
 40
20.0
 50
252.82463519156241
 51
287.17536870926187
  0
ARC
  5
53
  8
0
 10
165.92600109829749
 20
24.813249105145829
 30
0.0
 40
17.0
 50
76.853521167818855
 51
107.17536561024789
  0
ARC
  5
54
  8
0
 10
174.34132952987699
 20
60.843545348566408
 30
0.0
 40
20.0
 50
256.8535234740163
 51
282.20092867356942
  0
LINE
  5
55
  8
0
 10
164.99234928897209
 20
51.837479461012379
 30
0.0
 11
164.99234928897209
 21
42.789018749279187
 31
0.0
  0
LINE
  5
56
  8
0
 10
172.99234928897209
 20
52.735004262817483
 30
0.0
 11
172.99234928897209
 21
41.891493947474089
 31
0.0
  0
LINE
  5
57
  8
2
 10
149.5
 20
45.0
 30
0.0
 11
148.5
 21
44.0
 31
0.0
  0
LINE
  5
58
  8
0
 10
145.5
 20
26.29999999999999
 30
0.0
 11
145.5
 21
39.0
 31
0.0
  0
LINE
  5
59
  8
0
 10
148.5
 20
25.29999999999999
 30
0.0
 11
148.5
 21
25.0
 31
0.0
  0
LINE
  5
5A
  8
2
 10
160.6880000000001
 20
24.99999999999994
 30
0.0
 11
159.1880000000001
 21
26.5
 31
0.0
  0
LINE
  5
5B
  8
2
 10
159.1880000000001
 20
26.50000000000005
 30
0.0
 11
159.1880000000001
 21
45.0
 31
0.0
  0
LINE
  5
5C
  8
2
 10
160.0
 20
25.688000000000098
 30
0.0
 11
160.0
 21
45.0
 31
0.0
  0
LINE
  5
5D
  8
2
 10
160.49999999999989
 20
45.0
 30
0.0
 11
161.5
 21
44.0
 31
0.0
  0
LINE
  5
5E
  8
2
 10
161.5
 20
44.0
 30
0.0
 11
161.49999999999989
 21
25.29999999999999
 31
0.0
  0
ARC
  5
5F
  8
0
 10
144.07399890170251
 20
24.813249105145829
 30
0.0
 40
17.0
 50
72.824634389752106
 51
103.1464788321811
  0
LINE
  5
60
  8
0
 10
145.00765071102791
 20
51.837479461012379
 30
0.0
 11
145.00765071102791
 21
42.789018749279187
 31
0.0
  0
ARC
  5
61
  8
0
 10
144.07399890170251
 20
69.813249105145815
 30
0.0
 40
17.0
 50
256.85352116781883
 51
287.17536561024792
  0
ARC
  5
62
  8
0
 10
135.6586704701229
 20
33.782952861725221
 30
0.0
 40
20.0
 50
76.853523474016285
 51
102.6251677088231
  0
LINE
  5
63
  8
0
 10
137.00765071102791
 20
52.735004262817483
 30
0.0
 11
137.00765071102791
 21
41.891493947474089
 31
0.0
  0
ARC
  5
64
  8
0
 10
135.6586704701229
 20
60.843545348566408
 30
0.0
 40
20.0
 50
257.79907132643052
 51
283.1464765259837
  0
LINE
  5
65
  8
2
 10
101.5
 20
44.0
 30
0.0
 11
101.4999999999999
 21
25.29999999999999
 31
0.0
  0
LINE
  5
66
  8
2
 10
100.5
 20
45.0
 30
0.0
 11
101.5
 21
44.0
 31
0.0
  0
LINE
  5
67
  8
2
 10
100.0
 20
25.688000000000098
 30
0.0
 11
100.0
 21
45.0
 31
0.0
  0
LINE
  5
68
  8
2
 10
99.188000000000116
 20
26.50000000000005
 30
0.0
 11
99.188000000000116
 21
45.0
 31
0.0
  0
LINE
  5
69
  8
2
 10
100.6880000000001
 20
24.99999999999994
 30
0.0
 11
99.188000000000116
 21
26.5
 31
0.0
  0
LINE
  5
6A
  8
0
 10
88.499999999999986
 20
25.29999999999999
 30
0.0
 11
88.499999999999986
 21
25.0
 31
0.0
  0
LINE
  5
6B
  8
0
 10
85.5
 20
26.29999999999999
 30
0.0
 11
85.5
 21
39.0
 31
0.0
  0
LINE
  5
6C
  8
2
 10
89.500000000000014
 20
45.0
 30
0.0
 11
88.499999999999986
 21
44.0
 31
0.0
  0
LINE
  5
6D
  8
2
 10
89.311999999999841
 20
24.99999999999994
 30
0.0
 11
90.811999999999898
 21
26.5
 31
0.0
  0
LINE
  5
6E
  8
2
 10
99.188000000000116
 20
26.5
 30
0.0
 11
90.811999999999898
 21
26.5
 31
0.0
  0
LINE
  5
6F
  8
2
 10
90.811999999999898
 20
26.50000000000005
 30
0.0
 11
90.811999999999898
 21
45.0
 31
0.0
  0
LINE
  5
70
  8
2
 10
90.0
 20
25.688000000000098
 30
0.0
 11
90.0
 21
45.0
 31
0.0
  0
CIRCLE
  5
71
  8
0
 10
95.0
 20
100.0
 30
0.0
 40
8.5000000000000142
  0
CIRCLE
  5
72
  8
0
 10
95.0
 20
100.0
 30
0.0
 40
9.7000000000000028
  0
ARC
  5
73
  8
0
 10
95.0
 20
-12.324670933225489
 30
0.0
 40
70.0
 50
97.965189406781647
 51
109.8875944414122
  0
LINE
  5
74
  8
0
 10
79.25
 20
39.0
 30
0.0
 11
71.334125718815471
 21
41.12105212102972
 31
0.0
  0
LINE
  5
75
  8
0
 10
110.7499999999999
 20
39.0
 30
0.0
 11
115.4191631855586
 21
40.251098504899581
 31
0.0
  0
ARC
  5
76
  8
0
 10
95.0
 20
-12.324670933225489
 30
0.0
 40
70.0
 50
72.988105920400884
 51
82.034810593218381
  0
LINE
  5
77
  8
0
 10
79.250000000000057
 20
38.999999999999979
 30
0.0
 11
110.7499999999999
 21
39.0
 31
0.0
  0
LINE
  5
78
  8
2
 10
89.500000000000014
 20
45.0
 30
0.0
 11
100.5
 21
45.0
 31
0.0
  0
LINE
  5
79
  8
0
 10
104.4999999999999
 20
26.29999999999999
 30
0.0
 11
85.5
 21
26.29999999999999
 31
0.0
  0
LINE
  5
7A
  8
0
 10
103.4999999999999
 20
25.29999999999999
 30
0.0
 11
104.4999999999999
 21
26.29999999999999
 31
0.0
  0
LINE
  5
7B
  8
0
 10
85.5
 20
26.29999999999999
 30
0.0
 11
86.5
 21
25.29999999999999
 31
0.0
  0
LINE
  5
7C
  8
0
 10
86.500000000000028
 20
25.29999999999999
 30
0.0
 11
103.4999999999999
 21
25.29999999999999
 31
0.0
  0
LINE
  5
7D
  8
0
 10
101.5
 20
25.29999999999999
 30
0.0
 11
101.5
 21
25.0
 31
0.0
  0
LINE
  5
7E
  8
2
 10
88.499999999999986
 20
44.0
 30
0.0
 11
88.500000000000028
 21
25.29999999999999
 31
0.0
  0
LINE
  5
7F
  8
0
 10
104.5
 20
39.0
 30
0.0
 11
104.4999999999999
 21
26.29999999999999
 31
0.0
  0
LINE
  5
80
  8
1
 10
95.000000000000014
 20
59.5
 30
0.0
 11
95.0
 21
22.5
 31
0.0
  0
LINE
  5
81
  8
0
 10
85.299999999999983
 20
57.0
 30
0.0
 11
104.7
 21
57.0
 31
0.0
  0
LINE
  5
82
  8
0
 10
88.499999999999986
 20
25.0
 30
0.0
 11
101.5
 21
25.0
 31
0.0
  0
ARC
  5
83
  8
0
 10
105.8227192329657
 20
133.3089048107685
 30
0.0
 40
15.5
 50
226.8362734143133
 51
277.16372679805249
  0
ARC
  5
84
  8
0
 10
130.02305513927149
 20
100.0
 30
0.0
 40
15.5
 50
154.8362734143133
 51
205.16372679805249
  0
ARC
  5
85
  8
0
 10
105.8227192329657
 20
66.691095189231376
 30
0.0
 40
15.5
 50
82.836273414313325
 51
133.16372679805249
  0
ARC
  5
86
  8
0
 10
66.665753197398516
 20
79.413964698910092
 30
0.0
 40
15.5
 50
10.83627341431332
 51
61.163726798052537
  0
ARC
  5
87
  8
0
 10
66.665753197398516
 20
120.58603530108979
 30
0.0
 40
15.5
 50
298.83627341431333
 51
349.16372679805249
  0
ARC
  5
88
  8
0
 10
108.7532889043743
 20
109.99234928897209
 30
0.0
 40
8.0
 50
334.83628177671761
 51
97.163732909726903
  0
ARC
  5
89
  8
0
 10
108.7532889043741
 20
90.007650711027935
 30
0.0
 40
8.0
 50
262.83624966446911
 51
25.16372959824448
  0
ARC
  5
8A
  8
0
 10
89.746711095625869
 20
83.832039222982203
 30
0.0
 40
8.0
 50
190.8362698022037
 51
313.1637204670032
  0
ARC
  5
8B
  8
0
 10
78.0
 20
100.0
 30
0.0
 40
8.0
 50
118.83627694417341
 51
241.16375023681189
  0
ARC
  5
8C
  8
0
 10
89.746711095625869
 20
116.1679607770177
 30
0.0
 40
8.0
 50
46.836281342182801
 51
169.1637230313253
  0
LINE
  5
8D
  8
1
 10
67.5
 20
100.0
 30
0.0
 11
122.5
 21
100.0
 31
0.0
  0
LINE
  5
8E
  8
1
 10
95.0
 20
127.5
 30
0.0
 11
95.0
 21
72.5
 31
0.0
  0
LINE
  5
8F
  8
2
 10
41.5
 20
44.0
 30
0.0
 11
41.499999999999972
 21
25.29999999999999
 31
0.0
  0
LINE
  5
90
  8
2
 10
40.499999999999993
 20
45.0
 30
0.0
 11
41.5
 21
44.0
 31
0.0
  0
LINE
  5
91
  8
2
 10
40.0
 20
25.688000000000098
 30
0.0
 11
40.0
 21
45.0
 31
0.0
  0
LINE
  5
92
  8
2
 10
39.188000000000102
 20
26.50000000000005
 30
0.0
 11
39.188000000000102
 21
45.0
 31
0.0
  0
LINE
  5
93
  8
2
 10
40.688000000000159
 20
24.99999999999994
 30
0.0
 11
39.188000000000102
 21
26.5
 31
0.0
  0
LINE
  5
94
  8
0
 10
28.5
 20
25.29999999999999
 30
0.0
 11
28.5
 21
25.0
 31
0.0
  0
LINE
  5
95
  8
0
 10
25.5
 20
26.29999999999999
 30
0.0
 11
25.5
 21
39.0
 31
0.0
  0
LINE
  5
96
  8
2
 10
29.5
 20
45.0
 30
0.0
 11
28.5
 21
44.0
 31
0.0
  0
LINE
  5
97
  8
2
 10
29.311999999999841
 20
24.99999999999994
 30
0.0
 11
30.811999999999902
 21
26.5
 31
0.0
  0
LINE
  5
98
  8
2
 10
39.188000000000102
 20
26.5
 30
0.0
 11
30.811999999999902
 21
26.5
 31
0.0
  0
LINE
  5
99
  8
2
 10
30.811999999999902
 20
26.50000000000005
 30
0.0
 11
30.811999999999902
 21
45.0
 31
0.0
  0
LINE
  5
9A
  8
2
 10
30.0
 20
25.688000000000098
 30
0.0
 11
30.0
 21
45.0
 31
0.0
  0
ARC
  5
9B
  8
0
 10
35.0
 20
-12.324670933225489
 30
0.0
 40
70.0
 50
97.965189406781647
 51
109.1459707313747
  0
LINE
  5
9C
  8
0
 10
19.25
 20
39.0
 30
0.0
 11
12.16616494179774
 21
40.89810788316057
 31
0.0
  0
ARC
  5
9D
  8
0
 10
57.367960777017721
 20
52.102918891924674
 30
0.0
 40
1.8
 50
0.0
 51
70.85402926862551
  0
ARC
  5
9E
  8
0
 10
57.367960777017721
 20
42.6367743704809
 30
0.0
 40
1.8
 50
285.0
 51
0.0
  0
ARC
  5
9F
  8
0
 10
12.6320392229822
 20
42.6367743704809
 30
0.0
 40
1.8
 50
180.0
 51
254.99999999999989
  0
ARC
  5
A0
  8
0
 10
12.6320392229822
 20
52.102918891924702
 30
0.0
 40
1.8
 50
109.1459707313745
 51
180.0
  0
LINE
  5
A1
  8
0
 10
50.75
 20
39.0
 30
0.0
 11
57.833835058202247
 21
40.89810788316057
 31
0.0
  0
ARC
  5
A2
  8
0
 10
35.0
 20
-12.324670933225489
 30
0.0
 40
70.0
 50
70.854029268625283
 51
82.034810593218381
  0
LINE
  5
A3
  8
0
 10
19.25000000000005
 20
38.999999999999979
 30
0.0
 11
50.749999999999972
 21
39.0
 31
0.0
  0
LINE
  5
A4
  8
2
 10
29.5
 20
45.0
 30
0.0
 11
40.499999999999993
 21
45.0
 31
0.0
  0
LINE
  5
A5
  8
0
 10
44.5
 20
26.29999999999999
 30
0.0
 11
25.5
 21
26.29999999999999
 31
0.0
  0
LINE
  5
A6
  8
0
 10
43.5
 20
25.29999999999999
 30
0.0
 11
44.5
 21
26.29999999999999
 31
0.0
  0
LINE
  5
A7
  8
0
 10
25.5
 20
26.29999999999999
 30
0.0
 11
26.5
 21
25.29999999999999
 31
0.0
  0
LINE
  5
A8
  8
0
 10
26.500000000000028
 20
25.29999999999999
 30
0.0
 11
43.5
 21
25.29999999999999
 31
0.0
  0
LINE
  5
A9
  8
0
 10
41.5
 20
25.29999999999999
 30
0.0
 11
41.5
 21
25.0
 31
0.0
  0
LINE
  5
AA
  8
2
 10
28.5
 20
44.0
 30
0.0
 11
28.500000000000028
 21
25.29999999999999
 31
0.0
  0
LINE
  5
AB
  8
0
 10
44.500000000000021
 20
39.0
 30
0.0
 11
44.5
 21
26.29999999999999
 31
0.0
  0
LINE
  5
AC
  8
0
 10
59.167960777017718
 20
52.102918891924674
 30
0.0
 11
59.167960777017718
 21
42.6367743704809
 31
0.0
  0
LINE
  5
AD
  8
0
 10
10.83203922298221
 20
52.102918891924702
 30
0.0
 11
10.832039222982189
 21
42.6367743704809
 31
0.0
  0
LINE
  5
AE
  8
1
 10
35.0
 20
59.5
 30
0.0
 11
35.0
 21
22.5
 31
0.0
  0
LINE
  5
AF
  8
0
 10
25.299999999999979
 20
57.0
 30
0.0
 11
44.70000000000001
 21
57.0
 31
0.0
  0
LINE
  5
B0
  8
0
 10
28.5
 20
25.0
 30
0.0
 11
41.5
 21
25.0
 31
0.0
  0
LINE
  5
B1
  8
0
 10
70.0
 20
51.808004046070373
 30
0.0
 11
70.0
 21
42.859718608350043
 31
0.0
  0
LINE
  5
B2
  8
0
 10
116.7532889043741
 20
52.891172708473931
 30
0.0
 11
116.7532889043741
 21
41.989764992219897
 31
0.0
  0
ARC
  5
B3
  8
0
 10
71.800000000000011
 20
51.808004046070373
 30
0.0
 40
1.8
 50
109.88759444141169
 51
180.0
  0
ARC
  5
B4
  8
0
 10
71.800000000000011
 20
42.859718608350043
 30
0.0
 40
1.8
 50
180.0
 51
254.99999999999969
  0
ARC
  5
B5
  8
0
 10
114.95328890437411
 20
52.891172708473931
 30
0.0
 40
1.8
 50
0.0
 51
72.988105920401296
  0
ARC
  5
B6
  8
0
 10
114.95328890437411
 20
41.989764992219897
 30
0.0
 40
1.8
 50
285.0
 51
0.0
  0
ARC
  5
B7
  8
0
 10
88.554378901050214
 20
66.603258070540704
 30
0.0
 40
13.849268810468001
 50
248.21764200727739
 51
287.83177780602512
  0
ARC
  5
B8
  8
0
 10
99.449729167159035
 20
32.732723834051882
 30
0.0
 40
21.730525271093938
 50
71.934124536056302
 51
107.8317419850339
  0
ARC
  5
B9
  8
0
 10
109.8287909919005
 20
64.551640307326423
 30
0.0
 40
11.73839120218061
 50
251.9340865622942
 51
300.74672976325388
  0
ARC
  5
BA
  8
0
 10
79.670953436448372
 20
44.373262149748051
 30
0.0
 40
10.089986955397761
 50
68.217640125298132
 51
109.9864295037068
  0
ARC
  5
BB
  8
0
 10
70.306854914975645
 20
70.119880670914
 30
0.0
 40
17.306631565768189
 50
269.99999986001382
 51
289.98643284370411
  0
ARC
  5
BC
  8
0
 10
79.670953436448372
 20
50.253236060543628
 30
0.0
 40
10.089986955397761
 50
250.01357049629311
 51
291.78235987470191
  0
ARC
  5
BD
  8
0
 10
99.449729167159035
 20
61.893774376239797
 30
0.0
 40
21.730525271093938
 50
252.168258014966
 51
288.06587546394371
  0
ARC
  5
BE
  8
0
 10
88.554378901050214
 20
28.023240139750978
 30
0.0
 40
13.849268810468001
 50
72.168222193974898
 51
111.7823579927225
  0
ARC
  5
BF
  8
0
 10
109.8287909919005
 20
30.07485790296526
 30
0.0
 40
11.73839120218061
 50
59.253270236746083
 51
108.0659134377057
  0
ARC
  5
C0
  8
0
 10
70.306854914975645
 20
24.506617539377679
 30
0.0
 40
17.306631565768189
 50
70.013567156295863
 51
90.000000139986199
  0
LINE
  5
C1
  8
0
 10
74.141532711013213
 20
52.219377731461151
 30
0.0
 11
74.141532711013213
 21
42.407120478830478
 31
0.0
  0
LINE
  5
C2
  8
0
 10
81.889363777959815
 20
53.18839223420941
 30
0.0
 11
81.889363777959815
 21
41.438105976081857
 31
0.0
  0
LINE
  5
C3
  8
0
 10
95.219394197711836
 20
53.027032003135687
 30
0.0
 11
95.219394197711836
 21
41.599466207156212
 31
0.0
  0
LINE
  5
C4
  8
0
 10
107.7556484393037
 20
51.983080709010579
 30
0.0
 11
107.7556484393037
 21
42.643417501280616
 31
0.0
  0
ARC
  5
C5
  8
0
 10
22.660000810787452
 20
45.249614419689117
 30
0.0
 40
9.2541157479548382
 50
74.398948261768325
 51
112.9769094781319
  0
ARC
  5
C6
  8
0
 10
47.339999189212548
 20
45.249614419689117
 30
0.0
 40
9.2541157479548382
 50
67.02308769365338
 51
105.60097983051089
  0
ARC
  5
C7
  8
0
 10
35.0
 20
89.443500137136084
 30
0.0
 40
36.630251031990241
 50
254.39899329886151
 51
285.60102486760871
  0
ARC
  5
C8
  8
0
 10
55.657556986646568
 20
64.866527901398982
 30
0.0
 40
12.05327879625318
 50
247.023089940934
 51
284.99624809907931
  0
ARC
  5
C9
  8
0
 10
14.34244301335343
 20
64.866527901398982
 30
0.0
 40
12.05327879625318
 50
255.00375190092069
 51
292.97691005906591
  0
ARC
  5
CA
  8
0
 10
14.34244301335343
 20
29.759970308892669
 30
0.0
 40
12.05327879625318
 50
67.023089940934014
 51
104.9962480990792
  0
ARC
  5
CB
  8
0
 10
22.660000810787452
 20
49.376883790602527
 30
0.0
 40
9.2541157479548382
 50
247.023090521868
 51
285.6010517382316
  0
ARC
  5
CC
  8
0
 10
35.0
 20
5.1829980731555727
 30
0.0
 40
36.630251031990241
 50
74.398975132391229
 51
105.6010067011385
  0
ARC
  5
CD
  8
0
 10
47.339999189212548
 20
49.376883790602527
 30
0.0
 40
9.2541157479548382
 50
254.39902016948909
 51
292.97691230634661
  0
ARC
  5
CE
  8
0
 10
55.657556986646568
 20
29.759970308892669
 30
0.0
 40
12.05327879625318
 50
75.00375190092069
 51
112.9769100590659
  0
LINE
  5
CF
  8
0
 10
17.328013505710459
 20
52.159267922635649
 30
0.0
 11
17.328013505710459
 21
42.467230287656072
 31
0.0
  0
LINE
  5
D0
  8
0
 10
27.991988115864331
 20
52.471570756017542
 30
0.0
 11
27.991988115864331
 21
42.154927454274137
 31
0.0
  0
LINE
  5
D1
  8
0
 10
42.008013678905861
 20
52.471571096215392
 30
0.0
 11
42.008013678905861
 21
42.154927114076209
 31
0.0
  0
LINE
  5
D2
  8
0
 10
52.671986418277108
 20
52.159267940494573
 30
0.0
 11
52.671986418277129
 21
42.467230269797
 31
0.0
  0
ENDSEC
  0
EOF
