  0
SECTION
  2
HEADER
  9
$ACADVER
  1
AC1009
  9
$INSBASE
 10
0.0
 20
0.0
 30
0.0
  9
$EXTMIN
 10
-0.0062216246052458
 20
-0.0046195739878954
 30
-0.0015258207003583
  9
$EXTMAX
 10
159.32457126557441
 20
122.5002591803861
 30
0.0000000349246037
  9
$LIMMIN
 10
0.0
 20
0.0
  9
$LIMMAX
 10
187.5
 20
135.0
  9
$ORTHOMODE
 70
     0
  9
$REGENMODE
 70
     1
  9
$FILLMODE
 70
     1
  9
$QTEXTMODE
 70
     0
  9
$MIRRTEXT
 70
     0
  9
$DRAGMODE
 70
     2
  9
$LTSCALE
 40
5.0
  9
$OSMODE
 70
   231
  9
$ATTMODE
 70
     1
  9
$TEXTSIZE
 40
0.2
  9
$TRACEWID
 40
0.05
  9
$TEXTSTYLE
  7
STANDARD
  9
$CLAYER
  8
0
  9
$CELTYPE
  6
BYLAYER
  9
$CECOLOR
 62
   256
  9
$DIMSCALE
 40
0.5
  9
$DIMASZ
 40
3.0
  9
$DIMEXO
 40
2.0
  9
$DIMDLI
 40
0.38
  9
$DIMRND
 40
0.0
  9
$DIMDLE
 40
0.0
  9
$DIMEXE
 40
2.0
  9
$DIMTP
 40
0.0
  9
$DIMTM
 40
0.0
  9
$DIMTXT
 40
3.0
  9
$DIMCEN
 40
0.0
  9
$DIMTSZ
 40
0.0
  9
$DIMTOL
 70
     0
  9
$DIMLIM
 70
     0
  9
$DIMTIH
 70
     0
  9
$DIMTOH
 70
     0
  9
$DIMSE1
 70
     0
  9
$DIMSE2
 70
     0
  9
$DIMTAD
 70
     1
  9
$DIMZIN
 70
     0
  9
$DIMBLK
  1

  9
$DIMASO
 70
     1
  9
$DIMSHO
 70
     0
  9
$DIMPOST
  1

  9
$DIMAPOST
  1

  9
$DIMALT
 70
     0
  9
$DIMALTD
 70
     2
  9
$DIMALTF
 40
25.399999999999999
  9
$DIMLFAC
 40
1.0
  9
$DIMTOFL
 70
     1
  9
$DIMTVP
 40
1.6000000000000001
  9
$DIMTIX
 70
     1
  9
$DIMSOXD
 70
     0
  9
$DIMSAH
 70
     0
  9
$DIMBLK1
  1

  9
$DIMBLK2
  1

  9
$DIMSTYLE
  2
STANDARD
  9
$DIMCLRD
 70
     0
  9
$DIMCLRE
 70
     0
  9
$DIMCLRT
 70
     0
  9
$DIMTFAC
 40
1.0
  9
$DIMGAP
 40
0.09
  9
$LUNITS
 70
     2
  9
$LUPREC
 70
     4
  9
$SKETCHINC
 40
0.1
  9
$FILLETRAD
 40
1.5
  9
$AUNITS
 70
     0
  9
$AUPREC
 70
     4
  9
$MENU
  1
E:\r13\win\SUPPORT\ACAD
  9
$ELEVATION
 40
0.0
  9
$PELEVATION
 40
0.0
  9
$THICKNESS
 40
0.0
  9
$LIMCHECK
 70
     0
  9
$BLIPMODE
 70
     1
  9
$CHAMFERA
 40
0.0
  9
$CHAMFERB
 40
0.0
  9
$SKPOLY
 70
     0
  9
$TDCREATE
 40
2449839.7895949068
  9
$TDUPDATE
 40
2453236.8302761461
  9
$TDINDWG
 40
0.0031147801
  9
$TDUSRTIMER
 40
0.0031147801
  9
$USRTIMER
 70
     1
  9
$ANGBASE
 50
0.0
  9
$ANGDIR
 70
     0
  9
$PDMODE
 70
     0
  9
$PDSIZE
 40
0.0
  9
$PLINEWID
 40
0.0
  9
$COORDS
 70
     0
  9
$SPLFRAME
 70
     0
  9
$SPLINETYPE
 70
     6
  9
$SPLINESEGS
 70
     8
  9
$ATTDIA
 70
     0
  9
$ATTREQ
 70
     1
  9
$HANDLING
 70
-16383
  9
$HANDSEED
  5
281
  9
$SURFTAB1
 70
     6
  9
$SURFTAB2
 70
     6
  9
$SURFTYPE
 70
     6
  9
$SURFU
 70
     6
  9
$SURFV
 70
     6
  9
$UCSNAME
  2

  9
$UCSORG
 10
0.0
 20
0.0
 30
0.0
  9
$UCSXDIR
 10
1.0
 20
0.0
 30
0.0
  9
$UCSYDIR
 10
0.0
 20
1.0
 30
0.0
  9
$PUCSNAME
  2

  9
$PUCSORG
 10
0.0
 20
0.0
 30
0.0
  9
$PUCSXDIR
 10
1.0
 20
0.0
 30
0.0
  9
$PUCSYDIR
 10
0.0
 20
1.0
 30
0.0
  9
$USERI1
 70
     0
  9
$USERI2
 70
     1
  9
$USERI3
 70
     1
  9
$USERI4
 70
     0
  9
$USERI5
 70
     0
  9
$USERR1
 40
0.0
  9
$USERR2
 40
0.0
  9
$USERR3
 40
0.0
  9
$USERR4
 40
0.0
  9
$USERR5
 40
0.0
  9
$WORLDVIEW
 70
     1
  9
$SHADEDGE
 70
     3
  9
$SHADEDIF
 70
    70
  9
$TILEMODE
 70
     1
  9
$MAXACTVP
 70
    16
  9
$PLIMCHECK
 70
     0
  9
$PEXTMIN
 10
1.0000000000000000E+020
 20
1.0000000000000000E+020
 30
1.0000000000000000E+020
  9
$PEXTMAX
 10
-1.0000000000000000E+020
 20
-1.0000000000000000E+020
 30
-1.0000000000000000E+020
  9
$PLIMMIN
 10
0.0
 20
0.0
  9
$PLIMMAX
 10
12.0
 20
9.0
  9
$UNITMODE
 70
     0
  9
$VISRETAIN
 70
     0
  9
$PLINEGEN
 70
     0
  9
$PSLTSCALE
 70
     0
  0
ENDSEC
  0
SECTION
  2
TABLES
  0
TABLE
  2
VPORT
 70
     3
  0
VPORT
  2
*ACTIVE
 70
     0
 10
0.0
 20
0.0
 11
1.0
 21
1.0
 12
79.659174820484623
 22
61.247819803199121
 13
0.0
 23
0.0
 14
5.0
 24
5.0
 15
5.0
 25
5.0
 16
0.0
 26
0.0
 36
1.0
 17
0.0
 27
0.0
 37
0.0
 40
189.77119599853609
 41
0.9407114624505929
 42
50.0
 43
0.0
 44
0.0
 50
0.0
 51
0.0
 71
     0
 72
   500
 73
     1
 74
     0
 75
     0
 76
     0
 77
     0
 78
     2
  0
ENDTAB
  0
TABLE
  2
LTYPE
 70
     3
  0
LTYPE
  2
CONTINUOUS
 70
     0
  3
Solid Line
 72
    65
 73
     0
 40
0.0
  0
LTYPE
  2
CENTER
 70
     0
  3
____ _ ____ _ ____ _ ____ _ ____ _ ____ _ ____
 72
    65
 73
     4
 40
2.0
 49
1.25
 49
-0.25
 49
0.25
 49
-0.25
  0
LTYPE
  2
HIDDEN
 70
     0
  3
_ _ _ _ _ _ _ _ _ _ _ _ _ _ _ _ _ _ _ _ _ _ _
 72
    65
 73
     2
 40
0.375
 49
0.25
 49
-0.125
  0
ENDTAB
  0
TABLE
  2
LAYER
 70
     4
  0
LAYER
  2
0
 70
     0
 62
     7
  6
CONTINUOUS
  0
LAYER
  2
1
 70
     0
 62
     1
  6
CENTER
  0
LAYER
  2
2
 70
     0
 62
     2
  6
HIDDEN
  0
LAYER
  2
ITTEN
 70
     0
 62
     1
  6
CENTER
  0
ENDTAB
  0
TABLE
  2
STYLE
 70
     1
  0
STYLE
  2
STANDARD
 70
     0
 40
0.0
 41
1.0
 50
0.0
 71
     0
 42
0.2
  3
TXT
  4
BIGFONT
  0
ENDTAB
  0
TABLE
  2
VIEW
 70
     1
  0
VIEW
  2
ALL
 70
     0
 40
135.0
 10
110.4957983193277
 20
67.5
 41
0.0
 11
0.0
 21
0.0
 31
1.0
 12
0.0
 22
0.0
 32
0.0
 42
0.0
 43
0.0
 44
0.0
 50
0.0
 71
     0
  0
ENDTAB
  0
TABLE
  2
UCS
 70
     0
  0
ENDTAB
  0
TABLE
  2
APPID
 70
     1
  0
APPID
  2
ACAD
 70
     0
  0
ENDTAB
  0
TABLE
  2
DIMSTYLE
 70
     1
  0
DIMSTYLE
  2
STANDARD
 70
     0
  3

  4

  5

  6

  7

 40
1.0
 41
0.18
 42
0.0625
 43
0.38
 44
0.18
 45
0.0
 46
0.0
 47
0.0
 48
0.0
140
0.18
141
0.09
142
0.0
143
25.399999999999999
144
1.0
145
0.0
146
1.0
147
0.09
 71
     0
 72
     0
 73
     1
 74
     1
 75
     0
 76
     0
 77
     0
 78
     0
170
     0
171
     2
172
     0
173
     0
174
     0
175
     0
176
     0
177
     0
178
     0
  0
ENDTAB
  0
ENDSEC
  0
SECTION
  2
BLOCKS
  0
BLOCK
  8
0
  2
$MODEL_SPACE
 70
     0
 10
0.0
 20
0.0
 30
0.0
  3
$MODEL_SPACE
  1

  0
ENDBLK
  5
14C
  8
0
  0
BLOCK
 67
     1
  8
0
  2
$PAPER_SPACE
 70
     0
 10
0.0
 20
0.0
 30
0.0
  3
$PAPER_SPACE
  1

  0
ENDBLK
  5
14A
 67
     1
  8
0
  0
BLOCK
  8
0
  2
BATU
 70
     0
 10
0.0
 20
0.0
 30
0.0
  3
BATU
  1

  0
LINE
  5
157
  8
ITTEN
 10
0.5
 20
0.0
 30
0.0
 11
-0.5
 21
0.0
 31
0.0
  0
LINE
  5
158
  8
ITTEN
 10
0.0
 20
0.5
 30
0.0
 11
0.0
 21
-0.5
 31
0.0
  0
ENDBLK
  5
15A
  8
0
  0
ENDSEC
  0
SECTION
  2
ENTITIES
  0
LINE
  5
35
  8
0
 10
134.49999999999989
 20
35.0
 30
0.0
 11
145.5
 21
35.0
 31
0.0
  0
LINE
  5
36
  8
0
 10
132.20000000000019
 20
62.0
 30
0.0
 11
147.7999999999997
 21
62.0
 31
0.0
  0
LINE
  5
37
  8
1
 10
140.0
 20
64.499999999999986
 30
0.0
 11
140.0
 21
32.5
 31
0.0
  0
LINE
  5
38
  8
0
 10
131.49999999999989
 20
47.0
 30
0.0
 11
131.49999999999989
 21
36.29999999999999
 31
0.0
  0
LINE
  5
39
  8
0
 10
148.5
 20
47.0
 30
0.0
 11
148.5
 21
36.29999999999999
 31
0.0
  0
LINE
  5
3A
  8
2
 10
134.49999999999989
 20
52.5
 30
0.0
 11
134.49999999999989
 21
35.29999999999999
 31
0.0
  0
LINE
  5
3B
  8
0
 10
145.5
 20
35.29999999999999
 30
0.0
 11
145.5
 21
35.0
 31
0.0
  0
LINE
  5
3C
  8
0
 10
132.49999999999989
 20
35.29999999999999
 30
0.0
 11
147.5
 21
35.29999999999999
 31
0.0
  0
LINE
  5
3D
  8
0
 10
128.00000000000011
 20
47.000000000000007
 30
0.0
 11
151.99999999999989
 21
47.0
 31
0.0
  0
LINE
  5
3E
  8
0
 10
147.5
 20
35.29999999999999
 30
0.0
 11
148.5
 21
36.29999999999999
 31
0.0
  0
LINE
  5
3F
  8
0
 10
132.49999999999989
 20
35.29999999999999
 30
0.0
 11
131.49999999999989
 21
36.29999999999999
 31
0.0
  0
LINE
  5
40
  8
0
 10
148.5
 20
36.299999999999983
 30
0.0
 11
131.5
 21
36.299999999999983
 31
0.0
  0
LINE
  5
41
  8
0
 10
120.68520877186771
 20
58.486390366399512
 30
0.0
 11
120.68520877186771
 21
49.881906494301802
 31
0.0
  0
LINE
  5
42
  8
0
 10
159.31479122813201
 20
58.486390366399583
 30
0.0
 11
159.31479122813209
 21
49.881906494301738
 31
0.0
  0
LINE
  5
43
  8
2
 10
135.0
 20
53.0
 30
0.0
 11
145.0
 21
53.0
 31
0.0
  0
LINE
  5
44
  8
0
 10
128.0
 20
47.000000000000021
 30
0.0
 11
121.84778219035189
 21
48.42035139712393
 31
0.0
  0
LINE
  5
45
  8
0
 10
152.0
 20
47.000000000000021
 30
0.0
 11
158.15221780964791
 21
48.420351397123881
 31
0.0
  0
ARC
  5
46
  8
0
 10
140.0
 20
-4.5444212537760498
 30
0.0
 40
67.0
 50
74.217785562347473
 51
83.314585291718316
  0
ARC
  5
47
  8
0
 10
122.18520877186771
 20
58.486390366399512
 30
0.0
 40
1.5
 50
105.7822144376524
 51
179.9999999999994
  0
ARC
  5
48
  8
0
 10
122.18520877186771
 20
49.881906494301788
 30
0.0
 40
1.5
 50
179.9999999999998
 51
257.00000000000011
  0
ARC
  5
49
  8
0
 10
157.81479122813209
 20
49.881906494301738
 30
0.0
 40
1.5
 50
282.99999999999972
 51
0.0
  0
ARC
  5
4A
  8
0
 10
157.81479122813201
 20
58.486390366399547
 30
0.0
 40
1.5
 50
0.0000000000002714
 51
74.2177855623477
  0
ARC
  5
4B
  8
0
 10
140.0
 20
-4.5444212537760498
 30
0.0
 40
67.0
 50
96.685414708281741
 51
105.7822144376525
  0
ARC
  5
4C
  8
0
 10
140.0
 20
42.399957220731316
 30
0.0
 40
18.0
 50
74.179646151166224
 51
105.82035155400111
  0
ARC
  5
4D
  8
0
 10
148.99652710772321
 20
74.149957220731324
 30
0.0
 40
15.0
 50
254.17964802024369
 51
281.83147148458642
  0
ARC
  5
4E
  8
0
 10
155.76263746415759
 20
41.851044690360453
 30
0.0
 40
18.0
 50
80.176043461223756
 51
101.83146655077
  0
ARC
  5
4F
  8
0
 10
140.0
 20
65.899957220731324
 30
0.0
 40
18.0
 50
254.17964844599879
 51
285.82035384883369
  0
ARC
  5
50
  8
0
 10
148.99652710772321
 20
34.149957220731316
 30
0.0
 40
15.0
 50
78.168528515413584
 51
105.8203519797563
  0
ARC
  5
51
  8
0
 10
155.76263746415759
 20
66.448869751102194
 30
0.0
 40
18.0
 50
258.16853344922993
 51
279.49768506896481
  0
LINE
  5
52
  8
0
 10
148.22899353209451
 20
58.168377442427783
 30
0.0
 11
148.22899353209451
 21
50.13153699903495
 31
0.0
  0
LINE
  5
53
  8
0
 10
154.22899353209459
 20
58.781725016019131
 30
0.0
 11
154.22899353209459
 21
49.518189425443452
 31
0.0
  0
LINE
  5
54
  8
2
 10
135.0
 20
53.0
 30
0.0
 11
134.49999999999989
 21
52.5
 31
0.0
  0
LINE
  5
55
  8
2
 10
136.0
 20
35.523500000000041
 30
0.0
 11
136.0
 21
53.0
 31
0.0
  0
LINE
  5
56
  8
2
 10
136.67649999999981
 20
36.199999999999989
 30
0.0
 11
136.67649999999981
 21
53.0
 31
0.0
  0
LINE
  5
5B
  8
2
 10
143.3235
 20
36.20000000000001
 30
0.0
 11
136.67649999999989
 21
36.199999999999989
 31
0.0
  0
LINE
  5
5C
  8
2
 10
136.67649999999989
 20
36.20000000000001
 30
0.0
 11
135.4764999999999
 21
35.0
 31
0.0
  0
LINE
  5
5D
  8
0
 10
134.49999999999989
 20
35.29999999999999
 30
0.0
 11
134.49999999999989
 21
35.0
 31
0.0
  0
LINE
  5
5E
  8
2
 10
143.3235
 20
36.20000000000001
 30
0.0
 11
144.52350000000001
 21
35.0
 31
0.0
  0
LINE
  5
60
  8
2
 10
143.32350000000011
 20
36.199999999999989
 30
0.0
 11
143.32350000000011
 21
53.0
 31
0.0
  0
LINE
  5
61
  8
2
 10
144.0
 20
35.523500000000041
 30
0.0
 11
144.0
 21
53.0
 31
0.0
  0
LINE
  5
63
  8
2
 10
145.0
 20
53.0
 30
0.0
 11
145.5
 21
52.5
 31
0.0
  0
LINE
  5
64
  8
2
 10
145.5
 20
52.5
 30
0.0
 11
145.5
 21
35.29999999999999
 31
0.0
  0
LINE
  5
65
  8
0
 10
125.77100646790539
 20
58.781725016019131
 30
0.0
 11
125.77100646790539
 21
49.518189425443452
 31
0.0
  0
LINE
  5
66
  8
0
 10
131.77100646790541
 20
58.168377442427783
 30
0.0
 11
131.77100646790541
 21
50.13153699903495
 31
0.0
  0
ARC
  5
67
  8
0
 10
131.0034728922767
 20
74.149957220731324
 30
0.0
 40
15.0
 50
258.16852851541358
 51
285.82035197975631
  0
ARC
  5
68
  8
0
 10
124.23736253584229
 20
41.851044690360453
 30
0.0
 40
18.0
 50
78.168533449230011
 51
99.823956538776272
  0
ARC
  5
69
  8
0
 10
131.0034728922767
 20
34.149957220731316
 30
0.0
 40
15.0
 50
74.179648020243704
 51
101.8314714845864
  0
ARC
  5
6A
  8
0
 10
124.23736253584229
 20
66.448869751102194
 30
0.0
 40
18.0
 50
260.50231493103519
 51
281.83146655077007
  0
LINE
  5
6B
  8
2
 10
95.5
 20
52.5
 30
0.0
 11
95.5
 21
35.29999999999999
 31
0.0
  0
LINE
  5
6C
  8
2
 10
95.0
 20
53.0
 30
0.0
 11
95.5
 21
52.5
 31
0.0
  0
LINE
  5
6E
  8
2
 10
94.0
 20
35.523500000000041
 30
0.0
 11
93.999999999999986
 21
53.0
 31
0.0
  0
LINE
  5
6F
  8
2
 10
93.323500000000095
 20
36.199999999999989
 30
0.0
 11
93.323500000000095
 21
53.0
 31
0.0
  0
LINE
  5
71
  8
2
 10
93.323500000000024
 20
36.20000000000001
 30
0.0
 11
94.523500000000041
 21
35.0
 31
0.0
  0
LINE
  5
72
  8
0
 10
84.500000000000014
 20
35.29999999999999
 30
0.0
 11
84.500000000000014
 21
35.0
 31
0.0
  0
LINE
  5
73
  8
2
 10
86.676499999999976
 20
36.20000000000001
 30
0.0
 11
85.476499999999945
 21
35.0
 31
0.0
  0
LINE
  5
74
  8
2
 10
93.323500000000053
 20
36.20000000000001
 30
0.0
 11
86.676499999999919
 21
36.199999999999989
 31
0.0
  0
LINE
  5
79
  8
2
 10
86.676499999999891
 20
36.199999999999989
 30
0.0
 11
86.676499999999905
 21
53.0
 31
0.0
  0
LINE
  5
7A
  8
2
 10
86.0
 20
35.523500000000041
 30
0.0
 11
86.0
 21
53.0
 31
0.0
  0
LINE
  5
7B
  8
2
 10
85.0
 20
53.0
 30
0.0
 11
84.500000000000014
 21
52.5
 31
0.0
  0
CIRCLE
  5
7C
  8
0
 10
90.000000000000028
 20
100.0
 30
0.0
 40
6.5000000000000098
  0
CIRCLE
  5
7D
  8
0
 10
90.000000000000028
 20
100.0
 30
0.0
 40
7.7999999999998257
  0
ARC
  5
7E
  8
0
 10
90.000000000000028
 20
-4.5444212537760498
 30
0.0
 40
67.0
 50
96.685414708281741
 51
106.4060497932867
  0
ARC
  5
7F
  8
0
 10
90.0
 20
-4.5444212537760498
 30
0.0
 40
67.0
 50
76.017710871917373
 51
83.314585291718316
  0
LINE
  5
80
  8
0
 10
102.0
 20
47.000000000000021
 30
0.0
 11
106.1636645027649
 21
47.96125769220707
 31
0.0
  0
LINE
  5
81
  8
0
 10
78.0
 20
47.000000000000021
 30
0.0
 11
71.162573418484115
 21
48.578544306828427
 31
0.0
  0
LINE
  5
82
  8
2
 10
85.0
 20
53.0
 30
0.0
 11
95.0
 21
53.0
 31
0.0
  0
LINE
  5
83
  8
0
 10
98.500000000000014
 20
36.299999999999983
 30
0.0
 11
81.500000000000057
 21
36.299999999999983
 31
0.0
  0
LINE
  5
84
  8
0
 10
82.5
 20
35.29999999999999
 30
0.0
 11
81.5
 21
36.29999999999999
 31
0.0
  0
LINE
  5
85
  8
0
 10
97.5
 20
35.29999999999999
 30
0.0
 11
98.500000000000014
 21
36.29999999999999
 31
0.0
  0
LINE
  5
86
  8
0
 10
78.000000000000142
 20
47.000000000000007
 30
0.0
 11
101.9999999999999
 21
47.0
 31
0.0
  0
LINE
  5
87
  8
0
 10
82.5
 20
35.29999999999999
 30
0.0
 11
97.5
 21
35.29999999999999
 31
0.0
  0
LINE
  5
88
  8
0
 10
95.5
 20
35.29999999999999
 30
0.0
 11
95.5
 21
35.0
 31
0.0
  0
LINE
  5
89
  8
2
 10
84.500000000000014
 20
52.5
 30
0.0
 11
84.500000000000014
 21
35.29999999999999
 31
0.0
  0
LINE
  5
8A
  8
0
 10
98.500000000000014
 20
47.0
 30
0.0
 11
98.500000000000014
 21
36.29999999999999
 31
0.0
  0
LINE
  5
8B
  8
0
 10
81.5
 20
47.0
 30
0.0
 11
81.5
 21
36.29999999999999
 31
0.0
  0
LINE
  5
8C
  8
1
 10
90.0
 20
64.5
 30
0.0
 11
89.999999999999986
 21
32.5
 31
0.0
  0
LINE
  5
8D
  8
0
 10
82.200000000000216
 20
62.0
 30
0.0
 11
97.799999999999784
 21
62.0
 31
0.0
  0
LINE
  5
8E
  8
0
 10
84.500000000000014
 20
35.0
 30
0.0
 11
95.5
 21
35.0
 31
0.0
  0
ARC
  5
8F
  8
0
 10
98.447010446724974
 20
125.9972249902318
 30
0.0
 40
12.0
 50
224.79558208140949
 51
279.20439232567492
  0
ARC
  5
90
  8
0
 10
67.885439547149602
 20
116.06716865714171
 30
0.0
 40
12.0
 50
296.79558208140952
 51
351.20439232567492
  0
ARC
  5
91
  8
0
 10
67.885439547149218
 20
83.932831342858876
 30
0.0
 40
12.0
 50
8.7955820814095631
 51
63.204392325674903
  0
ARC
  5
92
  8
0
 10
98.44701044672442
 20
74.002775009768115
 30
0.0
 40
12.0
 50
80.795582081409563
 51
135.2043923256748
  0
ARC
  5
93
  8
0
 10
117.3351000122519
 20
99.999999999999801
 30
0.0
 40
12.0
 50
152.79558208140949
 51
207.20439232567489
  0
ARC
  5
94
  8
0
 10
101.3262379212491
 20
91.77100646790538
 30
0.0
 40
5.9999999999999858
 50
260.79562050082268
 51
27.204430685002201
  0
ARC
  5
95
  8
0
 10
85.673762078750784
 20
86.685208771867806
 30
0.0
 40
5.999999999999968
 50
188.7956205008108
 51
315.20443068500828
  0
ARC
  5
96
  8
0
 10
76.000000000000043
 20
100.0
 30
0.0
 40
6.0
 50
116.79562050082291
 51
243.20443068501359
  0
ARC
  5
97
  8
0
 10
85.673762078750784
 20
113.31479122813209
 30
0.0
 40
6.0000000000000586
 50
44.795620500832307
 51
171.20443068501751
  0
ARC
  5
98
  8
0
 10
101.3262379212493
 20
108.22899353209461
 30
0.0
 40
5.9999999999999982
 50
332.79562050082268
 51
99.204430684999053
  0
LINE
  5
99
  8
1
 10
112.5
 20
100.0
 30
0.0
 11
67.500000000000028
 21
100.0
 31
0.0
  0
LINE
  5
9A
  8
1
 10
90.000000000000028
 20
122.5
 30
0.0
 11
90.000000000000028
 21
77.500000000000114
 31
0.0
  0
LINE
  5
9B
  8
2
 10
45.499999999999993
 20
52.5
 30
0.0
 11
45.499999999999993
 21
35.29999999999999
 31
0.0
  0
LINE
  5
9C
  8
2
 10
45.0
 20
53.0
 30
0.0
 11
45.499999999999993
 21
52.5
 31
0.0
  0
LINE
  5
9E
  8
2
 10
44.0
 20
35.523500000000041
 30
0.0
 11
44.0
 21
53.0
 31
0.0
  0
LINE
  5
9F
  8
2
 10
43.323500000000109
 20
36.199999999999989
 30
0.0
 11
43.323500000000109
 21
53.0
 31
0.0
  0
LINE
  5
A1
  8
2
 10
43.323500000000017
 20
36.20000000000001
 30
0.0
 11
44.523500000000041
 21
35.0
 31
0.0
  0
LINE
  5
A2
  8
0
 10
34.5
 20
35.29999999999999
 30
0.0
 11
34.5
 21
35.0
 31
0.0
  0
LINE
  5
A3
  8
2
 10
36.676499999999969
 20
36.20000000000001
 30
0.0
 11
35.476499999999952
 21
35.0
 31
0.0
  0
LINE
  5
A4
  8
2
 10
43.323500000000053
 20
36.20000000000001
 30
0.0
 11
36.676499999999919
 21
36.199999999999989
 31
0.0
  0
LINE
  5
A9
  8
2
 10
36.676499999999891
 20
36.199999999999989
 30
0.0
 11
36.676499999999891
 21
53.0
 31
0.0
  0
LINE
  5
AA
  8
2
 10
36.0
 20
35.523500000000041
 30
0.0
 11
36.0
 21
53.0
 31
0.0
  0
LINE
  5
AB
  8
2
 10
35.0
 20
53.0
 30
0.0
 11
34.5
 21
52.5
 31
0.0
  0
ARC
  5
AC
  8
0
 10
40.000000000000021
 20
-4.5444212537760498
 30
0.0
 40
67.0
 50
96.685414708281741
 51
105.7822144376525
  0
ARC
  5
AD
  8
0
 10
57.814791228132087
 20
58.486390366399547
 30
0.0
 40
1.5
 50
0.0000000000002714
 51
74.2177855623477
  0
ARC
  5
AE
  8
0
 10
57.814791228132123
 20
49.881906494301738
 30
0.0
 40
1.5
 50
282.99999999999972
 51
0.0
  0
ARC
  5
AF
  8
0
 10
22.185208771867732
 20
49.881906494301788
 30
0.0
 40
1.5
 50
179.9999999999998
 51
257.00000000000011
  0
ARC
  5
B0
  8
0
 10
22.185208771867732
 20
58.486390366399512
 30
0.0
 40
1.5
 50
105.7822144376524
 51
179.9999999999994
  0
ARC
  5
B1
  8
0
 10
40.0
 20
-4.5444212537760498
 30
0.0
 40
67.0
 50
74.217785562347473
 51
83.314585291718316
  0
LINE
  5
B2
  8
0
 10
52.0
 20
47.000000000000021
 30
0.0
 11
58.152217809647901
 21
48.420351397123881
 31
0.0
  0
LINE
  5
B3
  8
0
 10
28.0
 20
47.000000000000021
 30
0.0
 11
21.847782190351921
 21
48.42035139712393
 31
0.0
  0
LINE
  5
B4
  8
2
 10
35.0
 20
53.0
 30
0.0
 11
45.0
 21
53.0
 31
0.0
  0
LINE
  5
B5
  8
0
 10
59.314791228132087
 20
58.486390366399583
 30
0.0
 11
59.314791228132123
 21
49.881906494301738
 31
0.0
  0
LINE
  5
B6
  8
0
 10
20.685208771867732
 20
58.486390366399512
 30
0.0
 11
20.685208771867732
 21
49.881906494301802
 31
0.0
  0
LINE
  5
B7
  8
0
 10
48.5
 20
36.299999999999983
 30
0.0
 11
31.50000000000005
 21
36.299999999999983
 31
0.0
  0
LINE
  5
B8
  8
0
 10
32.5
 20
35.29999999999999
 30
0.0
 11
31.5
 21
36.29999999999999
 31
0.0
  0
LINE
  5
B9
  8
0
 10
47.5
 20
35.29999999999999
 30
0.0
 11
48.5
 21
36.29999999999999
 31
0.0
  0
LINE
  5
BA
  8
0
 10
28.000000000000139
 20
47.000000000000007
 30
0.0
 11
51.999999999999922
 21
47.0
 31
0.0
  0
LINE
  5
BB
  8
0
 10
32.5
 20
35.29999999999999
 30
0.0
 11
47.5
 21
35.29999999999999
 31
0.0
  0
LINE
  5
BC
  8
0
 10
45.499999999999993
 20
35.29999999999999
 30
0.0
 11
45.499999999999993
 21
35.0
 31
0.0
  0
LINE
  5
BD
  8
2
 10
34.5
 20
52.5
 30
0.0
 11
34.5
 21
35.29999999999999
 31
0.0
  0
LINE
  5
BE
  8
0
 10
48.5
 20
47.0
 30
0.0
 11
48.5
 21
36.29999999999999
 31
0.0
  0
LINE
  5
BF
  8
0
 10
31.5
 20
47.0
 30
0.0
 11
31.5
 21
36.29999999999999
 31
0.0
  0
LINE
  5
C0
  8
1
 10
40.0
 20
64.499999999999986
 30
0.0
 11
40.0
 21
32.5
 31
0.0
  0
LINE
  5
C1
  8
0
 10
32.200000000000209
 20
62.0
 30
0.0
 11
47.799999999999777
 21
62.0
 31
0.0
  0
LINE
  5
C2
  8
0
 10
34.5
 20
35.0
 30
0.0
 11
45.499999999999993
 21
35.0
 31
0.0
  0
LINE
  5
C3
  8
0
 10
107.3262379212491
 20
59.014843950126441
 30
0.0
 11
107.3262379212491
 21
49.422812789384921
 31
0.0
  0
LINE
  5
C4
  8
0
 10
69.999999999999915
 20
58.288691035843918
 30
0.0
 11
69.999999999999915
 21
50.040099404006277
 31
0.0
  0
ARC
  5
C5
  8
0
 10
71.499999999999929
 20
58.288691035843918
 30
0.0
 40
1.5
 50
106.4060497932865
 51
180.0
  0
ARC
  5
C6
  8
0
 10
71.499999999999915
 20
50.040099404006277
 30
0.0
 40
1.5
 50
180.0
 51
257.0
  0
ARC
  5
C7
  8
0
 10
105.8262379212491
 20
59.014843950126441
 30
0.0
 40
1.5
 50
0.0
 51
76.017710871917018
  0
ARC
  5
C8
  8
0
 10
105.8262379212491
 20
49.422812789384921
 30
0.0
 40
1.5
 50
282.9999999999996
 51
0.0
  0
ARC
  5
C9
  8
0
 10
84.837917533305657
 20
69.738107656361649
 30
0.0
 40
10.63700017070952
 50
248.97808441226849
 51
286.9622510417384
  0
ARC
  5
CA
  8
0
 10
93.548365776939306
 20
41.180185994125218
 30
0.0
 40
19.219771226606088
 50
75.238478096334333
 51
106.9622086622711
  0
ARC
  5
CB
  8
0
 10
103.1981892938134
 20
77.802823556852047
 30
0.0
 40
18.65286633612072
 50
255.23844195038799
 51
282.4288362874932
  0
ARC
  5
CC
  8
0
 10
77.837426601179644
 20
51.522042557210682
 30
0.0
 40
8.8779146635206416
 50
68.978065223234879
 51
108.7636929272574
  0
ARC
  5
CD
  8
0
 10
70.271903730154534
 20
73.791897082012085
 30
0.0
 40
14.64193986128077
 50
269.99999982353842
 51
288.7636557117915
  0
ARC
  5
CE
  8
0
 10
93.548365776939306
 20
67.119728447337422
 30
0.0
 40
19.219771226606088
 50
253.03779133772881
 51
284.7615219036656
  0
ARC
  5
CF
  8
0
 10
84.837917533305657
 20
38.561806785100991
 30
0.0
 40
10.63700017070952
 50
73.037748958261631
 51
111.0219155877314
  0
ARC
  5
D0
  8
0
 10
103.1981892938134
 20
30.4970908846106
 30
0.0
 40
18.65286633612072
 50
77.57116371250676
 51
104.76155804961191
  0
ARC
  5
D1
  8
0
 10
77.837426601179644
 20
56.777871884251958
 30
0.0
 40
8.8779146635206416
 50
251.23630707274251
 51
291.02193477676508
  0
ARC
  5
D2
  8
0
 10
70.271903730154534
 20
34.508017359450562
 30
0.0
 40
14.64193986128077
 50
71.236344288208443
 51
90.000000176461512
  0
LINE
  5
D3
  8
0
 10
100.36649807738659
 20
58.355029849589329
 30
0.0
 11
100.36649807738659
 21
49.944884591873119
 31
0.0
  0
LINE
  5
D4
  8
0
 10
89.931513421597572
 20
59.037353815185902
 30
0.0
 11
89.931513421597572
 21
49.262560626276809
 31
0.0
  0
LINE
  5
D5
  8
0
 10
79.744321645016043
 20
59.165686370046359
 30
0.0
 11
79.744321645016058
 21
49.13422807141604
 31
0.0
  0
LINE
  5
D6
  8
0
 10
73.295148906142813
 20
58.444901570519058
 30
0.0
 11
73.295148906142813
 21
49.855012870943497
 31
0.0
  0
ARC
  5
D7
  8
0
 10
30.206015299397869
 20
52.139196309053787
 30
0.0
 40
8.2975265730971497
 50
75.030323867154237
 51
110.906803471424
  0
ARC
  5
D8
  8
0
 10
49.793984700602117
 20
52.139196309053787
 30
0.0
 40
8.2975265730971497
 50
69.093193114584878
 51
104.9696688444957
  0
ARC
  5
D9
  8
0
 10
40.0
 20
88.768387339928879
 30
0.0
 40
29.61843011919759
 50
255.03032853223479
 51
284.96967350957681
  0
ARC
  5
DA
  8
0
 10
56.768401542549668
 20
70.396881382027701
 30
0.0
 40
11.246924161296389
 50
249.09319594925341
 51
281.55435041805242
  0
ARC
  5
DB
  8
0
 10
23.231598457450328
 20
70.396881382027701
 30
0.0
 40
11.246924161296389
 50
258.44564958194752
 51
290.90680405074647
  0
ARC
  5
DC
  8
0
 10
40.0
 20
19.531527101533751
 30
0.0
 40
29.61843011919759
 50
75.030326490423207
 51
104.9696714677651
  0
ARC
  5
DD
  8
0
 10
49.793984700602117
 20
56.16071813240886
 30
0.0
 40
8.2975265730971497
 50
255.0303311555042
 51
290.90680688541511
  0
ARC
  5
DE
  8
0
 10
30.206015299397869
 20
56.16071813240886
 30
0.0
 40
8.2975265730971497
 50
249.0931965285759
 51
284.96967613284568
  0
ARC
  5
DF
  8
0
 10
56.768401542549668
 20
37.903033059434939
 30
0.0
 40
11.246924161296389
 50
78.445649581947507
 51
110.9068040507465
  0
ARC
  5
E0
  8
0
 10
23.231598457450328
 20
37.903033059434939
 30
0.0
 40
11.246924161296389
 50
69.093195949253413
 51
101.55435041805239
  0
LINE
  5
E1
  8
0
 10
25.767752275359332
 20
58.415434256390057
 30
0.0
 11
25.767752275359332
 21
49.884480185072633
 31
0.0
  0
LINE
  5
E2
  8
0
 10
34.64427832343641
 20
58.622002676301712
 30
0.0
 11
34.64427832343641
 21
49.677911765160879
 31
0.0
  0
LINE
  5
E3
  8
0
 10
45.35572409297361
 20
58.622003105594459
 30
0.0
 11
45.35572409297361
 21
49.677911335868203
 31
0.0
  0
LINE
  5
E4
  8
0
 10
54.23225302177304
 20
58.415433135129213
 30
0.0
 11
54.23225302177304
 21
49.884481306333527
 31
0.0
  0
INSERT
  5
15B
  8
0
  2
BATU
 10
0.0
 20
0.0
 30
0.0
 41
0.001
 42
0.001
 43
0.001
  0
ENDSEC
  0
EOF
