  0
SECTION
  2
HEADER
  9
$ACADVER
  1
AC1009
  9
$INSBASE
 10
0.0
 20
0.0
 30
0.0
  9
$EXTMIN
 10
24.527550208763611
 20
32.491379136326032
 30
-0.0015258207003583
  9
$EXTMAX
 10
155.46226541390891
 20
113.5086825402787
 30
0.0000000349246037
  9
$LIMMIN
 10
0.0
 20
0.0
  9
$LIMMAX
 10
187.5
 20
135.0
  9
$ORTHOMODE
 70
     1
  9
$REGENMODE
 70
     1
  9
$FILLMODE
 70
     1
  9
$QTEXTMODE
 70
     0
  9
$MIRRTEXT
 70
     0
  9
$DRAGMODE
 70
     2
  9
$LTSCALE
 40
5.0
  9
$OSMODE
 70
   231
  9
$ATTMODE
 70
     1
  9
$TEXTSIZE
 40
0.2
  9
$TRACEWID
 40
0.05
  9
$TEXTSTYLE
  7
STANDARD
  9
$CLAYER
  8
0
  9
$CELTYPE
  6
BYLAYER
  9
$CECOLOR
 62
   256
  9
$DIMSCALE
 40
0.5
  9
$DIMASZ
 40
3.0
  9
$DIMEXO
 40
2.0
  9
$DIMDLI
 40
0.38
  9
$DIMRND
 40
0.0
  9
$DIMDLE
 40
0.0
  9
$DIMEXE
 40
2.0
  9
$DIMTP
 40
0.0
  9
$DIMTM
 40
0.0
  9
$DIMTXT
 40
3.2000000000000002
  9
$DIMCEN
 40
0.0
  9
$DIMTSZ
 40
0.0
  9
$DIMTOL
 70
     0
  9
$DIMLIM
 70
     0
  9
$DIMTIH
 70
     0
  9
$DIMTOH
 70
     0
  9
$DIMSE1
 70
     0
  9
$DIMSE2
 70
     0
  9
$DIMTAD
 70
     1
  9
$DIMZIN
 70
     0
  9
$DIMBLK
  1

  9
$DIMASO
 70
     1
  9
$DIMSHO
 70
     0
  9
$DIMPOST
  1

  9
$DIMAPOST
  1

  9
$DIMALT
 70
     0
  9
$DIMALTD
 70
     2
  9
$DIMALTF
 40
25.399999999999999
  9
$DIMLFAC
 40
1.0
  9
$DIMTOFL
 70
     1
  9
$DIMTVP
 40
1.6000000000000001
  9
$DIMTIX
 70
     1
  9
$DIMSOXD
 70
     0
  9
$DIMSAH
 70
     0
  9
$DIMBLK1
  1

  9
$DIMBLK2
  1

  9
$DIMSTYLE
  2
STANDARD
  9
$DIMCLRD
 70
     0
  9
$DIMCLRE
 70
     0
  9
$DIMCLRT
 70
     0
  9
$DIMTFAC
 40
1.0
  9
$DIMGAP
 40
0.09
  9
$LUNITS
 70
     2
  9
$LUPREC
 70
     4
  9
$SKETCHINC
 40
0.1
  9
$FILLETRAD
 40
1.1999999999999991
  9
$AUNITS
 70
     0
  9
$AUPREC
 70
     4
  9
$MENU
  1
E:\r13\win\SUPPORT\ACAD
  9
$ELEVATION
 40
0.0
  9
$PELEVATION
 40
0.0
  9
$THICKNESS
 40
0.0
  9
$LIMCHECK
 70
     0
  9
$BLIPMODE
 70
     1
  9
$CHAMFERA
 40
0.0
  9
$CHAMFERB
 40
0.0
  9
$SKPOLY
 70
     0
  9
$TDCREATE
 40
2449839.789907407
  9
$TDUPDATE
 40
2453236.8301139232
  9
$TDINDWG
 40
0.0001517361
  9
$TDUSRTIMER
 40
0.0001517361
  9
$USRTIMER
 70
     1
  9
$ANGBASE
 50
0.0
  9
$ANGDIR
 70
     0
  9
$PDMODE
 70
     0
  9
$PDSIZE
 40
0.0
  9
$PLINEWID
 40
0.0
  9
$COORDS
 70
     0
  9
$SPLFRAME
 70
     0
  9
$SPLINETYPE
 70
     6
  9
$SPLINESEGS
 70
     8
  9
$ATTDIA
 70
     0
  9
$ATTREQ
 70
     1
  9
$HANDLING
 70
-16383
  9
$HANDSEED
  5
1A8
  9
$SURFTAB1
 70
     6
  9
$SURFTAB2
 70
     6
  9
$SURFTYPE
 70
     6
  9
$SURFU
 70
     6
  9
$SURFV
 70
     6
  9
$UCSNAME
  2

  9
$UCSORG
 10
0.0
 20
0.0
 30
0.0
  9
$UCSXDIR
 10
1.0
 20
0.0
 30
0.0
  9
$UCSYDIR
 10
0.0
 20
1.0
 30
0.0
  9
$PUCSNAME
  2

  9
$PUCSORG
 10
0.0
 20
0.0
 30
0.0
  9
$PUCSXDIR
 10
1.0
 20
0.0
 30
0.0
  9
$PUCSYDIR
 10
0.0
 20
1.0
 30
0.0
  9
$USERI1
 70
     0
  9
$USERI2
 70
     1
  9
$USERI3
 70
     1
  9
$USERI4
 70
     0
  9
$USERI5
 70
     0
  9
$USERR1
 40
0.0
  9
$USERR2
 40
0.0
  9
$USERR3
 40
0.0
  9
$USERR4
 40
0.0
  9
$USERR5
 40
0.0
  9
$WORLDVIEW
 70
     1
  9
$SHADEDGE
 70
     3
  9
$SHADEDIF
 70
    70
  9
$TILEMODE
 70
     1
  9
$MAXACTVP
 70
    16
  9
$PLIMCHECK
 70
     0
  9
$PEXTMIN
 10
1.0000000000000000E+020
 20
1.0000000000000000E+020
 30
1.0000000000000000E+020
  9
$PEXTMAX
 10
-1.0000000000000000E+020
 20
-1.0000000000000000E+020
 30
-1.0000000000000000E+020
  9
$PLIMMIN
 10
0.0
 20
0.0
  9
$PLIMMAX
 10
12.0
 20
9.0
  9
$UNITMODE
 70
     0
  9
$VISRETAIN
 70
     0
  9
$PLINEGEN
 70
     0
  9
$PSLTSCALE
 70
     0
  0
ENDSEC
  0
SECTION
  2
TABLES
  0
TABLE
  2
VPORT
 70
     3
  0
VPORT
  2
*ACTIVE
 70
     0
 10
0.0
 20
0.0
 11
1.0
 21
1.0
 12
89.994907811336304
 22
73.000030838302393
 13
0.0
 23
0.0
 14
5.0
 24
5.0
 15
5.0
 25
5.0
 16
0.0
 26
0.0
 36
1.0
 17
0.0
 27
0.0
 37
0.0
 40
155.95000220286749
 41
0.9407114624505929
 42
50.0
 43
0.0
 44
0.0
 50
0.0
 51
0.0
 71
     0
 72
   500
 73
     1
 74
     0
 75
     0
 76
     0
 77
     0
 78
     2
  0
ENDTAB
  0
TABLE
  2
LTYPE
 70
     3
  0
LTYPE
  2
CONTINUOUS
 70
     0
  3
Solid Line
 72
    65
 73
     0
 40
0.0
  0
LTYPE
  2
CENTER
 70
     0
  3
____ _ ____ _ ____ _ ____ _ ____ _ ____ _ ____
 72
    65
 73
     4
 40
2.0
 49
1.25
 49
-0.25
 49
0.25
 49
-0.25
  0
LTYPE
  2
HIDDEN
 70
     0
  3
_ _ _ _ _ _ _ _ _ _ _ _ _ _ _ _ _ _ _ _ _ _ _
 72
    65
 73
     2
 40
0.375
 49
0.25
 49
-0.125
  0
ENDTAB
  0
TABLE
  2
LAYER
 70
     4
  0
LAYER
  2
0
 70
     0
 62
     7
  6
CONTINUOUS
  0
LAYER
  2
1
 70
     0
 62
     1
  6
CENTER
  0
LAYER
  2
2
 70
     0
 62
     2
  6
HIDDEN
  0
LAYER
  2
3
 70
     0
 62
     3
  6
CONTINUOUS
  0
ENDTAB
  0
TABLE
  2
STYLE
 70
     1
  0
STYLE
  2
STANDARD
 70
     0
 40
0.0
 41
1.0
 50
0.0
 71
     0
 42
0.2
  3
TXT
  4
BIGFONT
  0
ENDTAB
  0
TABLE
  2
VIEW
 70
     1
  0
VIEW
  2
ALL
 70
     0
 40
135.0
 10
110.4957983193277
 20
67.5
 41
0.0
 11
0.0
 21
0.0
 31
1.0
 12
0.0
 22
0.0
 32
0.0
 42
0.0
 43
0.0
 44
0.0
 50
0.0
 71
     0
  0
ENDTAB
  0
TABLE
  2
UCS
 70
     0
  0
ENDTAB
  0
TABLE
  2
APPID
 70
     1
  0
APPID
  2
ACAD
 70
     0
  0
ENDTAB
  0
TABLE
  2
DIMSTYLE
 70
     1
  0
DIMSTYLE
  2
STANDARD
 70
     0
  3

  4

  5

  6

  7

 40
1.0
 41
0.18
 42
0.0625
 43
0.38
 44
0.18
 45
0.0
 46
0.0
 47
0.0
 48
0.0
140
0.18
141
0.09
142
0.0
143
25.399999999999999
144
1.0
145
0.0
146
1.0
147
0.09
 71
     0
 72
     0
 73
     1
 74
     1
 75
     0
 76
     0
 77
     0
 78
     0
170
     0
171
     2
172
     0
173
     0
174
     0
175
     0
176
     0
177
     0
178
     0
  0
ENDTAB
  0
ENDSEC
  0
SECTION
  2
BLOCKS
  0
BLOCK
  8
0
  2
$MODEL_SPACE
 70
     0
 10
0.0
 20
0.0
 30
0.0
  3
$MODEL_SPACE
  1

  0
ENDBLK
  5
150
  8
0
  0
BLOCK
 67
     1
  8
0
  2
$PAPER_SPACE
 70
     0
 10
0.0
 20
0.0
 30
0.0
  3
$PAPER_SPACE
  1

  0
ENDBLK
  5
14E
 67
     1
  8
0
  0
ENDSEC
  0
SECTION
  2
ENTITIES
  0
LINE
  5
36
  8
0
 10
133.30000000000001
 20
58.000000000000007
 30
0.0
 11
146.69999999999939
 21
58.000000000000043
 31
0.0
  0
LINE
  5
37
  8
0
 10
124.5383783207532
 20
55.254708516406417
 30
0.0
 11
124.5383783207532
 21
47.330871913264041
 31
0.0
  0
LINE
  5
38
  8
0
 10
155.46162167924669
 20
55.254708516406367
 30
0.0
 11
155.46162167924669
 21
47.330871913264019
 31
0.0
  0
LINE
  5
39
  8
1
 10
140.0
 20
62.500000000000071
 30
0.0
 11
140.0
 21
32.499999999999979
 31
0.0
  0
LINE
  5
3A
  8
0
 10
147.5
 20
45.0
 30
0.0
 11
147.5
 21
36.09999999999998
 31
0.0
  0
LINE
  5
3B
  8
0
 10
132.49999999999989
 20
36.099999999999987
 30
0.0
 11
133.30000000000001
 21
35.29999999999999
 31
0.0
  0
LINE
  5
3C
  8
0
 10
146.69999999999999
 20
35.300000000000011
 30
0.0
 11
147.5
 21
36.099999999999987
 31
0.0
  0
LINE
  5
3D
  8
0
 10
147.5
 20
36.099999999999987
 30
0.0
 11
132.5
 21
36.099999999999987
 31
0.0
  0
LINE
  5
3E
  8
0
 10
133.30000000000001
 20
35.299999999999983
 30
0.0
 11
146.69999999999999
 21
35.300000000000011
 31
0.0
  0
LINE
  5
3F
  8
0
 10
130.49999999999989
 20
45.0
 30
0.0
 11
149.49999999999989
 21
45.0
 31
0.0
  0
LINE
  5
40
  8
0
 10
130.50000000000011
 20
44.999999999999993
 30
0.0
 11
125.4684357750896
 21
46.161628131137157
 31
0.0
  0
LINE
  5
41
  8
0
 10
149.49999999999989
 20
44.999999999999993
 30
0.0
 11
154.5315629444593
 21
46.161627835521742
 31
0.0
  0
ARC
  5
42
  8
0
 10
139.9999999999998
 20
4.417260241753211
 30
0.0
 40
54.0
 50
74.329397395941797
 51
82.872712118003349
  0
ARC
  5
43
  8
0
 10
139.9999999999998
 20
4.417260241753211
 30
0.0
 40
54.0
 50
97.12728788199685
 51
105.6706018733564
  0
ARC
  5
44
  8
0
 10
125.7383783207532
 20
55.254708516406417
 30
0.0
 40
1.1999999999999991
 50
105.6706026040579
 51
180.0
  0
ARC
  5
45
  8
0
 10
125.7383783207532
 20
47.330871913264041
 30
0.0
 40
1.1999999999999991
 50
180.0
 51
257.0
  0
ARC
  5
46
  8
0
 10
154.2616216792467
 20
47.330871913264019
 30
0.0
 40
1.1999999999999991
 50
282.99999999999977
 51
0.0000000000000763
  0
ARC
  5
47
  8
0
 10
154.2616216792467
 20
55.254708516406367
 30
0.0
 40
1.1999999999999991
 50
0.0
 51
74.329397395942053
  0
ARC
  5
48
  8
0
 10
140.0
 20
39.542790214835179
 30
0.0
 40
17.0
 50
76.328481650994476
 51
103.671518349027
  0
ARC
  5
49
  8
0
 10
147.09066287451321
 20
68.692790214835199
 30
0.0
 40
13.0
 50
256.32844517963468
 51
283.67153343129979
  0
ARC
  5
4A
  8
0
 10
154.1813257490264
 20
39.5427902148352
 30
0.0
 40
17.0
 50
90.257719070020428
 51
103.6715347053707
  0
ARC
  5
4B
  8
0
 10
154.1813257490264
 20
63.042790214835179
 30
0.0
 40
17.0
 50
256.32846529462921
 51
269.45671064417547
  0
ARC
  5
4C
  8
0
 10
147.09066287451321
 20
33.892790214835188
 30
0.0
 40
13.0
 50
76.328466568700108
 51
103.6715548203652
  0
LINE
  5
4D
  8
0
 10
146.46563777521709
 20
54.706749187251582
 30
0.0
 11
146.46563777521709
 21
47.87883124241867
 31
0.0
  0
LINE
  5
4E
  8
0
 10
151.46563777521709
 20
55.31063847732517
 30
0.0
 11
151.46563777521709
 21
47.274941952345202
 31
0.0
  0
LINE
  5
4F
  8
0
 10
132.49999999999989
 20
36.099999999999987
 30
0.0
 11
132.49999999999989
 21
45.0
 31
0.0
  0
ARC
  5
50
  8
0
 10
132.9093371254867
 20
68.692790214835199
 30
0.0
 40
13.0
 50
256.32846656870009
 51
283.67155482036532
  0
ARC
  5
51
  8
0
 10
132.9093371254867
 20
33.892790214835188
 30
0.0
 40
13.0
 50
76.328445179634755
 51
103.67153343129991
  0
ARC
  5
52
  8
0
 10
125.8186742509735
 20
63.042790214835179
 30
0.0
 40
17.0
 50
270.54328935582441
 51
283.67153470537068
  0
ARC
  5
53
  8
0
 10
125.8186742509735
 20
39.5427902148352
 30
0.0
 40
17.0
 50
76.328465294629282
 51
89.742280929979586
  0
LINE
  5
54
  8
0
 10
128.5343622247828
 20
55.31063847732517
 30
0.0
 11
128.5343622247828
 21
47.274941952345202
 31
0.0
  0
LINE
  5
55
  8
0
 10
133.5343622247828
 20
54.706749187251582
 30
0.0
 11
133.5343622247828
 21
47.87883124241867
 31
0.0
  0
ARC
  5
56
  8
0
 10
140.0
 20
63.0427902148352
 30
0.0
 40
17.00000000000005
 50
256.32846850884681
 51
283.67153673547449
  0
LINE
  5
57
  8
0
 10
82.5
 20
36.099999999999987
 30
0.0
 11
82.500000000000014
 21
45.0
 31
0.0
  0
ARC
  5
58
  8
0
 10
89.999999999999844
 20
4.417260241753211
 30
0.0
 40
54.0
 50
97.12728788199685
 51
106.27829133022411
  0
ARC
  5
59
  8
0
 10
89.999999999999844
 20
4.417260241753211
 30
0.0
 40
54.0
 50
76.083067596285986
 51
82.872712118003349
  0
LINE
  5
5A
  8
0
 10
99.499999999999943
 20
44.999999999999993
 30
0.0
 11
102.96912820333721
 21
45.80091135308713
 31
0.0
  0
LINE
  5
5B
  8
0
 10
80.500000000000085
 20
44.999999999999993
 30
0.0
 11
74.930058734787366
 21
46.285922264575277
 31
0.0
  0
LINE
  5
5C
  8
0
 10
80.5
 20
45.0
 30
0.0
 11
99.499999999999943
 21
45.0
 31
0.0
  0
LINE
  5
5D
  8
0
 10
83.300000000000026
 20
35.299999999999983
 30
0.0
 11
96.700000000000017
 21
35.300000000000011
 31
0.0
  0
LINE
  5
5E
  8
0
 10
97.500000000000014
 20
36.099999999999987
 30
0.0
 11
82.500000000000028
 21
36.099999999999987
 31
0.0
  0
LINE
  5
5F
  8
0
 10
96.700000000000017
 20
35.300000000000011
 30
0.0
 11
97.500000000000014
 21
36.099999999999987
 31
0.0
  0
LINE
  5
60
  8
0
 10
82.5
 20
36.099999999999987
 30
0.0
 11
83.299999999999997
 21
35.29999999999999
 31
0.0
  0
LINE
  5
61
  8
0
 10
97.5
 20
45.0
 30
0.0
 11
97.5
 21
36.09999999999998
 31
0.0
  0
LINE
  5
62
  8
1
 10
90.0
 20
60.500000000000007
 30
0.0
 11
90.0
 21
32.5
 31
0.0
  0
LINE
  5
63
  8
0
 10
83.300000000000082
 20
58.000000000000007
 30
0.0
 11
96.699999999999434
 21
58.000000000000043
 31
0.0
  0
ARC
  5
64
  8
0
 10
97.272593600987264
 20
72.617258401675372
 30
0.0
 40
11.0
 50
84.165123546903217
 51
131.83487649934079
  0
ARC
  5
65
  8
0
 10
70.960102766250259
 20
81.166704930829283
 30
0.0
 40
11.0
 50
12.16512354690321
 51
59.834876499340801
  0
ARC
  5
66
  8
0
 10
70.960102766250301
 20
108.8332950691709
 30
0.0
 40
11.0
 50
300.1651235469032
 51
347.83487649934079
  0
ARC
  5
67
  8
0
 10
97.272593600987335
 20
117.3827415983247
 30
0.0
 40
11.0
 50
228.16512354690309
 51
275.83487649934068
  0
ARC
  5
68
  8
0
 10
113.5346072655248
 20
95.000000000000057
 30
0.0
 40
11.0
 50
156.1651235469032
 51
203.83487649934079
  0
ARC
  5
69
  8
0
 10
86.600813061875485
 20
84.538378320753196
 30
0.0
 40
5.0
 50
192.1651049442882
 51
311.8348931207114
  0
ARC
  5
6A
  8
0
 10
79.000000000000014
 20
95.000000000000014
 30
0.0
 40
5.0
 50
120.1650870538645
 51
239.83488775054551
  0
ARC
  5
6B
  8
0
 10
86.600813061875513
 20
105.4616216792467
 30
0.0
 40
5.0
 50
48.165135593921377
 51
167.83488700672041
  0
ARC
  5
6C
  8
0
 10
98.899186938124473
 20
101.4656377752171
 30
0.0
 40
5.0
 50
336.16510960475642
 51
95.834913102143673
  0
ARC
  5
6D
  8
0
 10
98.899186938124586
 20
88.534362224782612
 30
0.0
 40
5.0
 50
264.16509897617891
 51
23.83486183017483
  0
LINE
  5
6E
  8
1
 10
108.5
 20
95.0
 30
0.0
 11
71.5
 21
95.000000000000014
 31
0.0
  0
LINE
  5
6F
  8
1
 10
90.0
 20
76.500000000000043
 30
0.0
 11
90.000000000000028
 21
113.5
 31
0.0
  0
LINE
  5
70
  8
0
 10
32.5
 20
36.099999999999987
 30
0.0
 11
32.500000000000007
 21
45.0
 31
0.0
  0
ARC
  5
71
  8
0
 10
54.261621679246701
 20
55.254708516406367
 30
0.0
 40
1.1999999999999991
 50
0.0
 51
74.329397395942053
  0
ARC
  5
72
  8
0
 10
54.261621679246701
 20
47.330871913264019
 30
0.0
 40
1.1999999999999991
 50
282.99999999999977
 51
0.0000000000000763
  0
ARC
  5
73
  8
0
 10
25.73837832075321
 20
47.330871913264041
 30
0.0
 40
1.1999999999999991
 50
180.0
 51
257.0
  0
ARC
  5
74
  8
0
 10
25.73837832075321
 20
55.254708516406417
 30
0.0
 40
1.1999999999999991
 50
105.6706026040579
 51
180.0
  0
ARC
  5
75
  8
0
 10
39.999999999999851
 20
4.417260241753211
 30
0.0
 40
54.0
 50
97.12728788199685
 51
105.6706018733564
  0
ARC
  5
76
  8
0
 10
39.999999999999851
 20
4.417260241753211
 30
0.0
 40
54.0
 50
74.329397395941797
 51
82.872712118003349
  0
LINE
  5
77
  8
0
 10
49.499999999999943
 20
44.999999999999993
 30
0.0
 11
54.531562944459317
 21
46.161627835521742
 31
0.0
  0
LINE
  5
78
  8
0
 10
30.500000000000099
 20
44.999999999999993
 30
0.0
 11
25.468435775089631
 21
46.161628131137157
 31
0.0
  0
LINE
  5
79
  8
0
 10
30.5
 20
45.0
 30
0.0
 11
49.499999999999943
 21
45.0
 31
0.0
  0
LINE
  5
7A
  8
0
 10
33.30000000000004
 20
35.299999999999983
 30
0.0
 11
46.70000000000001
 21
35.300000000000011
 31
0.0
  0
LINE
  5
7B
  8
0
 10
47.500000000000007
 20
36.099999999999987
 30
0.0
 11
32.500000000000028
 21
36.099999999999987
 31
0.0
  0
LINE
  5
7C
  8
0
 10
46.70000000000001
 20
35.300000000000011
 30
0.0
 11
47.500000000000007
 21
36.099999999999987
 31
0.0
  0
LINE
  5
7D
  8
0
 10
32.5
 20
36.099999999999987
 30
0.0
 11
33.299999999999997
 21
35.29999999999999
 31
0.0
  0
LINE
  5
7E
  8
0
 10
47.5
 20
45.0
 30
0.0
 11
47.5
 21
36.09999999999998
 31
0.0
  0
LINE
  5
7F
  8
1
 10
40.0
 20
60.500000000000007
 30
0.0
 11
40.0
 21
32.5
 31
0.0
  0
LINE
  5
80
  8
0
 10
55.461621679246718
 20
55.254708516406367
 30
0.0
 11
55.461621679246718
 21
47.330871913264019
 31
0.0
  0
LINE
  5
81
  8
0
 10
24.53837832075321
 20
55.254708516406417
 30
0.0
 11
24.53837832075321
 21
47.330871913264041
 31
0.0
  0
LINE
  5
82
  8
0
 10
33.300000000000082
 20
58.000000000000007
 30
0.0
 11
46.699999999999442
 21
58.000000000000043
 31
0.0
  0
LINE
  5
83
  8
0
 10
74.0
 20
55.100590834759871
 30
0.0
 11
74.0
 21
47.455166342317568
 31
0.0
  0
LINE
  5
84
  8
0
 10
103.8991869381245
 20
55.667339764721362
 30
0.0
 11
103.8991869381245
 21
46.970155430829422
 31
0.0
  0
ARC
  5
85
  8
0
 10
75.200000000000003
 20
55.100590834759871
 30
0.0
 40
1.1999999999999991
 50
106.27829133022411
 51
180.0
  0
ARC
  5
86
  8
0
 10
75.200000000000003
 20
47.455166342317568
 30
0.0
 40
1.1999999999999991
 50
180.00000000000011
 51
256.99999999999972
  0
ARC
  5
87
  8
0
 10
102.6991869381245
 20
46.970155430829422
 30
0.0
 40
1.1999999999999991
 50
283.0
 51
359.99999999999972
  0
ARC
  5
88
  8
0
 10
102.6991869381246
 20
55.667339764721362
 30
0.0
 40
1.1999999999999991
 50
0.0
 51
76.083067596285147
  0
ARC
  5
89
  8
0
 10
85.856545299827218
 20
65.839502412211445
 30
0.0
 40
10.178264809545301
 50
252.3186341429759
 51
284.30143016210218
  0
ARC
  5
8A
  8
0
 10
92.883363782341405
 20
38.275042669627787
 30
0.0
 40
18.267747545207381
 50
75.704401834974277
 51
104.30140904335759
  0
ARC
  5
8B
  8
0
 10
99.661470326175873
 20
64.875176975258881
 30
0.0
 40
9.1823867604236753
 50
255.7044401691862
 51
294.84722086505258
  0
ARC
  5
8C
  8
0
 10
80.188689589110425
 20
48.059818637948688
 30
0.0
 40
8.4829715768864844
 50
72.318598498920778
 51
108.6892189005474
  0
ARC
  5
8D
  8
0
 10
75.023270066443061
 20
63.329853252745181
 30
0.0
 40
7.6370630379099778
 50
263.69036059456749
 51
288.68922065489301
  0
ARC
  5
8E
  8
0
 10
80.188689589110425
 20
54.525761791721692
 30
0.0
 40
8.4829715768864844
 50
251.31078109945261
 51
287.68140150107922
  0
ARC
  5
8F
  8
0
 10
92.883363782341405
 20
64.310537760042592
 30
0.0
 40
18.267747545207381
 50
255.69859095664239
 51
284.29559816502569
  0
ARC
  5
90
  8
0
 10
85.856545299827218
 20
36.746078017458942
 30
0.0
 40
10.178264809545301
 50
75.698569837897793
 51
107.68136585702401
  0
ARC
  5
91
  8
0
 10
99.661470326175873
 20
37.710403454411498
 30
0.0
 40
9.1823867604236753
 50
65.15277913494738
 51
104.2955598308137
  0
ARC
  5
92
  8
0
 10
75.023270066443061
 20
39.255727176925198
 30
0.0
 40
7.6370630379099778
 50
71.31077934510698
 51
96.309639405432534
  0
LINE
  5
93
  8
0
 10
76.487534136997112
 20
54.817815385552862
 30
0.0
 11
76.487534136997112
 21
47.767765044117631
 31
0.0
  0
LINE
  5
94
  8
0
 10
81.713090599654464
 20
55.385872499308448
 30
0.0
 11
81.713090599654436
 21
47.199707930362202
 31
0.0
  0
LINE
  5
95
  8
0
 10
89.935744768804966
 20
55.289349809092982
 30
0.0
 11
89.935744768804966
 21
47.296230620577447
 31
0.0
  0
LINE
  5
96
  8
0
 10
98.390874184222383
 20
54.7723760971407
 30
0.0
 11
98.390874184222383
 21
47.81320433252931
 31
0.0
  0
ARC
  5
97
  8
0
 10
32.0809133920636
 20
48.689295227581809
 30
0.0
 40
7.8728303550357364
 50
77.470591946175148
 51
109.0723504464044
  0
ARC
  5
98
  8
0
 10
47.919086607936393
 20
48.689295227581809
 30
0.0
 40
7.8728303550357364
 50
70.927685890963403
 51
102.5294080538267
  0
ARC
  5
99
  8
0
 10
40.0
 20
84.323522833188733
 30
0.0
 40
28.63073261835353
 50
257.47063580719259
 51
282.52936419280729
  0
ARC
  5
9A
  8
0
 10
53.09396149032348
 20
63.656813535889547
 30
0.0
 40
7.9640233210543547
 50
250.9276497616404
 51
285.46005937599062
  0
ARC
  5
9B
  8
0
 10
26.90603850967652
 20
63.656813535889547
 30
0.0
 40
7.9640233210543547
 50
254.53994062400929
 51
289.07235023835949
  0
ARC
  5
9C
  8
0
 10
40.0
 20
18.26205759648165
 30
0.0
 40
28.63073261835353
 50
77.470635807192579
 51
102.52936419280741
  0
ARC
  5
9D
  8
0
 10
47.919086607936393
 20
53.896285202088578
 30
0.0
 40
7.8728303550357364
 50
257.47059194617322
 51
289.07231410903648
  0
ARC
  5
9E
  8
0
 10
32.0809133920636
 20
53.896285202088578
 30
0.0
 40
7.8728303550357364
 50
250.92764955359559
 51
282.52940805382491
  0
ARC
  5
9F
  8
0
 10
53.09396149032348
 20
38.928766893780832
 30
0.0
 40
7.9640233210543547
 50
74.539940624009333
 51
109.0723502383595
  0
ARC
  5
A0
  8
0
 10
26.90603850967652
 20
38.928766893780832
 30
0.0
 40
7.9640233210543547
 50
70.927649761640424
 51
105.4600593759906
  0
LINE
  5
A1
  8
0
 10
35.677094226980529
 20
55.009826355638261
 30
0.0
 11
35.677094226980529
 21
47.575754074032133
 31
0.0
  0
LINE
  5
A2
  8
0
 10
44.322905884616631
 20
55.009826372095532
 30
0.0
 11
44.322905884616631
 21
47.575754057574848
 31
0.0
  0
LINE
  5
A3
  8
0
 10
51.515267318115747
 20
54.832900639048219
 30
0.0
 11
51.515267318115747
 21
47.752679790622267
 31
0.0
  0
LINE
  5
A4
  8
0
 10
28.48473267320523
 20
54.8329006374953
 30
0.0
 11
28.48473267320523
 21
47.75267979217498
 31
0.0
  0
LINE
  5
AC
  8
2
 10
137.5414999999999
 20
36.0
 30
0.0
 11
142.45849999999999
 21
35.999999999999979
 31
0.0
  0
LINE
  5
AD
  8
2
 10
136.54149999999979
 20
34.999999999999979
 30
0.0
 11
137.5414999999999
 21
36.0
 31
0.0
  0
LINE
  5
AE
  8
2
 10
137.5414999999999
 20
36.0
 30
0.0
 11
137.5414999999999
 21
47.000000000000007
 31
0.0
  0
LINE
  5
AF
  8
2
 10
137.0
 20
35.458500000000072
 30
0.0
 11
137.0
 21
47.000000000000007
 31
0.0
  0
ARC
  5
B0
  8
2
 10
135.49999999999989
 20
47.499999999999993
 30
0.0
 40
0.5
 50
180.0
 51
269.99999999999989
  0
LINE
  5
B1
  8
2
 10
133.7999999999999
 20
58.000000000000028
 30
0.0
 11
134.99999999999989
 21
56.799999999999983
 31
0.0
  0
LINE
  5
B2
  8
2
 10
134.99999999999989
 20
56.799999999999983
 30
0.0
 11
134.99999999999989
 21
47.499999999999993
 31
0.0
  0
LINE
  5
B3
  8
2
 10
135.49999999999989
 20
47.000000000000007
 30
0.0
 11
144.5
 21
47.000000000000007
 31
0.0
  0
LINE
  5
B4
  8
0
 10
144.5
 20
35.29999999999999
 30
0.0
 11
144.5
 21
34.999999999999979
 31
0.0
  0
LINE
  5
B5
  8
2
 10
135.49999999999989
 20
46.499999999999972
 30
0.0
 11
135.49999999999989
 21
35.29999999999999
 31
0.0
  0
LINE
  5
B6
  8
0
 10
135.49999999999989
 20
34.999999999999979
 30
0.0
 11
144.5
 21
34.999999999999979
 31
0.0
  0
LINE
  5
B7
  8
2
 10
134.99999999999989
 20
56.800000000000047
 30
0.0
 11
145.0
 21
56.800000000000047
 31
0.0
  0
LINE
  5
B8
  8
2
 10
135.99999999999989
 20
47.000000000000007
 30
0.0
 11
135.49999999999989
 21
46.499999999999972
 31
0.0
  0
LINE
  5
B9
  8
0
 10
135.49999999999989
 20
35.29999999999999
 30
0.0
 11
135.49999999999989
 21
34.999999999999979
 31
0.0
  0
LINE
  5
BA
  8
2
 10
143.0
 20
35.458500000000072
 30
0.0
 11
143.0
 21
47.000000000000007
 31
0.0
  0
LINE
  5
BB
  8
2
 10
142.45849999999999
 20
36.0
 30
0.0
 11
142.45849999999999
 21
47.000000000000007
 31
0.0
  0
LINE
  5
BC
  8
2
 10
143.4585000000001
 20
34.999999999999979
 30
0.0
 11
142.45849999999999
 21
36.0
 31
0.0
  0
LINE
  5
BD
  8
2
 10
144.0
 20
47.000000000000007
 30
0.0
 11
144.5
 21
46.499999999999972
 31
0.0
  0
ARC
  5
BE
  8
2
 10
144.5
 20
47.499999999999993
 30
0.0
 40
0.5
 50
270.00000000000011
 51
0.0000000000000254
  0
LINE
  5
BF
  8
2
 10
145.0
 20
56.799999999999983
 30
0.0
 11
145.0
 21
47.499999999999993
 31
0.0
  0
LINE
  5
C0
  8
2
 10
146.19999999999999
 20
58.000000000000028
 30
0.0
 11
145.0
 21
56.799999999999983
 31
0.0
  0
LINE
  5
C1
  8
2
 10
144.5
 20
46.499999999999972
 30
0.0
 11
144.5
 21
35.29999999999999
 31
0.0
  0
LINE
  5
C2
  8
2
 10
93.458500000000186
 20
34.999999999999979
 30
0.0
 11
92.458500000000086
 21
36.0
 31
0.0
  0
LINE
  5
C3
  8
0
 10
85.499999999999943
 20
35.29999999999999
 30
0.0
 11
85.499999999999943
 21
34.999999999999979
 31
0.0
  0
LINE
  5
C4
  8
0
 10
85.499999999999943
 20
34.999999999999979
 30
0.0
 11
94.500000000000014
 21
34.999999999999979
 31
0.0
  0
LINE
  5
C5
  8
0
 10
94.500000000000014
 20
35.29999999999999
 30
0.0
 11
94.500000000000014
 21
34.999999999999979
 31
0.0
  0
LINE
  5
C6
  8
2
 10
86.541499999999857
 20
34.999999999999979
 30
0.0
 11
87.541499999999928
 21
36.0
 31
0.0
  0
LINE
  5
C7
  8
2
 10
87.541499999999928
 20
36.0
 30
0.0
 11
92.458500000000086
 21
35.999999999999979
 31
0.0
  0
LINE
  5
C8
  8
2
 10
94.500000000000085
 20
46.499999999999972
 30
0.0
 11
94.500000000000085
 21
35.29999999999999
 31
0.0
  0
LINE
  5
C9
  8
2
 10
93.000000000000014
 20
35.458500000000072
 30
0.0
 11
93.000000000000014
 21
47.000000000000007
 31
0.0
  0
LINE
  5
CA
  8
2
 10
92.458500000000086
 20
36.0
 30
0.0
 11
92.458500000000086
 21
47.000000000000007
 31
0.0
  0
LINE
  5
CB
  8
2
 10
87.000000000000014
 20
35.458500000000072
 30
0.0
 11
87.000000000000014
 21
47.000000000000007
 31
0.0
  0
LINE
  5
CC
  8
2
 10
87.541499999999928
 20
36.0
 30
0.0
 11
87.541499999999928
 21
47.000000000000007
 31
0.0
  0
LINE
  5
CD
  8
2
 10
85.499999999999943
 20
46.499999999999972
 30
0.0
 11
85.499999999999943
 21
35.29999999999999
 31
0.0
  0
LINE
  5
CE
  8
2
 10
85.499999999999943
 20
47.000000000000007
 30
0.0
 11
94.500000000000085
 21
47.000000000000007
 31
0.0
  0
LINE
  5
CF
  8
2
 10
84.999999999999986
 20
56.799999999999983
 30
0.0
 11
84.999999999999986
 21
47.499999999999993
 31
0.0
  0
ARC
  5
D0
  8
2
 10
85.499999999999943
 20
47.499999999999993
 30
0.0
 40
0.5
 50
180.0
 51
269.99999999999989
  0
ARC
  5
D1
  8
2
 10
94.500000000000085
 20
47.499999999999993
 30
0.0
 40
0.5
 50
270.00000000000011
 51
0.0000000000000254
  0
LINE
  5
D2
  8
2
 10
95.000000000000057
 20
56.799999999999983
 30
0.0
 11
95.000000000000057
 21
47.499999999999993
 31
0.0
  0
LINE
  5
D3
  8
2
 10
96.200000000000088
 20
58.000000000000028
 30
0.0
 11
95.000000000000057
 21
56.799999999999983
 31
0.0
  0
LINE
  5
D4
  8
2
 10
84.999999999999986
 20
56.800000000000047
 30
0.0
 11
95.000000000000057
 21
56.800000000000047
 31
0.0
  0
LINE
  5
D5
  8
2
 10
83.799999999999926
 20
58.000000000000028
 30
0.0
 11
84.999999999999986
 21
56.799999999999983
 31
0.0
  0
LINE
  5
D6
  8
2
 10
43.45850000000015
 20
34.999999999999979
 30
0.0
 11
42.458500000000072
 21
36.0
 31
0.0
  0
LINE
  5
D7
  8
0
 10
35.499999999999943
 20
35.29999999999999
 30
0.0
 11
35.499999999999943
 21
34.999999999999979
 31
0.0
  0
LINE
  5
D8
  8
0
 10
35.499999999999943
 20
34.999999999999979
 30
0.0
 11
44.5
 21
34.999999999999979
 31
0.0
  0
LINE
  5
D9
  8
0
 10
44.5
 20
35.29999999999999
 30
0.0
 11
44.5
 21
34.999999999999979
 31
0.0
  0
LINE
  5
DA
  8
2
 10
36.541499999999843
 20
34.999999999999979
 30
0.0
 11
37.541499999999921
 21
36.0
 31
0.0
  0
LINE
  5
DB
  8
2
 10
37.541499999999921
 20
36.0
 30
0.0
 11
42.458500000000072
 21
35.999999999999979
 31
0.0
  0
LINE
  5
DC
  8
2
 10
44.50000000000005
 20
46.499999999999972
 30
0.0
 11
44.50000000000005
 21
35.29999999999999
 31
0.0
  0
LINE
  5
DD
  8
2
 10
43.0
 20
35.458500000000072
 30
0.0
 11
43.0
 21
47.000000000000007
 31
0.0
  0
LINE
  5
DE
  8
2
 10
42.458500000000072
 20
36.0
 30
0.0
 11
42.458500000000072
 21
47.000000000000007
 31
0.0
  0
LINE
  5
DF
  8
2
 10
37.0
 20
35.458500000000072
 30
0.0
 11
37.0
 21
47.000000000000007
 31
0.0
  0
LINE
  5
E0
  8
2
 10
37.541499999999921
 20
36.0
 30
0.0
 11
37.541499999999921
 21
47.000000000000007
 31
0.0
  0
LINE
  5
E1
  8
2
 10
35.499999999999943
 20
46.499999999999972
 30
0.0
 11
35.499999999999943
 21
35.29999999999999
 31
0.0
  0
LINE
  5
E2
  8
2
 10
35.499999999999943
 20
47.000000000000007
 30
0.0
 11
44.50000000000005
 21
47.000000000000007
 31
0.0
  0
LINE
  5
E3
  8
2
 10
34.999999999999972
 20
56.799999999999983
 30
0.0
 11
34.999999999999972
 21
47.499999999999993
 31
0.0
  0
ARC
  5
E4
  8
2
 10
35.499999999999943
 20
47.499999999999993
 30
0.0
 40
0.5
 50
180.0
 51
269.99999999999989
  0
ARC
  5
E5
  8
2
 10
44.50000000000005
 20
47.499999999999993
 30
0.0
 40
0.5
 50
270.00000000000011
 51
0.0000000000000254
  0
LINE
  5
E6
  8
2
 10
45.000000000000021
 20
56.799999999999983
 30
0.0
 11
45.000000000000021
 21
47.499999999999993
 31
0.0
  0
LINE
  5
E7
  8
2
 10
46.200000000000067
 20
58.000000000000028
 30
0.0
 11
45.000000000000021
 21
56.799999999999983
 31
0.0
  0
LINE
  5
E8
  8
2
 10
34.999999999999972
 20
56.800000000000047
 30
0.0
 11
45.000000000000021
 21
56.800000000000047
 31
0.0
  0
LINE
  5
E9
  8
2
 10
33.799999999999919
 20
58.000000000000028
 30
0.0
 11
34.999999999999972
 21
56.799999999999983
 31
0.0
  0
CIRCLE
  5
EA
  8
0
 10
90.000000000000014
 20
95.000000000000014
 30
0.0
 40
2.458499999999999
  0
CIRCLE
  5
EB
  8
3
 10
90.000000000000014
 20
95.000000000000014
 30
0.0
 40
3.0
  0
CIRCLE
  5
EC
  8
0
 10
90.000000000000014
 20
95.000000000000014
 30
0.0
 40
4.9999999999999707
  0
CIRCLE
  5
ED
  8
0
 10
90.000000000000014
 20
95.000000000000014
 30
0.0
 40
6.1999999999999877
  0
ENDSEC
  0
EOF
