  0
SECTION
  2
HEADER
  9
$ACADVER
  1
AC1009
  9
$INSBASE
 10
0.0
 20
0.0
 30
0.0
  9
$EXTMIN
 10
117.7159128986718
 20
78.207550768516384
 30
-0.0015258207003583
  9
$EXTMAX
 10
202.486878125331
 20
220.32257137159181
 30
0.0000000349246037
  9
$LIMMIN
 10
0.0
 20
0.0
  9
$LIMMAX
 10
385.0
 20
270.0
  9
$ORTHOMODE
 70
     1
  9
$REGENMODE
 70
     1
  9
$FILLMODE
 70
     1
  9
$QTEXTMODE
 70
     0
  9
$MIRRTEXT
 70
     0
  9
$DRAGMODE
 70
     2
  9
$LTSCALE
 40
10.0
  9
$OSMODE
 70
   231
  9
$ATTMODE
 70
     1
  9
$TEXTSIZE
 40
4.0
  9
$TRACEWID
 40
0.05
  9
$TEXTSTYLE
  7
STANDARD
  9
$CLAYER
  8
0
  9
$CELTYPE
  6
BYLAYER
  9
$CECOLOR
 62
   256
  9
$DIMSCALE
 40
1.0
  9
$DIMASZ
 40
3.0
  9
$DIMEXO
 40
1.0
  9
$DIMDLI
 40
6.0
  9
$DIMRND
 40
0.0
  9
$DIMDLE
 40
0.0
  9
$DIMEXE
 40
1.0
  9
$DIMTP
 40
495.0
  9
$DIMTM
 40
0.0
  9
$DIMTXT
 40
3.0
  9
$DIMCEN
 40
0.0
  9
$DIMTSZ
 40
0.0
  9
$DIMTOL
 70
     0
  9
$DIMLIM
 70
     0
  9
$DIMTIH
 70
     0
  9
$DIMTOH
 70
     0
  9
$DIMSE1
 70
     0
  9
$DIMSE2
 70
     0
  9
$DIMTAD
 70
     1
  9
$DIMZIN
 70
     0
  9
$DIMBLK
  1

  9
$DIMASO
 70
     1
  9
$DIMSHO
 70
     0
  9
$DIMPOST
  1

  9
$DIMAPOST
  1

  9
$DIMALT
 70
     0
  9
$DIMALTD
 70
     2
  9
$DIMALTF
 40
25.399999999999999
  9
$DIMLFAC
 40
1.0
  9
$DIMTOFL
 70
     1
  9
$DIMTVP
 40
0.0
  9
$DIMTIX
 70
     1
  9
$DIMSOXD
 70
     0
  9
$DIMSAH
 70
     0
  9
$DIMBLK1
  1

  9
$DIMBLK2
  1

  9
$DIMSTYLE
  2
STANDARD
  9
$DIMCLRD
 70
     0
  9
$DIMCLRE
 70
     0
  9
$DIMCLRT
 70
     4
  9
$DIMTFAC
 40
1.0
  9
$DIMGAP
 40
1.0
  9
$LUNITS
 70
     2
  9
$LUPREC
 70
     4
  9
$SKETCHINC
 40
0.1
  9
$FILLETRAD
 40
2.0
  9
$AUNITS
 70
     0
  9
$AUPREC
 70
     0
  9
$MENU
  1
E:\r13\win\SUPPORT\ACAD
  9
$ELEVATION
 40
0.0
  9
$PELEVATION
 40
0.0
  9
$THICKNESS
 40
0.0
  9
$LIMCHECK
 70
     0
  9
$BLIPMODE
 70
     1
  9
$CHAMFERA
 40
0.0
  9
$CHAMFERB
 40
0.0
  9
$SKPOLY
 70
     0
  9
$TDCREATE
 40
2450541.3939600689
  9
$TDUPDATE
 40
2453236.8297912958
  9
$TDINDWG
 40
0.2712841088
  9
$TDUSRTIMER
 40
0.2712841088
  9
$USRTIMER
 70
     1
  9
$ANGBASE
 50
0.0
  9
$ANGDIR
 70
     0
  9
$PDMODE
 70
     0
  9
$PDSIZE
 40
0.0
  9
$PLINEWID
 40
0.0
  9
$COORDS
 70
     0
  9
$SPLFRAME
 70
     0
  9
$SPLINETYPE
 70
     6
  9
$SPLINESEGS
 70
     8
  9
$ATTDIA
 70
     0
  9
$ATTREQ
 70
     1
  9
$HANDLING
 70
-16383
  9
$HANDSEED
  5
1FCF
  9
$SURFTAB1
 70
     6
  9
$SURFTAB2
 70
     6
  9
$SURFTYPE
 70
     6
  9
$SURFU
 70
     6
  9
$SURFV
 70
     6
  9
$UCSNAME
  2

  9
$UCSORG
 10
0.0
 20
0.0
 30
0.0
  9
$UCSXDIR
 10
1.0
 20
0.0
 30
0.0
  9
$UCSYDIR
 10
0.0
 20
1.0
 30
0.0
  9
$PUCSNAME
  2

  9
$PUCSORG
 10
0.0
 20
0.0
 30
0.0
  9
$PUCSXDIR
 10
1.0
 20
0.0
 30
0.0
  9
$PUCSYDIR
 10
0.0
 20
1.0
 30
0.0
  9
$USERI1
 70
     3
  9
$USERI2
 70
     1
  9
$USERI3
 70
     1
  9
$USERI4
 70
     0
  9
$USERI5
 70
     0
  9
$USERR1
 40
1.0
  9
$USERR2
 40
3.0
  9
$USERR3
 40
3.0
  9
$USERR4
 40
3.0
  9
$USERR5
 40
10.0
  9
$WORLDVIEW
 70
     1
  9
$SHADEDGE
 70
     3
  9
$SHADEDIF
 70
    70
  9
$TILEMODE
 70
     1
  9
$MAXACTVP
 70
    16
  9
$PLIMCHECK
 70
     0
  9
$PEXTMIN
 10
1.0000000000000000E+020
 20
1.0000000000000000E+020
 30
1.0000000000000000E+020
  9
$PEXTMAX
 10
-1.0000000000000000E+020
 20
-1.0000000000000000E+020
 30
-1.0000000000000000E+020
  9
$PLIMMIN
 10
0.0
 20
0.0
  9
$PLIMMAX
 10
12.0
 20
9.0
  9
$UNITMODE
 70
     0
  9
$VISRETAIN
 70
     0
  9
$PLINEGEN
 70
     0
  9
$PSLTSCALE
 70
     0
  0
ENDSEC
  0
SECTION
  2
TABLES
  0
TABLE
  2
VPORT
 70
     3
  0
VPORT
  2
*ACTIVE
 70
     0
 10
0.0
 20
0.0
 11
1.0
 21
1.0
 12
160.1013955120014
 22
149.26506107005409
 13
0.0
 23
0.0
 14
5.0
 24
5.0
 15
10.0
 25
10.0
 16
0.0
 26
0.0
 36
1.0
 17
0.0
 27
0.0
 37
0.0
 40
159.15220143560779
 41
0.9407114624505929
 42
50.0
 43
0.0
 44
0.0
 50
0.0
 51
0.0
 71
     0
 72
   100
 73
     1
 74
     0
 75
     0
 76
     0
 77
     0
 78
     0
  0
ENDTAB
  0
TABLE
  2
LTYPE
 70
     3
  0
LTYPE
  2
CONTINUOUS
 70
     0
  3
Solid Line
 72
    65
 73
     0
 40
0.0
  0
LTYPE
  2
CENTER
 70
     0
  3
____ _ ____ _ ____ _ ____ _ ____ _ ____ _ ____
 72
    65
 73
     4
 40
2.0
 49
1.25
 49
-0.25
 49
0.25
 49
-0.25
  0
LTYPE
  2
HIDDEN
 70
     0
  3
_ _ _ _ _ _ _ _ _ _ _ _ _ _ _ _ _ _ _ _ _ _ _
 72
    65
 73
     2
 40
0.375
 49
0.25
 49
-0.125
  0
ENDTAB
  0
TABLE
  2
LAYER
 70
     1
  0
LAYER
  2
0
 70
     0
 62
     7
  6
CONTINUOUS
  0
ENDTAB
  0
TABLE
  2
STYLE
 70
     1
  0
STYLE
  2
STANDARD
 70
     0
 40
0.0
 41
1.0
 50
0.0
 71
     0
 42
4.0
  3
SIMPLEX
  4
BIGFONT
  0
ENDTAB
  0
TABLE
  2
VIEW
 70
     0
  0
ENDTAB
  0
TABLE
  2
UCS
 70
     0
  0
ENDTAB
  0
TABLE
  2
APPID
 70
    10
  0
APPID
  2
ACAD
 70
     0
  0
APPID
  2
ASM_BASE
 70
     0
  0
APPID
  2
ASM_EXPLO_VER_2_00
 70
     0
  0
APPID
  2
ASM_CADM_VER_12_00
 70
     0
  0
APPID
  2
ASM_BASEFORO
 70
     0
  0
APPID
  2
ASM_BASETRAVI
 70
     0
  0
APPID
  2
ASM_BASETRAVI1
 70
     0
  0
APPID
  2
ASM_GRUPPI
 70
     0
  0
APPID
  2
ASM_CADM_ALBERO
 70
     0
  0
APPID
  2
ASM_GOLE
 70
     0
  0
ENDTAB
  0
TABLE
  2
DIMSTYLE
 70
     1
  0
DIMSTYLE
  2
STANDARD
 70
     0
  3

  4

  5

  6

  7

 40
1.0
 41
0.18
 42
0.0625
 43
0.38
 44
0.18
 45
0.0
 46
0.0
 47
0.0
 48
0.0
140
0.18
141
0.09
142
0.0
143
25.399999999999999
144
1.0
145
0.0
146
1.0
147
0.09
 71
     0
 72
     0
 73
     1
 74
     1
 75
     0
 76
     0
 77
     0
 78
     0
170
     0
171
     2
172
     0
173
     0
174
     0
175
     0
176
     0
177
     0
178
     0
  0
ENDTAB
  0
ENDSEC
  0
SECTION
  2
BLOCKS
  0
BLOCK
  8
0
  2
$MODEL_SPACE
 70
     0
 10
0.0
 20
0.0
 30
0.0
  3
$MODEL_SPACE
  1

  0
ENDBLK
  5
1F7E
  8
0
  0
BLOCK
 67
     1
  8
0
  2
$PAPER_SPACE
 70
     0
 10
0.0
 20
0.0
 30
0.0
  3
$PAPER_SPACE
  1

  0
ENDBLK
  5
1F7C
 67
     1
  8
0
  0
BLOCK
  8
0
  2
STDGX5
 70
     0
 10
0.0
 20
0.0
 30
0.0
  3
STDGX5
  1

  0
ENDBLK
  5
4F
  8
0
  0
ENDSEC
  0
SECTION
  2
ENTITIES
  0
INSERT
  5
DE
  8
0
  6
CONTINUOUS
 62
     7
  2
STDGX5
 10
0.0
 20
0.0
 30
0.0
  0
INSERT
  5
DF
  8
0
  6
CONTINUOUS
 62
     7
  2
STDGX5
 10
0.0
 20
0.0
 30
0.0
  0
INSERT
  5
15C
  8
0
  6
CONTINUOUS
 62
     7
  2
STDGX5
 10
275.0
 20
0.0
 30
0.0
  0
INSERT
  5
15D
  8
0
  6
CONTINUOUS
 62
     7
  2
STDGX5
 10
275.0
 20
0.0
 30
0.0
  0
INSERT
  5
42F
  8
0
  6
CONTINUOUS
 62
     7
  2
STDGX5
 10
30.608621050749768
 20
53.173469491929943
 30
0.0
  0
INSERT
  5
430
  8
0
  6
CONTINUOUS
 62
     7
  2
STDGX5
 10
30.608621050749768
 20
53.173469491929943
 30
0.0
  0
INSERT
  5
431
  8
0
  6
CONTINUOUS
 62
     7
  2
STDGX5
 10
305.60862105074972
 20
53.173469491929943
 30
0.0
  0
INSERT
  5
432
  8
0
  6
CONTINUOUS
 62
     7
  2
STDGX5
 10
305.60862105074972
 20
53.173469491929943
 30
0.0
  0
INSERT
  5
520
  8
0
  6
CONTINUOUS
 62
     7
  2
STDGX5
 10
45.499302106388193
 20
44.35714295772538
 30
0.0
  0
INSERT
  5
521
  8
0
  6
CONTINUOUS
 62
     7
  2
STDGX5
 10
45.499302106388193
 20
44.35714295772538
 30
0.0
  0
INSERT
  5
522
  8
0
  6
CONTINUOUS
 62
     7
  2
STDGX5
 10
320.4993021063882
 20
44.35714295772538
 30
0.0
  0
INSERT
  5
523
  8
0
  6
CONTINUOUS
 62
     7
  2
STDGX5
 10
320.4993021063882
 20
44.35714295772538
 30
0.0
  0
INSERT
  5
663
  8
0
  6
CONTINUOUS
 62
     7
  2
STDGX5
 10
65.905050506637735
 20
54.82653020632096
 30
0.0
  0
INSERT
  5
664
  8
0
  6
CONTINUOUS
 62
     7
  2
STDGX5
 10
65.905050506637735
 20
54.82653020632096
 30
0.0
  0
INSERT
  5
665
  8
0
  6
CONTINUOUS
 62
     7
  2
STDGX5
 10
340.90505050663768
 20
54.82653020632096
 30
0.0
  0
INSERT
  5
666
  8
0
  6
CONTINUOUS
 62
     7
  2
STDGX5
 10
340.90505050663768
 20
54.82653020632096
 30
0.0
  0
INSERT
  5
835
  8
0
  6
CONTINUOUS
 62
     7
  2
STDGX5
 10
68.111077001732497
 20
42.153061167013561
 30
0.0
  0
INSERT
  5
836
  8
0
  6
CONTINUOUS
 62
     7
  2
STDGX5
 10
68.111077001732497
 20
42.153061167013561
 30
0.0
  0
INSERT
  5
837
  8
0
  6
CONTINUOUS
 62
     7
  2
STDGX5
 10
343.11107700173238
 20
42.153061167013561
 30
0.0
  0
INSERT
  5
838
  8
0
  6
CONTINUOUS
 62
     7
  2
STDGX5
 10
343.11107700173238
 20
42.153061167013561
 30
0.0
  0
INSERT
  5
A24
  8
0
  6
CONTINUOUS
 62
     7
  2
STDGX5
 10
83.001758057370921
 20
42.704081614691511
 30
0.0
  0
INSERT
  5
A25
  8
0
  6
CONTINUOUS
 62
     7
  2
STDGX5
 10
83.001758057370921
 20
42.704081614691511
 30
0.0
  0
INSERT
  5
A26
  8
0
  6
CONTINUOUS
 62
     7
  2
STDGX5
 10
358.00175805737092
 20
42.704081614691511
 30
0.0
  0
INSERT
  5
A27
  8
0
  6
CONTINUOUS
 62
     7
  2
STDGX5
 10
358.00175805737092
 20
42.704081614691511
 30
0.0
  0
INSERT
  5
C27
  8
0
  6
CONTINUOUS
 62
     7
  2
STDGX5
 10
59.286969914479073
 20
42.704081614691511
 30
0.0
  0
INSERT
  5
C28
  8
0
  6
CONTINUOUS
 62
     7
  2
STDGX5
 10
59.286969914479073
 20
42.704081614691511
 30
0.0
  0
INSERT
  5
C29
  8
0
  6
CONTINUOUS
 62
     7
  2
STDGX5
 10
334.28696991447902
 20
42.704081614691511
 30
0.0
  0
INSERT
  5
C2A
  8
0
  6
CONTINUOUS
 62
     7
  2
STDGX5
 10
334.28696991447902
 20
42.704081614691511
 30
0.0
  0
INSERT
  5
10C9
  8
0
  6
CONTINUOUS
 62
     7
  2
STDGX5
 10
44.947795482614417
 20
41.051020271657649
 30
0.0
  0
INSERT
  5
10CA
  8
0
  6
CONTINUOUS
 62
     7
  2
STDGX5
 10
44.947795482614417
 20
41.051020271657649
 30
0.0
  0
INSERT
  5
10CB
  8
0
  6
CONTINUOUS
 62
     7
  2
STDGX5
 10
319.94779548261442
 20
41.051020271657649
 30
0.0
  0
INSERT
  5
10CC
  8
0
  6
CONTINUOUS
 62
     7
  2
STDGX5
 10
319.94779548261442
 20
41.051020271657649
 30
0.0
  0
INSERT
  5
1464
  8
0
  6
CONTINUOUS
 62
     7
  2
STDGX5
 10
241.28418011103361
 20
46.561224119794467
 30
0.0
  0
INSERT
  5
1465
  8
0
  6
CONTINUOUS
 62
     7
  2
STDGX5
 10
241.28418011103361
 20
46.561224119794467
 30
0.0
  0
INSERT
  5
1466
  8
0
  6
CONTINUOUS
 62
     7
  2
STDGX5
 10
516.28418011103361
 20
46.561224119794467
 30
0.0
  0
INSERT
  5
1467
  8
0
  6
CONTINUOUS
 62
     7
  2
STDGX5
 10
516.28418011103361
 20
46.561224119794467
 30
0.0
  0
INSERT
  5
16B8
  8
0
  6
CONTINUOUS
 62
     7
  2
STDGX5
 10
246.7992474556448
 20
47.11224456747243
 30
0.0
  0
INSERT
  5
16B9
  8
0
  6
CONTINUOUS
 62
     7
  2
STDGX5
 10
246.7992474556448
 20
47.11224456747243
 30
0.0
  0
INSERT
  5
16BA
  8
0
  6
CONTINUOUS
 62
     7
  2
STDGX5
 10
521.79924745564483
 20
47.11224456747243
 30
0.0
  0
INSERT
  5
16BB
  8
0
  6
CONTINUOUS
 62
     7
  2
STDGX5
 10
521.79924745564483
 20
47.11224456747243
 30
0.0
  0
INSERT
  5
19A1
  8
0
  6
CONTINUOUS
 62
     7
  2
STDGX5
 10
252.31431369338191
 20
52.071428596574037
 30
0.0
  0
INSERT
  5
19A2
  8
0
  6
CONTINUOUS
 62
     7
  2
STDGX5
 10
252.31431369338191
 20
52.071428596574037
 30
0.0
  0
INSERT
  5
19A3
  8
0
  6
CONTINUOUS
 62
     7
  2
STDGX5
 10
527.31431369338191
 20
52.071428596574037
 30
0.0
  0
INSERT
  5
19A4
  8
0
  6
CONTINUOUS
 62
     7
  2
STDGX5
 10
527.31431369338191
 20
52.071428596574037
 30
0.0
  0
ARC
  5
1A9D
  8
0
  6
CONTINUOUS
 62
     7
 10
123.78894766161611
 20
144.702532318149
 30
0.0
 40
3.9519999999999991
 50
141.5577136238679
 51
254.44228637613151
  0
ARC
  5
1A9E
  8
0
  6
CONTINUOUS
 62
     7
 10
140.01016760354619
 20
144.702532318149
 30
0.0
 40
3.9519999999999991
 50
285.55771362386821
 51
38.442286376131172
  0
CIRCLE
  5
1A9F
  8
0
  6
CONTINUOUS
 62
     7
 10
131.89955763258121
 20
147.33782924617859
 30
0.0
 40
5.25
  0
CIRCLE
  5
1AA0
  8
0
  6
CONTINUOUS
 62
     7
 10
131.89955763258121
 20
147.33782924617859
 30
0.0
 40
4.2999999999999989
  0
LINE
  5
1AA1
  8
0
  6
CENTER
 62
     1
 10
131.89955763258121
 20
161.42883344191961
 30
0.0
 11
131.89955763258121
 21
132.26258490071521
 31
0.0
  0
ARC
  5
1AA2
  8
0
  6
CONTINUOUS
 62
     7
 10
131.89955763258121
 20
138.80982924617859
 30
0.0
 40
3.9519999999999991
 50
213.5577136238683
 51
326.44228637613162
  0
ARC
  5
1AA3
  8
0
  6
CONTINUOUS
 62
     7
 10
143.85950171219929
 20
130.87637844514589
 30
0.0
 40
10.4
 50
105.5577136238682
 51
146.44228637613139
  0
ARC
  5
1AA4
  8
0
  6
CONTINUOUS
 62
     7
 10
119.939613552963
 20
130.87637844514589
 30
0.0
 40
10.4
 50
33.557713623868253
 51
74.442286376131449
  0
ARC
  5
1AA5
  8
0
  6
CONTINUOUS
 62
     7
 10
131.89955763258121
 20
167.68530144452339
 30
0.0
 40
10.4
 50
249.55771362386821
 51
290.44228637613128
  0
LINE
  5
1AA6
  8
0
  6
CENTER
 62
     1
 10
117.7404572328623
 20
147.33782924617859
 30
0.0
 11
145.61975010473989
 21
147.33782924617859
 31
0.0
  0
ARC
  5
1AA7
  8
0
  6
CONTINUOUS
 62
     7
 10
136.9121902641314
 20
154.2371261742081
 30
0.0
 40
3.9519999999999991
 50
357.5577136238677
 51
110.44228637613151
  0
ARC
  5
1AA8
  8
0
  6
CONTINUOUS
 62
     7
 10
151.2511536569514
 20
153.6255439480388
 30
0.0
 40
10.4
 50
177.55771362386821
 51
218.44228637613139
  0
ARC
  5
1AA9
  8
0
  6
CONTINUOUS
 62
     7
 10
126.8869250010309
 20
154.2371261742081
 30
0.0
 40
3.9519999999999991
 50
69.557713623867969
 51
182.44228637613139
  0
ARC
  5
1AAA
  8
0
  6
CONTINUOUS
 62
     7
 10
112.5479616082108
 20
153.625543948039
 30
0.0
 40
10.4
 50
321.55771362386821
 51
2.442286376131459
  0
LINE
  5
1B23
  8
0
  6
CONTINUOUS
 62
     7
 10
178.87360589471899
 20
219.45290564496261
 30
0.0
 11
178.19011963482589
 21
213.50202796548231
 31
0.0
  0
ARC
  5
1B24
  8
0
  6
CONTINUOUS
 62
     7
 10
220.36460836913059
 20
208.25202796548231
 30
0.0
 40
42.5
 50
187.09583909361891
 51
195.26507352528361
  0
LINE
  5
1B26
  8
0
  6
CONTINUOUS
 62
     7
 10
178.19011963482589
 20
213.50202796548231
 30
0.0
 11
178.19011963482589
 21
208.25202796548231
 31
0.0
  0
LINE
  5
1B27
  8
0
  6
CONTINUOUS
 62
     7
 10
178.19011963482589
 20
203.00202796548231
 30
0.0
 11
178.19011963482589
 21
208.25202796548231
 31
0.0
  0
ARC
  5
1B28
  8
0
  6
CONTINUOUS
 62
     7
 10
186.15113333233711
 20
198.89872543701051
 30
0.0
 40
2.0
 50
343.5583528709812
 51
31.27750334530494
  0
ARC
  5
1B29
  8
0
  6
CONTINUOUS
 62
     7
 10
181.42893839233599
 20
198.89872543701051
 30
0.0
 40
2.0
 50
148.72249665469499
 51
196.4416471290188
  0
LINE
  5
1B2A
  8
0
  6
CONTINUOUS
 62
     7
 10
189.16460836913069
 20
200.75202796548231
 30
0.0
 11
188.1772957253317
 21
197.06732701586969
 31
0.0
  0
LINE
  5
1B2B
  8
0
  6
CONTINUOUS
 62
     7
 10
180.5462175740557
 20
197.04607400879701
 30
0.0
 11
187.11259556168969
 21
197.04607400879701
 31
0.0
  0
LINE
  5
1B2C
  8
0
  6
CONTINUOUS
 62
     7
 10
180.54621757405579
 20
199.29098512431489
 30
0.0
 11
187.1125955616896
 21
199.29098512431489
 31
0.0
  0
LINE
  5
1B2D
  8
0
  6
CONTINUOUS
 62
     7
 10
187.11477731641381
 20
196.25202796548251
 30
0.0
 11
180.42527938127699
 21
196.25202796548251
 31
0.0
  0
LINE
  5
1B2E
  8
0
  6
CONTINUOUS
 62
     7
 10
179.51072140652519
 20
198.33264806125069
 30
0.0
 11
180.14320149652559
 21
196.18941799451721
 31
0.0
  0
ARC
  5
1B2F
  8
0
  6
CONTINUOUS
 62
     7
 10
180.42527938127699
 20
197.35202796548251
 30
0.0
 40
1.1000000000000001
 50
195.2650735252835
 51
270.0
  0
LINE
  5
1B30
  8
0
  6
CONTINUOUS
 62
     7
 10
188.0693503181478
 20
198.33264806125069
 30
0.0
 11
187.4368702281474
 21
196.18941799451721
 31
0.0
  0
ARC
  5
1B31
  8
0
  6
CONTINUOUS
 62
     7
 10
187.11477731641381
 20
197.35202796548251
 30
0.0
 40
1.1000000000000001
 50
270.00000000000011
 51
344.99999999999977
  0
LINE
  5
1B37
  8
0
  6
CONTINUOUS
 62
     7
 10
197.1646083691306
 20
208.25202796548231
 30
0.0
 11
197.1646083691306
 21
213.7820279654824
 31
0.0
  0
LINE
  5
1B38
  8
0
  6
CONTINUOUS
 62
     7
 10
196.43826970766079
 20
214.50836662695241
 30
0.0
 11
196.43826970766079
 21
208.25202796548231
 31
0.0
  0
ARC
  5
1B39
  8
0
  6
CONTINUOUS
 62
     7
 10
158.49925654899101
 20
208.2520279654822
 30
0.0
 40
29.852904803448421
 50
345.77540625329698
 51
14.22459374670342
  0
ARC
  5
1B3A
  8
0
  6
CONTINUOUS
 62
     7
 10
209.08081517568201
 20
208.2520279654822
 30
0.0
 40
29.852904803448421
 50
165.7754062532965
 51
194.22459374670279
  0
LINE
  5
1B3B
  8
0
  6
CONTINUOUS
 62
     7
 10
189.1646083691306
 20
208.25202796548231
 30
0.0
 11
189.16460836913069
 21
215.75202796548231
 31
0.0
  0
LINE
  5
1B3C
  8
0
  6
CONTINUOUS
 62
     7
 10
180.5462175740557
 20
204.61968547885169
 30
0.0
 11
187.1125955616896
 21
204.61968547885169
 31
0.0
  0
ARC
  5
1B3D
  8
0
  6
CONTINUOUS
 62
     7
 10
176.39724881978631
 20
201.95533530158389
 30
0.0
 40
3.887339281772396
 50
328.72249665469542
 51
344.49967806631651
  0
ARC
  5
1B3E
  8
0
  6
CONTINUOUS
 62
     7
 10
191.18282290488671
 20
201.95533530158389
 30
0.0
 40
3.887339281772396
 50
195.50032193368341
 51
211.2775033453045
  0
LINE
  5
1B3F
  8
0
  6
CONTINUOUS
 62
     7
 10
180.5462175740557
 20
208.25599971422241
 30
0.0
 11
187.1125955616896
 21
208.25599971422241
 31
0.0
  0
LINE
  5
1B41
  8
0
  6
CONTINUOUS
 62
     7
 10
197.1646083691306
 20
208.25202796548231
 30
0.0
 11
197.1646083691306
 21
202.72202796548231
 31
0.0
  0
LINE
  5
1B42
  8
0
  6
CONTINUOUS
 62
     7
 10
196.43826970766079
 20
201.9956893040123
 30
0.0
 11
196.43826970766079
 21
208.25202796548231
 31
0.0
  0
LINE
  5
1B43
  8
0
  6
CONTINUOUS
 62
     7
 10
189.16460836913069
 20
208.2520279654824
 30
0.0
 11
189.16460836913069
 21
200.75202796548251
 31
0.0
  0
LINE
  5
1B46
  8
0
  6
CONTINUOUS
 62
     7
 10
197.1646083691306
 20
202.72202796548231
 30
0.0
 11
196.43826970766079
 21
201.99568930401239
 31
0.0
  0
ARC
  5
1B47
  8
0
  6
CONTINUOUS
 62
     7
 10
187.63258106002809
 20
219.21463793644739
 30
0.0
 40
1.1000000000000001
 50
15.000000000000179
 51
89.999999999999915
  0
ARC
  5
1B48
  8
0
  6
CONTINUOUS
 62
     7
 10
191.18282290488671
 20
214.5487206293808
 30
0.0
 40
3.887339281772396
 50
148.72249665469539
 51
164.49967806631651
  0
ARC
  5
1B49
  8
0
  6
CONTINUOUS
 62
     7
 10
176.39724881978631
 20
214.5487206293808
 30
0.0
 40
3.887339281772396
 50
15.50032193368345
 51
31.27750334530451
  0
LINE
  5
1B4A
  8
0
  6
CONTINUOUS
 62
     7
 10
180.5462175740557
 20
211.88437045211299
 30
0.0
 11
187.1125955616896
 21
211.88437045211299
 31
0.0
  0
LINE
  5
1B4B
  8
0
  6
CONTINUOUS
 62
     7
 10
180.5462175740557
 20
219.45798192216759
 30
0.0
 11
187.11259556168969
 21
219.4579819221677
 31
0.0
  0
LINE
  5
1B4C
  8
0
  6
CONTINUOUS
 62
     7
 10
180.54621757405579
 20
217.21307080664971
 30
0.0
 11
187.1125955616896
 21
217.21307080664971
 31
0.0
  0
LINE
  5
1B4D
  8
0
  6
CONTINUOUS
 62
     7
 10
187.63258106002809
 20
220.31463793644741
 30
0.0
 11
179.94749066464499
 21
220.3146379364475
 31
0.0
  0
ARC
  5
1B4E
  8
0
  6
CONTINUOUS
 62
     7
 10
181.42893839233599
 20
217.6053304939542
 30
0.0
 40
2.0
 50
163.5583528709812
 51
211.27750334530489
  0
LINE
  5
1B4F
  8
0
  6
CONTINUOUS
 62
     7
 10
179.51072140652519
 20
218.1714078697139
 30
0.0
 11
180.14320149652559
 21
220.3146379364475
 31
0.0
  0
ARC
  5
1B50
  8
0
  6
CONTINUOUS
 62
     7
 10
179.94749066464499
 20
219.21463793644739
 30
0.0
 40
1.1000000000000001
 50
90.0
 51
167.4901759909948
  0
LINE
  5
1B51
  8
0
  6
CONTINUOUS
 62
     7
 10
188.0693503181478
 20
218.1714078697139
 30
0.0
 11
187.4368702281474
 21
220.3146379364475
 31
0.0
  0
ARC
  5
1B52
  8
0
  6
CONTINUOUS
 62
     7
 10
186.15113333233711
 20
217.6053304939542
 30
0.0
 40
2.0
 50
328.72249665469508
 51
16.441647129018779
  0
LINE
  5
1B55
  8
0
  6
CONTINUOUS
 62
     7
 10
197.1646083691306
 20
213.7820279654824
 30
0.0
 11
196.43826970766079
 21
214.50836662695241
 31
0.0
  0
LINE
  5
1B56
  8
0
  6
CONTINUOUS
 62
     7
 10
188.69509946894601
 20
219.4993388860602
 30
0.0
 11
189.16460836913069
 21
215.75202796548231
 31
0.0
  0
ARC
  5
1B61
  8
0
  6
CONTINUOUS
 62
     7
 10
220.36460836913059
 20
90.223309030403556
 30
0.0
 40
42.5
 50
164.7349264747163
 51
172.90416090638101
  0
ARC
  5
1B62
  8
0
  6
CONTINUOUS
 62
     7
 10
220.36460836913059
 20
90.215365532923414
 30
0.0
 40
42.5
 50
187.09583909361891
 51
195.26507352528361
  0
LINE
  5
1B64
  8
0
  6
CONTINUOUS
 62
     7
 10
178.19011963482589
 20
95.465365532923414
 30
0.0
 11
178.19011963482589
 21
90.215365532923414
 31
0.0
  0
LINE
  5
1B65
  8
0
  6
CONTINUOUS
 62
     7
 10
178.19011963482589
 20
84.965365532923414
 30
0.0
 11
178.19011963482589
 21
90.215365532923414
 31
0.0
  0
LINE
  5
1B6A
  8
0
  6
CONTINUOUS
 62
     7
 10
197.1646083691306
 20
90.215365532923414
 30
0.0
 11
197.1646083691306
 21
95.745365532923444
 31
0.0
  0
LINE
  5
1B6B
  8
0
  6
CONTINUOUS
 62
     7
 10
196.43826970766079
 20
96.471704194393425
 30
0.0
 11
196.43826970766079
 21
90.215365532923414
 31
0.0
  0
ARC
  5
1B6C
  8
0
  6
CONTINUOUS
 62
     7
 10
195.4926592535285
 20
90.215365532923002
 30
0.0
 40
8.0423768521578065
 50
155.8268468746148
 51
204.17315312538011
  0
ARC
  5
1B6D
  8
0
  6
CONTINUOUS
 62
     7
 10
172.0473974441623
 20
90.215365532923002
 30
0.0
 40
8.0423768521578065
 50
335.82684687461818
 51
24.17315312538674
  0
LINE
  5
1B6E
  8
0
  6
CONTINUOUS
 62
     7
 10
189.1646083691306
 20
90.215365532923414
 30
0.0
 11
189.16460836913069
 21
97.715365532923343
 31
0.0
  0
ARC
  5
1B71
  8
0
  6
CONTINUOUS
 62
     7
 10
193.26844117894589
 20
81.546879554063395
 30
0.0
 40
5.8397826559628259
 50
184.9321943949675
 51
207.79810459123971
  0
ARC
  5
1B72
  8
0
  6
CONTINUOUS
 62
     7
 10
174.27161551874491
 20
81.546879554063395
 30
0.0
 40
5.8397826559628259
 50
332.20189540876021
 51
355.0678056050325
  0
LINE
  5
1B73
  8
0
  6
CONTINUOUS
 62
     7
 10
189.16460836913069
 20
82.715365532923414
 30
0.0
 11
188.1772957253317
 21
79.030664583310823
 31
0.0
  0
LINE
  5
1B74
  8
0
  6
CONTINUOUS
 62
     7
 10
187.11477731641381
 20
78.215365532923585
 30
0.0
 11
180.42527938127699
 21
78.215365532923585
 31
0.0
  0
ARC
  5
1B75
  8
0
  6
CONTINUOUS
 62
     7
 10
180.42527938127699
 20
79.315365532923551
 30
0.0
 40
1.1000000000000001
 50
195.2650735252835
 51
270.0
  0
ARC
  5
1B76
  8
0
  6
CONTINUOUS
 62
     7
 10
187.11477731641381
 20
79.315365532923551
 30
0.0
 40
1.1000000000000001
 50
270.00000000000011
 51
344.99999999999977
  0
ARC
  5
1B77
  8
0
  6
CONTINUOUS
 62
     7
 10
174.02492079518299
 20
85.630079764365576
 30
0.0
 40
14.18679596794982
 50
341.142958273592
 51
5.2250703697485941
  0
ARC
  5
1B78
  8
0
  6
CONTINUOUS
 62
     7
 10
193.51513590250781
 20
85.630079764365576
 30
0.0
 40
14.18679596794982
 50
174.77492963025131
 51
198.85704172640791
  0
LINE
  5
1B79
  8
0
  6
CONTINUOUS
 62
     7
 10
180.5462175740557
 20
81.052737493287708
 30
0.0
 11
187.1125955616896
 21
81.052737493287708
 31
0.0
  0
LINE
  5
1B7A
  8
0
  6
CONTINUOUS
 62
     7
 10
180.5462175740557
 20
86.929991095436336
 30
0.0
 11
187.1125955616896
 21
86.929991095436336
 31
0.0
  0
LINE
  5
1B7B
  8
0
  6
CONTINUOUS
 62
     7
 10
180.5462175740557
 20
90.219337281663485
 30
0.0
 11
187.1125955616896
 21
90.219337281663485
 31
0.0
  0
LINE
  5
1B7C
  8
0
  6
CONTINUOUS
 62
     7
 10
197.1646083691306
 20
90.215365532923414
 30
0.0
 11
197.1646083691306
 21
84.685365532923427
 31
0.0
  0
LINE
  5
1B7D
  8
0
  6
CONTINUOUS
 62
     7
 10
196.43826970766079
 20
83.959026871453403
 30
0.0
 11
196.43826970766079
 21
90.215365532923414
 31
0.0
  0
LINE
  5
1B7E
  8
0
  6
CONTINUOUS
 62
     7
 10
189.16460836913069
 20
90.215365532923485
 30
0.0
 11
189.16460836913069
 21
82.715365532923528
 31
0.0
  0
LINE
  5
1B80
  8
0
  6
CONTINUOUS
 62
     7
 10
197.1646083691306
 20
84.685365532923427
 30
0.0
 11
196.43826970766079
 21
83.95902687145346
 31
0.0
  0
ARC
  5
1B8A
  8
0
  6
CONTINUOUS
 62
     7
 10
193.26844117894589
 20
98.883851511783433
 30
0.0
 40
5.8397826559628259
 50
152.20189540876021
 51
175.0678056050325
  0
ARC
  5
1B8B
  8
0
  6
CONTINUOUS
 62
     7
 10
174.27161551874491
 20
98.883851511783433
 30
0.0
 40
5.8397826559628259
 50
4.932194394967488
 51
27.798104591239749
  0
LINE
  5
1B8C
  8
0
  6
CONTINUOUS
 62
     7
 10
189.16460836913069
 20
97.723309030403556
 30
0.0
 11
188.1772957253317
 21
101.4080099800161
 31
0.0
  0
ARC
  5
1B8D
  8
0
  6
CONTINUOUS
 62
     7
 10
174.02492079518299
 20
94.800651301481238
 30
0.0
 40
14.18679596794982
 50
354.77492963025139
 51
18.857041726407989
  0
ARC
  5
1B8E
  8
0
  6
CONTINUOUS
 62
     7
 10
193.51513590250781
 20
94.800651301481238
 30
0.0
 40
14.18679596794982
 50
161.142958273592
 51
185.22507036974849
  0
LINE
  5
1B8F
  8
0
  6
CONTINUOUS
 62
     7
 10
180.5462175740557
 20
93.508683467890663
 30
0.0
 11
187.1125955616896
 21
93.508683467890663
 31
0.0
  0
LINE
  5
1B90
  8
0
  6
CONTINUOUS
 62
     7
 10
180.5462175740557
 20
99.385937070039276
 30
0.0
 11
187.1125955616896
 21
99.385937070039276
 31
0.0
  0
LINE
  5
1B91
  8
0
  6
CONTINUOUS
 62
     7
 10
197.1646083691306
 20
95.745365532923444
 30
0.0
 11
196.43826970766079
 21
96.471704194393425
 31
0.0
  0
LINE
  5
1B94
  8
0
  6
CONTINUOUS
 62
     7
 10
187.11477731641381
 20
102.2233090304033
 30
0.0
 11
180.42527938127699
 21
102.2233090304033
 31
0.0
  0
ARC
  5
1B95
  8
0
  6
CONTINUOUS
 62
     7
 10
180.42527938127699
 20
101.12330903040341
 30
0.0
 40
1.1000000000000001
 50
90.0
 51
164.73492647471639
  0
ARC
  5
1B96
  8
0
  6
CONTINUOUS
 62
     7
 10
187.11477731641381
 20
101.12330903040341
 30
0.0
 40
1.1000000000000001
 50
15.00000000000008
 51
89.999999999999915
  0
LINE
  5
1B9A
  8
0
  6
CONTINUOUS
 62
     7
 10
196.43826970766079
 20
214.5083666269523
 30
0.0
 11
189.1646083691308
 21
214.5083666269523
 31
0.0
  0
LINE
  5
1B9B
  8
0
  6
CONTINUOUS
 62
     7
 10
196.43826970766079
 20
201.99568930401239
 30
0.0
 11
189.1646083691308
 21
201.99568930401239
 31
0.0
  0
LINE
  5
1B9C
  8
0
  6
CENTER
 62
     1
 10
175.69011963482589
 20
208.25202796548231
 30
0.0
 11
199.6646083691306
 21
208.25202796548231
 31
0.0
  0
LINE
  5
1BC2
  8
0
  6
CONTINUOUS
 62
     7
 10
196.43826970766079
 20
83.95902687145346
 30
0.0
 11
189.1646083691308
 21
83.95902687145346
 31
0.0
  0
LINE
  5
1BC3
  8
0
  6
CONTINUOUS
 62
     7
 10
196.43826970766079
 20
96.471704194393368
 30
0.0
 11
189.1646083691308
 21
96.471704194393368
 31
0.0
  0
LINE
  5
1BC4
  8
0
  6
CENTER
 62
     1
 10
200.70315266183189
 20
90.215365532923414
 30
0.0
 11
176.16359396340189
 21
90.215365532923414
 31
0.0
  0
INSERT
  5
1C43
  8
0
  6
CONTINUOUS
 62
     7
  2
STDGX5
 10
220.3269250870103
 20
52.622449044251987
 30
0.0
  0
INSERT
  5
1C44
  8
0
  6
CONTINUOUS
 62
     7
  2
STDGX5
 10
220.3269250870103
 20
52.622449044251987
 30
0.0
  0
INSERT
  5
1C45
  8
0
  6
CONTINUOUS
 62
     7
  2
STDGX5
 10
495.3269250870103
 20
52.622449044251987
 30
0.0
  0
INSERT
  5
1C46
  8
0
  6
CONTINUOUS
 62
     7
  2
STDGX5
 10
495.3269250870103
 20
52.622449044251987
 30
0.0
  0
LINE
  5
1D59
  8
0
  6
HIDDEN
 62
     2
 10
186.330466614838
 20
149.32860758074469
 30
0.0
 11
186.330466614838
 21
147.33782924617859
 31
0.0
  0
LINE
  5
1D5A
  8
0
  6
HIDDEN
 62
     2
 10
186.330466614838
 20
149.32860758074469
 30
0.0
 11
185.1810902074794
 21
147.33782924617859
 31
0.0
  0
LINE
  5
1D5B
  8
0
  6
HIDDEN
 62
     2
 10
187.4646083691307
 20
149.83782924617859
 30
0.0
 11
187.4646083691307
 21
147.33782924617859
 31
0.0
  0
LINE
  5
1D5C
  8
0
  6
CONTINUOUS
 62
     7
 10
197.4646083691307
 20
150.83782924617859
 30
0.0
 11
197.4646083691307
 21
147.33782924617859
 31
0.0
  0
LINE
  5
1D5D
  8
0
  6
HIDDEN
 62
     2
 10
196.95538670369689
 20
149.32860758074469
 30
0.0
 11
196.95538670369689
 21
147.33782924617859
 31
0.0
  0
LINE
  5
1D5E
  8
0
  6
HIDDEN
 62
     2
 10
182.9646083691307
 20
149.83782924617859
 30
0.0
 11
182.9646083691307
 21
147.33782924617859
 31
0.0
  0
ARC
  5
1D5F
  8
0
  6
CONTINUOUS
 62
     7
 10
186.25134813055519
 20
149.48321656414299
 30
0.0
 40
6.8667930343214403
 50
160.55042030698871
 51
198.1427038240426
  0
LINE
  5
1D60
  8
0
  6
CONTINUOUS
 62
     7
 10
178.19011963482589
 20
152.58782924617859
 30
0.0
 11
178.19011963482589
 21
147.33782924617859
 31
0.0
  0
LINE
  5
1D61
  8
0
  6
CONTINUOUS
 62
     7
 10
196.43826970766079
 20
153.5941679076486
 30
0.0
 11
196.43826970766079
 21
147.33782924617859
 31
0.0
  0
LINE
  5
1D62
  8
0
  6
CONTINUOUS
 62
     7
 10
197.16460836913069
 20
147.33782924617859
 30
0.0
 11
197.16460836913069
 21
152.86782924617859
 31
0.0
  0
LINE
  5
1D63
  8
0
  6
CONTINUOUS
 62
     7
 10
189.16460836913069
 20
147.33782924617859
 30
0.0
 11
189.1646083691308
 21
154.8378292461785
 31
0.0
  0
ARC
  5
1D64
  8
0
  6
CONTINUOUS
 62
     7
 10
181.3287235941178
 20
149.48321656414299
 30
0.0
 40
6.8667930343214403
 50
341.85729617595729
 51
19.449579693011259
  0
LINE
  5
1D65
  8
0
  6
HIDDEN
 62
     2
 10
196.95538670369689
 20
145.3470509116124
 30
0.0
 11
186.330466614838
 21
145.3470509116124
 31
0.0
  0
LINE
  5
1D66
  8
0
  6
HIDDEN
 62
     2
 10
197.16460836913069
 20
143.83782924617859
 30
0.0
 11
183.9646083691307
 21
143.83782924617859
 31
0.0
  0
LINE
  5
1D67
  8
0
  6
CONTINUOUS
 62
     7
 10
180.54621757405579
 20
147.3418009949186
 30
0.0
 11
187.11259556168969
 21
147.3418009949186
 31
0.0
  0
LINE
  5
1D68
  8
0
  6
CONTINUOUS
 62
     7
 10
187.11477731641389
 20
135.3378292461787
 30
0.0
 11
180.42527938127711
 21
135.3378292461787
 31
0.0
  0
LINE
  5
1D69
  8
0
  6
CONTINUOUS
 62
     7
 10
180.54621757405579
 20
142.37404231473161
 30
0.0
 11
187.11259556168969
 21
142.37404231473161
 31
0.0
  0
LINE
  5
1D6A
  8
0
  6
CONTINUOUS
 62
     7
 10
180.54621757405579
 20
136.696603868095
 30
0.0
 11
187.11259556168969
 21
136.696603868095
 31
0.0
  0
LINE
  5
1D6B
  8
0
  6
CONTINUOUS
 62
     7
 10
189.1646083691308
 20
147.33782924617859
 30
0.0
 11
189.1646083691308
 21
139.8378292461787
 31
0.0
  0
ARC
  5
1D6C
  8
0
  6
CONTINUOUS
 62
     7
 10
179.21363889599661
 20
140.14335632414881
 30
0.0
 40
9.1385224564428906
 50
335.68291515404343
 51
10.47131533477414
  0
ARC
  5
1D6D
  8
0
  6
CONTINUOUS
 62
     7
 10
188.3196807235125
 20
135.96803529712361
 30
0.0
 40
0.8807036250576896
 50
152.09286360384689
 51
199.74107392023379
  0
ARC
  5
1D6E
  8
0
  6
CONTINUOUS
 62
     7
 10
187.11477731641389
 20
136.43782924617869
 30
0.0
 40
1.1000000000000001
 50
270.00000000000011
 51
344.99999999999977
  0
LINE
  5
1D6F
  8
0
  6
CONTINUOUS
 62
     7
 10
189.1646083691308
 20
139.83782924617859
 30
0.0
 11
188.17729572533179
 21
136.153128296566
 31
0.0
  0
LINE
  5
1D70
  8
0
  6
HIDDEN
 62
     2
 10
197.4646083691307
 20
144.83782924617859
 30
0.0
 11
187.4646083691307
 21
144.83782924617859
 31
0.0
  0
LINE
  5
1D72
  8
0
  6
CONTINUOUS
 62
     7
 10
197.4646083691307
 20
143.83782924617859
 30
0.0
 11
197.4646083691307
 21
147.33782924617859
 31
0.0
  0
LINE
  5
1D73
  8
0
  6
CONTINUOUS
 62
     7
 10
197.16460836913069
 20
147.33782924617859
 30
0.0
 11
197.16460836913069
 21
141.80782924617861
 31
0.0
  0
LINE
  5
1D74
  8
0
  6
CONTINUOUS
 62
     7
 10
196.43826970766079
 20
141.0814905847086
 30
0.0
 11
196.43826970766079
 21
147.33782924617859
 31
0.0
  0
LINE
  5
1D75
  8
0
  6
CONTINUOUS
 62
     7
 10
197.4646083691307
 20
143.83782924617859
 30
0.0
 11
197.16460836913069
 21
143.83782924617859
 31
0.0
  0
LINE
  5
1D76
  8
0
  6
CONTINUOUS
 62
     7
 10
197.16460836913069
 20
141.80782924617861
 30
0.0
 11
196.43826970766079
 21
141.0814905847086
 31
0.0
  0
LINE
  5
1D77
  8
0
  6
HIDDEN
 62
     2
 10
197.4646083691307
 20
144.83782924617859
 30
0.0
 11
196.95538670369689
 21
145.3470509116124
 31
0.0
  0
LINE
  5
1D78
  8
0
  6
HIDDEN
 62
     2
 10
196.95538670369689
 20
145.3470509116124
 30
0.0
 11
196.95538670369689
 21
147.33782924617859
 31
0.0
  0
ARC
  5
1D79
  8
0
  6
CONTINUOUS
 62
     7
 10
195.11860782946951
 20
145.017249274557
 30
0.0
 40
7.6283104011165781
 50
162.23302047259099
 51
204.9102383108345
  0
LINE
  5
1D7A
  8
0
  6
HIDDEN
 62
     2
 10
187.4646083691307
 20
144.83782924617859
 30
0.0
 11
187.4646083691307
 21
147.33782924617859
 31
0.0
  0
ARC
  5
1D7B
  8
0
  6
CONTINUOUS
 62
     7
 10
220.36460836913071
 20
147.33782924617859
 30
0.0
 40
42.5
 50
187.09583909361891
 51
195.26507352528361
  0
ARC
  5
1D7C
  8
0
  6
CONTINUOUS
 62
     7
 10
188.36643282867661
 20
140.14335632414881
 30
0.0
 40
9.1385224564428906
 50
169.5286846652258
 51
204.3170848459566
  0
ARC
  5
1D7D
  8
0
  6
CONTINUOUS
 62
     7
 10
180.42527938127711
 20
136.43782924617869
 30
0.0
 40
1.1000000000000001
 50
195.2650735252835
 51
270.0
  0
ARC
  5
1D7E
  8
0
  6
CONTINUOUS
 62
     7
 10
179.26039100116071
 20
135.96803529712361
 30
0.0
 40
0.8807036250576896
 50
340.25892607976613
 51
27.907136396153099
  0
LINE
  5
1D7F
  8
0
  6
HIDDEN
 62
     2
 10
182.9646083691307
 20
144.83782924617859
 30
0.0
 11
183.9646083691307
 21
143.83782924617859
 31
0.0
  0
LINE
  5
1D80
  8
0
  6
HIDDEN
 62
     2
 10
186.330466614838
 20
145.3470509116124
 30
0.0
 11
186.330466614838
 21
147.33782924617859
 31
0.0
  0
LINE
  5
1D81
  8
0
  6
HIDDEN
 62
     2
 10
186.330466614838
 20
145.3470509116124
 30
0.0
 11
185.1810902074794
 21
147.33782924617859
 31
0.0
  0
LINE
  5
1D82
  8
0
  6
HIDDEN
 62
     2
 10
182.9646083691307
 20
144.83782924617859
 30
0.0
 11
182.9646083691307
 21
147.33782924617859
 31
0.0
  0
LINE
  5
1D83
  8
0
  6
CONTINUOUS
 62
     7
 10
178.19011963482589
 20
142.08782924617859
 30
0.0
 11
178.19011963482589
 21
147.33782924617859
 31
0.0
  0
ARC
  5
1D84
  8
0
  6
CONTINUOUS
 62
     7
 10
172.46146389520371
 20
145.017249274557
 30
0.0
 40
7.6283104011165781
 50
335.0897616891653
 51
17.766979527408939
  0
LINE
  5
1D85
  8
0
  6
HIDDEN
 62
     2
 10
196.95538670369689
 20
149.32860758074469
 30
0.0
 11
186.330466614838
 21
149.32860758074469
 31
0.0
  0
LINE
  5
1D86
  8
0
  6
HIDDEN
 62
     2
 10
197.16460836913069
 20
150.83782924617859
 30
0.0
 11
183.9646083691307
 21
150.83782924617859
 31
0.0
  0
LINE
  5
1D87
  8
0
  6
CONTINUOUS
 62
     7
 10
187.63258106002809
 20
157.4053593666608
 30
0.0
 11
179.9474906646451
 21
157.4053593666608
 31
0.0
  0
LINE
  5
1D88
  8
0
  6
CONTINUOUS
 62
     7
 10
180.54621757405579
 20
153.982376019919
 30
0.0
 11
187.11259556168969
 21
153.982376019919
 31
0.0
  0
ARC
  5
1D89
  8
0
  6
CONTINUOUS
 62
     7
 10
193.86447401736129
 20
153.90994766369931
 30
0.0
 40
6.4276037892138937
 50
149.5921542492911
 51
199.4495796930114
  0
ARC
  5
1D8A
  8
0
  6
CONTINUOUS
 62
     7
 10
187.63258106002809
 20
156.30535936666081
 30
0.0
 40
1.1000000000000001
 50
15.000000000000179
 51
89.999999999999915
  0
LINE
  5
1D8B
  8
0
  6
HIDDEN
 62
     2
 10
197.4646083691307
 20
149.83782924617859
 30
0.0
 11
187.4646083691307
 21
149.83782924617859
 31
0.0
  0
LINE
  5
1D8D
  8
0
  6
CONTINUOUS
 62
     7
 10
197.4646083691307
 20
150.83782924617859
 30
0.0
 11
197.16460836913069
 21
150.83782924617859
 31
0.0
  0
LINE
  5
1D8E
  8
0
  6
HIDDEN
 62
     2
 10
197.4646083691307
 20
149.83782924617859
 30
0.0
 11
196.95538670369689
 21
149.32860758074469
 31
0.0
  0
LINE
  5
1D8F
  8
0
  6
CONTINUOUS
 62
     7
 10
197.16460836913069
 20
152.86782924617859
 30
0.0
 11
196.43826970766079
 21
153.5941679076486
 31
0.0
  0
LINE
  5
1D90
  8
0
  6
CONTINUOUS
 62
     7
 10
189.1646083691308
 20
154.83782924617859
 30
0.0
 11
188.6950994689461
 21
156.59006031627359
 31
0.0
  0
ARC
  5
1D91
  8
0
  6
CONTINUOUS
 62
     7
 10
179.9474906646451
 20
156.30535936666081
 30
0.0
 40
1.1000000000000001
 50
90.0
 51
167.4901759909948
  0
ARC
  5
1D92
  8
0
  6
CONTINUOUS
 62
     7
 10
173.71559770731179
 20
153.90994766369931
 30
0.0
 40
6.4276037892138937
 50
340.55042030698849
 51
30.40784575070882
  0
LINE
  5
1D93
  8
0
  6
HIDDEN
 62
     2
 10
182.9646083691307
 20
149.83782924617859
 30
0.0
 11
183.9646083691307
 21
150.83782924617859
 31
0.0
  0
ARC
  5
1D94
  8
0
  6
CONTINUOUS
 62
     7
 10
220.36460836913071
 20
147.33782924617859
 30
0.0
 40
42.5
 50
167.4901759909946
 51
172.90416090638101
  0
LINE
  5
1DA3
  8
0
  6
CENTER
 62
     1
 10
173.19011963482589
 20
147.33782924617859
 30
0.0
 11
202.4646083691307
 21
147.33782924617859
 31
0.0
  0
LINE
  5
1DDD
  8
0
  6
CONTINUOUS
 62
     7
 10
196.43826970766079
 20
153.5941679076486
 30
0.0
 11
189.16460836913069
 21
153.5941679076486
 31
0.0
  0
LINE
  5
1DDE
  8
0
  6
CONTINUOUS
 62
     7
 10
196.43826970766079
 20
141.0814905847086
 30
0.0
 11
189.16460836913069
 21
141.08149058470849
 31
0.0
  0
LINE
  5
1E57
  8
0
  6
HIDDEN
 62
     2
 10
197.4646083691307
 20
210.75202796548231
 30
0.0
 11
187.4646083691307
 21
210.75202796548231
 31
0.0
  0
LINE
  5
1E58
  8
0
  6
HIDDEN
 62
     2
 10
197.16460836913069
 20
211.75202796548231
 30
0.0
 11
183.9646083691307
 21
211.75202796548231
 31
0.0
  0
LINE
  5
1E59
  8
0
  6
HIDDEN
 62
     2
 10
196.95538670369689
 20
210.2428063000485
 30
0.0
 11
186.330466614838
 21
210.2428063000485
 31
0.0
  0
LINE
  5
1E5A
  8
0
  6
HIDDEN
 62
     2
 10
197.4646083691307
 20
205.75202796548231
 30
0.0
 11
187.4646083691307
 21
205.75202796548231
 31
0.0
  0
LINE
  5
1E5B
  8
0
  6
HIDDEN
 62
     2
 10
197.16460836913069
 20
204.75202796548231
 30
0.0
 11
183.9646083691307
 21
204.75202796548231
 31
0.0
  0
LINE
  5
1E5C
  8
0
  6
HIDDEN
 62
     2
 10
196.95538670369689
 20
206.26124963091621
 30
0.0
 11
186.330466614838
 21
206.26124963091621
 31
0.0
  0
LINE
  5
1E5D
  8
0
  6
HIDDEN
 62
     2
 10
187.4646083691307
 20
205.75202796548231
 30
0.0
 11
187.4646083691307
 21
208.25202796548231
 31
0.0
  0
LINE
  5
1E5E
  8
0
  6
HIDDEN
 62
     2
 10
186.330466614838
 20
206.26124963091621
 30
0.0
 11
185.1810902074794
 21
208.25202796548231
 31
0.0
  0
LINE
  5
1E5F
  8
0
  6
HIDDEN
 62
     2
 10
186.330466614838
 20
206.26124963091621
 30
0.0
 11
186.330466614838
 21
208.25202796548231
 31
0.0
  0
LINE
  5
1E60
  8
0
  6
HIDDEN
 62
     2
 10
182.9646083691307
 20
205.75202796548231
 30
0.0
 11
182.9646083691307
 21
208.25202796548231
 31
0.0
  0
LINE
  5
1E61
  8
0
  6
HIDDEN
 62
     2
 10
182.9646083691307
 20
205.75202796548231
 30
0.0
 11
183.9646083691307
 21
204.75202796548231
 31
0.0
  0
LINE
  5
1E62
  8
0
  6
HIDDEN
 62
     2
 10
182.9646083691307
 20
210.75202796548231
 30
0.0
 11
183.9646083691307
 21
211.75202796548231
 31
0.0
  0
LINE
  5
1E63
  8
0
  6
HIDDEN
 62
     2
 10
182.9646083691307
 20
210.75202796548231
 30
0.0
 11
182.9646083691307
 21
208.25202796548231
 31
0.0
  0
LINE
  5
1E64
  8
0
  6
HIDDEN
 62
     2
 10
187.4646083691307
 20
210.75202796548231
 30
0.0
 11
187.4646083691307
 21
208.25202796548231
 31
0.0
  0
LINE
  5
1E65
  8
0
  6
HIDDEN
 62
     2
 10
186.330466614838
 20
210.2428063000485
 30
0.0
 11
185.1810902074794
 21
208.25202796548231
 31
0.0
  0
LINE
  5
1E66
  8
0
  6
HIDDEN
 62
     2
 10
186.330466614838
 20
210.2428063000485
 30
0.0
 11
186.330466614838
 21
208.25202796548231
 31
0.0
  0
LINE
  5
1E67
  8
0
  6
HIDDEN
 62
     2
 10
196.95538670369689
 20
206.26124963091621
 30
0.0
 11
196.95538670369689
 21
208.25202796548231
 31
0.0
  0
LINE
  5
1E68
  8
0
  6
CONTINUOUS
 62
     7
 10
197.4646083691307
 20
204.75202796548231
 30
0.0
 11
197.4646083691307
 21
208.25202796548231
 31
0.0
  0
LINE
  5
1E69
  8
0
  6
HIDDEN
 62
     2
 10
197.4646083691307
 20
205.75202796548231
 30
0.0
 11
196.95538670369689
 21
206.26124963091621
 31
0.0
  0
LINE
  5
1E6A
  8
0
  6
CONTINUOUS
 62
     7
 10
197.4646083691307
 20
204.75202796548231
 30
0.0
 11
197.16460836913069
 21
204.75202796548231
 31
0.0
  0
LINE
  5
1E6B
  8
0
  6
CONTINUOUS
 62
     7
 10
197.4646083691307
 20
211.75202796548231
 30
0.0
 11
197.4646083691307
 21
208.25202796548231
 31
0.0
  0
LINE
  5
1E6C
  8
0
  6
HIDDEN
 62
     2
 10
197.4646083691307
 20
210.75202796548231
 30
0.0
 11
196.95538670369689
 21
210.2428063000485
 31
0.0
  0
LINE
  5
1E6D
  8
0
  6
HIDDEN
 62
     2
 10
196.95538670369689
 20
210.2428063000485
 30
0.0
 11
196.95538670369689
 21
208.25202796548231
 31
0.0
  0
LINE
  5
1E6E
  8
0
  6
CONTINUOUS
 62
     7
 10
197.4646083691307
 20
211.75202796548231
 30
0.0
 11
197.16460836913069
 21
211.75202796548231
 31
0.0
  0
LINE
  5
1E6F
  8
0
  6
HIDDEN
 62
     2
 10
197.4646083691307
 20
92.715365532923414
 30
0.0
 11
187.4646083691307
 21
92.715365532923414
 31
0.0
  0
LINE
  5
1E70
  8
0
  6
HIDDEN
 62
     2
 10
197.16460836913069
 20
93.715365532923414
 30
0.0
 11
183.9646083691307
 21
93.715365532923414
 31
0.0
  0
LINE
  5
1E71
  8
0
  6
HIDDEN
 62
     2
 10
196.95538670369689
 20
92.206143867489544
 30
0.0
 11
186.330466614838
 21
92.206143867489544
 31
0.0
  0
LINE
  5
1E72
  8
0
  6
HIDDEN
 62
     2
 10
197.4646083691307
 20
87.715365532923414
 30
0.0
 11
187.4646083691307
 21
87.715365532923414
 31
0.0
  0
LINE
  5
1E73
  8
0
  6
HIDDEN
 62
     2
 10
197.16460836913069
 20
86.715365532923414
 30
0.0
 11
183.9646083691307
 21
86.715365532923414
 31
0.0
  0
LINE
  5
1E74
  8
0
  6
HIDDEN
 62
     2
 10
196.95538670369689
 20
88.224587198357284
 30
0.0
 11
186.330466614838
 21
88.224587198357284
 31
0.0
  0
LINE
  5
1E75
  8
0
  6
HIDDEN
 62
     2
 10
187.4646083691307
 20
87.715365532923414
 30
0.0
 11
187.4646083691307
 21
90.215365532923414
 31
0.0
  0
LINE
  5
1E76
  8
0
  6
HIDDEN
 62
     2
 10
186.330466614838
 20
88.224587198357284
 30
0.0
 11
185.1810902074794
 21
90.215365532923414
 31
0.0
  0
LINE
  5
1E77
  8
0
  6
HIDDEN
 62
     2
 10
186.330466614838
 20
88.224587198357284
 30
0.0
 11
186.330466614838
 21
90.215365532923414
 31
0.0
  0
LINE
  5
1E78
  8
0
  6
HIDDEN
 62
     2
 10
182.9646083691307
 20
87.715365532923414
 30
0.0
 11
182.9646083691307
 21
90.215365532923414
 31
0.0
  0
LINE
  5
1E79
  8
0
  6
HIDDEN
 62
     2
 10
182.9646083691307
 20
87.715365532923414
 30
0.0
 11
183.9646083691307
 21
86.715365532923414
 31
0.0
  0
LINE
  5
1E7A
  8
0
  6
HIDDEN
 62
     2
 10
182.9646083691307
 20
92.715365532923414
 30
0.0
 11
183.9646083691307
 21
93.715365532923414
 31
0.0
  0
LINE
  5
1E7B
  8
0
  6
HIDDEN
 62
     2
 10
182.9646083691307
 20
92.715365532923414
 30
0.0
 11
182.9646083691307
 21
90.215365532923414
 31
0.0
  0
LINE
  5
1E7C
  8
0
  6
HIDDEN
 62
     2
 10
187.4646083691307
 20
92.715365532923414
 30
0.0
 11
187.4646083691307
 21
90.215365532923414
 31
0.0
  0
LINE
  5
1E7D
  8
0
  6
HIDDEN
 62
     2
 10
186.330466614838
 20
92.206143867489544
 30
0.0
 11
185.1810902074794
 21
90.215365532923414
 31
0.0
  0
LINE
  5
1E7E
  8
0
  6
HIDDEN
 62
     2
 10
186.330466614838
 20
92.206143867489544
 30
0.0
 11
186.330466614838
 21
90.215365532923414
 31
0.0
  0
LINE
  5
1E7F
  8
0
  6
HIDDEN
 62
     2
 10
196.95538670369689
 20
88.224587198357284
 30
0.0
 11
196.95538670369689
 21
90.215365532923414
 31
0.0
  0
LINE
  5
1E80
  8
0
  6
CONTINUOUS
 62
     7
 10
197.4646083691307
 20
86.715365532923414
 30
0.0
 11
197.4646083691307
 21
90.215365532923414
 31
0.0
  0
LINE
  5
1E81
  8
0
  6
HIDDEN
 62
     2
 10
197.4646083691307
 20
87.715365532923414
 30
0.0
 11
196.95538670369689
 21
88.224587198357284
 31
0.0
  0
LINE
  5
1E82
  8
0
  6
CONTINUOUS
 62
     7
 10
197.4646083691307
 20
86.715365532923414
 30
0.0
 11
197.16460836913069
 21
86.715365532923414
 31
0.0
  0
LINE
  5
1E83
  8
0
  6
CONTINUOUS
 62
     7
 10
197.4646083691307
 20
93.715365532923414
 30
0.0
 11
197.4646083691307
 21
90.215365532923414
 31
0.0
  0
LINE
  5
1E84
  8
0
  6
HIDDEN
 62
     2
 10
197.4646083691307
 20
92.715365532923414
 30
0.0
 11
196.95538670369689
 21
92.206143867489544
 31
0.0
  0
LINE
  5
1E85
  8
0
  6
HIDDEN
 62
     2
 10
196.95538670369689
 20
92.206143867489544
 30
0.0
 11
196.95538670369689
 21
90.215365532923414
 31
0.0
  0
LINE
  5
1E86
  8
0
  6
CONTINUOUS
 62
     7
 10
197.4646083691307
 20
93.715365532923414
 30
0.0
 11
197.16460836913069
 21
93.715365532923414
 31
0.0
  0
ENDSEC
  0
EOF
