  0
SECTION
  2
HEADER
  9
$ACADVER
  1
AC1015
  9
$ACADMAINTVER
 70
    13
  9
$DWGCODEPAGE
  3
ANSI_932
  9
$INSBASE
 10
0.0
 20
0.0
 30
0.0
  9
$EXTMIN
 10
43.80489987432603
 20
44.99999999374998
 30
0.0
  9
$EXTMAX
 10
223.8507171172424
 20
134.9999953999999
 30
0.0
  9
$LIMMIN
 10
0.0
 20
0.0
  9
$LIMMAX
 10
375.0
 20
270.0
  9
$ORTHOMODE
 70
     1
  9
$REGENMODE
 70
     1
  9
$FILLMODE
 70
     1
  9
$QTEXTMODE
 70
     0
  9
$MIRRTEXT
 70
     0
  9
$LTSCALE
 40
10.0
  9
$ATTMODE
 70
     1
  9
$TEXTSIZE
 40
5.0
  9
$TRACEWID
 40
0.05
  9
$TEXTSTYLE
  7
STANDARD
  9
$CLAYER
  8
0
  9
$CELTYPE
  6
ByLayer
  9
$CECOLOR
 62
   256
  9
$CELTSCALE
 40
1.0
  9
$DISPSILH
 70
     0
  9
$DIMSCALE
 40
1.0
  9
$DIMASZ
 40
3.0
  9
$DIMEXO
 40
2.0
  9
$DIMDLI
 40
0.38
  9
$DIMRND
 40
0.0
  9
$DIMDLE
 40
0.0
  9
$DIMEXE
 40
2.0
  9
$DIMTP
 40
0.0
  9
$DIMTM
 40
0.0
  9
$DIMTXT
 40
3.0
  9
$DIMCEN
 40
0.0
  9
$DIMTSZ
 40
0.0
  9
$DIMTOL
 70
     0
  9
$DIMLIM
 70
     0
  9
$DIMTIH
 70
     0
  9
$DIMTOH
 70
     0
  9
$DIMSE1
 70
     0
  9
$DIMSE2
 70
     0
  9
$DIMTAD
 70
     1
  9
$DIMZIN
 70
     0
  9
$DIMBLK
  1

  9
$DIMASO
 70
     0
  9
$DIMSHO
 70
     0
  9
$DIMPOST
  1

  9
$DIMAPOST
  1

  9
$DIMALT
 70
     0
  9
$DIMALTD
 70
     2
  9
$DIMALTF
 40
25.4
  9
$DIMLFAC
 40
1.0
  9
$DIMTOFL
 70
     1
  9
$DIMTVP
 40
1.6
  9
$DIMTIX
 70
     1
  9
$DIMSOXD
 70
     0
  9
$DIMSAH
 70
     0
  9
$DIMBLK1
  1

  9
$DIMBLK2
  1

  9
$DIMSTYLE
  2
STANDARD
  9
$DIMCLRD
 70
     0
  9
$DIMCLRE
 70
     0
  9
$DIMCLRT
 70
     0
  9
$DIMTFAC
 40
1.0
  9
$DIMGAP
 40
0.09
  9
$DIMJUST
 70
     0
  9
$DIMSD1
 70
     0
  9
$DIMSD2
 70
     0
  9
$DIMTOLJ
 70
     1
  9
$DIMTZIN
 70
     0
  9
$DIMALTZ
 70
     0
  9
$DIMALTTZ
 70
     0
  9
$DIMUPT
 70
     0
  9
$DIMDEC
 70
     4
  9
$DIMTDEC
 70
     4
  9
$DIMALTU
 70
     2
  9
$DIMALTTD
 70
     2
  9
$DIMTXSTY
  7
STANDARD
  9
$DIMAUNIT
 70
     0
  9
$DIMADEC
 70
     0
  9
$DIMALTRND
 40
0.0
  9
$DIMAZIN
 70
     0
  9
$DIMDSEP
 70
    46
  9
$DIMATFIT
 70
     3
  9
$DIMFRAC
 70
     0
  9
$DIMLDRBLK
  1

  9
$DIMLUNIT
 70
     2
  9
$DIMLWD
 70
    -2
  9
$DIMLWE
 70
    -2
  9
$DIMTMOVE
 70
     0
  9
$LUNITS
 70
     2
  9
$LUPREC
 70
     4
  9
$SKETCHINC
 40
0.1
  9
$FILLETRAD
 40
0.0
  9
$AUNITS
 70
     0
  9
$AUPREC
 70
     4
  9
$MENU
  1
E:\r13\win\SUPPORT\ACAD
  9
$ELEVATION
 40
0.0
  9
$PELEVATION
 40
0.0
  9
$THICKNESS
 40
0.0
  9
$LIMCHECK
 70
     0
  9
$CHAMFERA
 40
0.0
  9
$CHAMFERB
 40
0.0
  9
$CHAMFERC
 40
0.0
  9
$CHAMFERD
 40
0.0
  9
$SKPOLY
 70
     0
  9
$TDCREATE
 40
2449839.785277777
  9
$TDUCREATE
 40
2449839.410277778
  9
$TDUPDATE
 40
2456451.621421620
  9
$TDUUPDATE
 40
2456451.246421620
  9
$TDINDWG
 40
0.0516498148
  9
$TDUSRTIMER
 40
0.0516498148
  9
$USRTIMER
 70
     1
  9
$ANGBASE
 50
0.0
  9
$ANGDIR
 70
     0
  9
$PDMODE
 70
     0
  9
$PDSIZE
 40
0.0
  9
$PLINEWID
 40
0.0
  9
$SPLFRAME
 70
     0
  9
$SPLINETYPE
 70
     6
  9
$SPLINESEGS
 70
     8
  9
$HANDSEED
  5
7A7
  9
$SURFTAB1
 70
     6
  9
$SURFTAB2
 70
     6
  9
$SURFTYPE
 70
     6
  9
$SURFU
 70
     6
  9
$SURFV
 70
     6
  9
$UCSBASE
  2

  9
$UCSNAME
  2

  9
$UCSORG
 10
0.0
 20
0.0
 30
0.0
  9
$UCSXDIR
 10
1.0
 20
0.0
 30
0.0
  9
$UCSYDIR
 10
0.0
 20
1.0
 30
0.0
  9
$UCSORTHOREF
  2

  9
$UCSORTHOVIEW
 70
     0
  9
$UCSORGTOP
 10
0.0
 20
0.0
 30
0.0
  9
$UCSORGBOTTOM
 10
0.0
 20
0.0
 30
0.0
  9
$UCSORGLEFT
 10
0.0
 20
0.0
 30
0.0
  9
$UCSORGRIGHT
 10
0.0
 20
0.0
 30
0.0
  9
$UCSORGFRONT
 10
0.0
 20
0.0
 30
0.0
  9
$UCSORGBACK
 10
0.0
 20
0.0
 30
0.0
  9
$PUCSBASE
  2

  9
$PUCSNAME
  2

  9
$PUCSORG
 10
0.0
 20
0.0
 30
0.0
  9
$PUCSXDIR
 10
1.0
 20
0.0
 30
0.0
  9
$PUCSYDIR
 10
0.0
 20
1.0
 30
0.0
  9
$PUCSORTHOREF
  2

  9
$PUCSORTHOVIEW
 70
     0
  9
$PUCSORGTOP
 10
0.0
 20
0.0
 30
0.0
  9
$PUCSORGBOTTOM
 10
0.0
 20
0.0
 30
0.0
  9
$PUCSORGLEFT
 10
0.0
 20
0.0
 30
0.0
  9
$PUCSORGRIGHT
 10
0.0
 20
0.0
 30
0.0
  9
$PUCSORGFRONT
 10
0.0
 20
0.0
 30
0.0
  9
$PUCSORGBACK
 10
0.0
 20
0.0
 30
0.0
  9
$USERI1
 70
     0
  9
$USERI2
 70
     1
  9
$USERI3
 70
     1
  9
$USERI4
 70
     0
  9
$USERI5
 70
     0
  9
$USERR1
 40
0.0
  9
$USERR2
 40
0.0
  9
$USERR3
 40
0.0
  9
$USERR4
 40
0.0
  9
$USERR5
 40
0.0
  9
$WORLDVIEW
 70
     1
  9
$SHADEDGE
 70
     3
  9
$SHADEDIF
 70
    70
  9
$TILEMODE
 70
     1
  9
$MAXACTVP
 70
    16
  9
$PINSBASE
 10
0.0
 20
0.0
 30
0.0
  9
$PLIMCHECK
 70
     0
  9
$PEXTMIN
 10
1.000000000000000E+20
 20
1.000000000000000E+20
 30
1.000000000000000E+20
  9
$PEXTMAX
 10
-1.000000000000000E+20
 20
-1.000000000000000E+20
 30
-1.000000000000000E+20
  9
$PLIMMIN
 10
0.0
 20
0.0
  9
$PLIMMAX
 10
12.0
 20
9.0
  9
$UNITMODE
 70
     0
  9
$VISRETAIN
 70
     0
  9
$PLINEGEN
 70
     0
  9
$PSLTSCALE
 70
     0
  9
$TREEDEPTH
 70
  3020
  9
$CMLSTYLE
  2
Standard
  9
$CMLJUST
 70
     0
  9
$CMLSCALE
 40
1.0
  9
$PROXYGRAPHICS
 70
     1
  9
$MEASUREMENT
 70
     0
  9
$CELWEIGHT
370
    -1
  9
$ENDCAPS
280
     0
  9
$JOINSTYLE
280
     0
  9
$LWDISPLAY
290
     0
  9
$INSUNITS
 70
     0
  9
$HYPERLINKBASE
  1

  9
$STYLESHEET
  1

  9
$XEDIT
290
     1
  9
$CEPSNTYPE
380
     0
  9
$PSTYLEMODE
290
     1
  9
$FINGERPRINTGUID
  2
{149EBB21-D2BF-4DAE-9A1D-7C6E449557AE}
  9
$VERSIONGUID
  2
{1713CB70-EE80-4E37-9F74-BD722972E64C}
  9
$EXTNAMES
290
     1
  9
$PSVPSCALE
 40
0.0
  9
$OLESTARTUP
290
     0
  0
ENDSEC
  0
SECTION
  2
CLASSES
  0
CLASS
  1
ACDBDICTIONARYWDFLT
  2
AcDbDictionaryWithDefault
  3
AutoCAD 2000
 90
        0
280
     0
281
     0
  0
CLASS
  1
ACDBPLACEHOLDER
  2
AcDbPlaceHolder
  3
AutoCAD 2000
 90
        0
280
     0
281
     0
  0
CLASS
  1
LAYOUT
  2
AcDbLayout
  3
AutoCAD 2000
 90
        0
280
     0
281
     0
  0
CLASS
  1
AMGSETTINGSOBJ
  2
AmgSettingsObj
  3
"AcadM|Product Description: AutoCAD Mechanical 2000|Company: Autodesk"
 90
        0
280
     0
281
     0
  0
CLASS
  1
ACME_DOCUMENT
  2
AcMeDbDoc
  3
AcMeServices
 90
        0
280
     0
281
     0
  0
CLASS
  1
ACMESCOPE
  2
AcMeScope
  3
AcMeServices
 90
        0
280
     0
281
     0
  0
CLASS
  1
ACMECOMMANDHISTORY
  2
AcMeCommandHistory
  3
AcMeServices
 90
        0
280
     0
281
     0
  0
CLASS
  1
ACIMSYSVARMAN
  2
AcImSysVarManager
  3
AcMeServices
 90
        0
280
     0
281
     0
  0
CLASS
  1
ACIMREALSYSVAR
  2
AcImRealSysVar
  3
AcMeServices
 90
        0
280
     0
281
     0
  0
CLASS
  1
ACIMINTSYSVAR
  2
AcImIntSysVar
  3
AcMeServices
 90
        0
280
     0
281
     0
  0
CLASS
  1
ACMEDRAWINGMAN
  2
AcMeDrawingMan
  3
AcMeServices
 90
        0
280
     0
281
     0
  0
CLASS
  1
ACMEVIEW
  2
AcMeView
  3
AcMeServices
 90
        0
280
     0
281
     0
  0
CLASS
  1
ACDBENTITYCACHE
  2
AcMeEntityCache
  3
AcMeServices
 90
        0
280
     0
281
     0
  0
CLASS
  1
GSMANAGER
  2
AcMeGSManager
  3
AcMeServices
 90
        0
280
     0
281
     0
  0
CLASS
  1
AMDTINTERNALREACTOR
  2
AmdtInternalReactor
  3
AcMeServices
 90
        0
280
     0
281
     0
  0
CLASS
  1
ACMESTATEMGR
  2
AcMeStateMgr
  3
AcMeServices
 90
        0
280
     0
281
     0
  0
CLASS
  1
ACGREFMASTER
  2
AcGrefMaster
  3
AcAttribServices
 90
        0
280
     0
281
     0
  0
CLASS
  1
AM_DRAWING_MGR
  2
AcDmDwgMgr
  3
AcMechDwgViewMgmt
 90
        0
280
     0
281
     0
  0
CLASS
  1
AM_DWG_DOCUMENT
  2
AcDmDwgDocument
  3
AcMechDwgViewMgmt
 90
        0
280
     0
281
     0
  0
CLASS
  1
AM_DWG_SHEET
  2
AcDmSheet
  3
AcMechDwgViewMgmt
 90
        0
280
     0
281
     0
  0
CLASS
  1
AM_VIEWDIMPARMAP
  2
AcDmViewDimParMap
  3
AcMechDwgViewMgmt
 90
        0
280
     0
281
     0
  0
CLASS
  1
AM_DWGMGR_NAME
  2
AcDmDwgMgrName
  3
AcMechDwgViewMgmt
 90
        0
280
     0
281
     0
  0
CLASS
  1
ACME_DATABASE
  2
AcMeDbDatabase
  3
AcMeServices
 90
        0
280
     0
281
     0
  0
CLASS
  1
ACRFINSADJUSTERMGR
  2
AcRfInsAdjusterMgr
  3
AcMeServices
 90
        0
280
     0
281
     0
  0
CLASS
  1
ACGREFACADMASTER
  2
AcGrefacadMaster
  3
AcGrefServices
 90
        0
280
     0
281
     0
  0
CLASS
  1
AMDTMENUSTATEMGR
  2
AmdtMenuStateMgr
  3
McadcomServices
 90
        0
280
     0
281
     0
  0
CLASS
  1
AMDTMCOMMENUSTATE
  2
AmdtMcomMenuState
  3
McadcomServices
 90
        0
280
     0
281
     0
  0
CLASS
  1
AMIMASTER
  2
AmiMaster
  3
AmiServices
 90
        0
280
     0
281
     0
  0
CLASS
  1
ASAPP
  2
AcAsAppObject
  3
AutoSurfServices
 90
        0
280
     0
281
     0
  0
CLASS
  1
IM_STATIC_MAN
  2
AcImStaticVarManager
  3
AcMeServices
 90
        0
280
     0
281
     0
  0
CLASS
  1
ACIMSTRSYSVAR
  2
AcImStrSysVar
  3
AcMeServices
 90
        0
280
     0
281
     0
  0
CLASS
  1
ACIMDBLSTATICVAR
  2
AcImDblStaticVar
  3
AcMeServices
 90
        0
280
     0
281
     0
  0
CLASS
  1
ACIMSTRSTATICVAR
  2
AcImStrStaticVar
  3
AcMeServices
 90
        0
280
     0
281
     0
  0
CLASS
  1
ACIMINTSTATICVAR
  2
AcImIntStaticVar
  3
AcMeServices
 90
        0
280
     0
281
     0
  0
CLASS
  1
ACASGREFMASTER
  2
AcAsGrefMaster
  3
AutoSurfResolverServices
 90
        0
280
     0
281
     0
  0
CLASS
  1
ACADGREFMODULE
  2
AcAdGrefModule
  3
AdGrefServices
 90
        0
280
     0
281
     0
  0
CLASS
  1
AMDTMAPISURFMOUDULE
  2
AmdtMApiSurfModule
  3
MApiSurfServices
 90
        0
280
     0
281
     0
  0
CLASS
  1
MAPIAMMOUDLE
  2
MApiAmModule
  3
MApiAmServices
 90
        0
280
     0
281
     0
  0
CLASS
  1
AMDTADMENUSTATE
  2
AmdtAdMenuState
  3
DesignerServices
 90
        0
280
     0
281
     0
  0
CLASS
  1
ADAPPL
  2
AcAdAppl
  3
DesignerServices
 90
        0
280
     0
281
     0
  0
CLASS
  1
DEPMGR
  2
AcAdDepMgr
  3
DesignerServices
 90
        0
280
     0
281
     0
  0
CLASS
  1
PARAMMGR
  2
AcAdParamMgr
  3
DesignerServices
 90
        0
280
     0
281
     0
  0
CLASS
  1
PARAMSCOPE
  2
AcAdParamScope
  3
DesignerServices
 90
        0
280
     0
281
     0
  0
CLASS
  1
NAMEDAPPL
  2
AcAdNamedAppl
  3
DesignerServices
 90
        0
280
     0
281
     0
  0
CLASS
  1
AMDTDMMENUSTATE
  2
AmdtDmMenuState
  3
AcMechDwgViewMgmt
 90
        0
280
     0
281
     0
  0
CLASS
  1
MAPIADMODULE
  2
MApiAdModule
  3
MApiAdServices
 90
        0
280
     0
281
     0
  0
CLASS
  1
AMDTAMMENUSTATE
  2
AmdtAmMenuState
  3
DesignerAssemblies
 90
        0
280
     0
281
     0
  0
CLASS
  1
ACAMPROJECT
  2
AcAmProject
  3
DesignerAssemblies
 90
        0
280
     0
281
     0
  0
CLASS
  1
ACAMGRCOMPDEF
  2
AcAmGrCompDef
  3
DesignerAssemblies
 90
        0
280
     0
281
     0
  0
CLASS
  1
ACCMCONTEXT
  2
AcCmContext
  3
DesignerAssemblies
 90
        0
280
     0
281
     0
  0
CLASS
  1
ACAMCOMPDEF
  2
AcAmCompDef
  3
DesignerAssemblies
 90
        0
280
     0
281
     0
  0
CLASS
  1
ACAMCOMPDEFMGR
  2
AcAmCompDefMgr
  3
DesignerAssemblies
 90
        0
280
     0
281
     0
  0
CLASS
  1
AMCONTEXTMGR
  2
AcAmContextMgr
  3
DesignerAssemblies
 90
        0
280
     0
281
     0
  0
CLASS
  1
ACAMCONTEXTMODELER
  2
AcAmContextModeler
  3
DesignerAssemblies
 90
        0
280
     0
281
     0
  0
CLASS
  1
ACMDATADICTIONARY
  2
AcmDataDictionary
  3
"AcmSymBB|Product Description: AutoCAD Mechanical 2000|Company: Autodesk"
 90
        0
280
     0
281
     0
  0
CLASS
  1
ACMDATAENTRYBLOCK
  2
AcmDataEntryBlock
  3
"AcmSymBB|Product Description: AutoCAD Mechanical 2000|Company: Autodesk"
 90
        0
280
     0
281
     0
  0
CLASS
  1
CATALOGSTATE
  2
AcAmCatalogState
  3
DesignerAssemblies
 90
        0
280
     0
281
     0
  0
CLASS
  1
ACAMGRCOMPDEFSET
  2
AcAmGrCompDefSet
  3
DesignerAssemblies
 90
        0
280
     0
281
     0
  0
CLASS
  1
AMDTBROWSERDBTAB
  2
AmdtBrowserDbTab
  3
McadcomServices
 90
        0
280
     0
281
     0
  0
CLASS
  1
CBROWSERAPPOBJECT
  2
CBrowserAppObject
  3
McadcomServices
 90
        0
280
     0
281
     0
  0
CLASS
  1
DM_PLACEHOLDER
  2
AcDmSelsetPlaceholder
  3
AcMechDwgViewMgmt
 90
        0
280
     0
281
     0
  0
CLASS
  1
AMGOBJPROPCFG
  2
AmgObjPropCfg
  3
"AmgLay|Product Description: AutoCAD Mechanical 2000|Company: Autodesk"
 90
        1
280
     0
281
     0
  0
CLASS
  1
ACAMGFILTERDAT
  2
AcAmgFilterDat
  3
"AcadM|Product Description: AutoCAD Mechanical 2000|Company: Autodesk"
 90
        0
280
     0
281
     0
  0
CLASS
  1
LAYER_INDEX
  2
AcDbLayerIndex
  3
AutoCAD 2000
 90
        0
280
     0
281
     0
  0
CLASS
  1
IDBUFFER
  2
AcDbIdBuffer
  3
AutoCAD 2000
 90
        0
280
     0
281
     0
  0
CLASS
  1
DICTIONARYVAR
  2
AcDbDictionaryVar
  3
AutoCAD 2000
 90
        0
280
     0
281
     0
  0
ENDSEC
  0
SECTION
  2
TABLES
  0
TABLE
  2
VPORT
  5
64F
330
0
100
AcDbSymbolTable
 70
     3
  0
VPORT
  5
7A6
330
64F
100
AcDbSymbolTableRecord
100
AcDbViewportTableRecord
  2
*Active
 70
     0
 10
0.0
 20
0.0
 11
1.0
 21
1.0
 12
0.0
 22
0.0
 13
0.0
 23
0.0
 14
10.0
 24
10.0
 15
10.0
 25
10.0
 16
0.0
 26
0.0
 36
1.0
 17
162.1942446043165
 27
108.8755197140987
 37
0.0
 40
217.7510394281975
 41
1.489721886336154
 42
50.0
 43
0.0
 44
0.0
 50
0.0
 51
0.0
 71
     0
 72
   500
 73
     1
 74
     0
 75
     0
 76
     0
 77
     0
 78
     2
281
     0
 65
     0
110
0.0
120
0.0
130
0.0
111
1.0
121
0.0
131
0.0
112
0.0
122
1.0
132
0.0
 79
     0
146
0.0
  0
ENDTAB
  0
TABLE
  2
LTYPE
  5
64C
330
0
100
AcDbSymbolTable
 70
    16
  0
LTYPE
  5
65A
330
64C
100
AcDbSymbolTableRecord
100
AcDbLinetypeTableRecord
  2
ByBlock
 70
     0
  3

 72
    65
 73
     0
 40
0.0
  0
LTYPE
  5
65B
330
64C
100
AcDbSymbolTableRecord
100
AcDbLinetypeTableRecord
  2
ByLayer
 70
     0
  3

 72
    65
 73
     0
 40
0.0
  0
LTYPE
  5
65C
330
64C
100
AcDbSymbolTableRecord
100
AcDbLinetypeTableRecord
  2
CONTINUOUS
 70
     0
  3
Solid Line
 72
    65
 73
     0
 40
0.0
  0
LTYPE
  5
66A
330
64C
100
AcDbSymbolTableRecord
100
AcDbLinetypeTableRecord
  2
CENTER
 70
     0
  3
____ _ ____ _ ____ _ ____ _ ____ _ ____ _ ____
 72
    65
 73
     4
 40
2.0
 49
1.25
 74
     0
 49
-0.25
 74
     0
 49
0.25
 74
     0
 49
-0.25
 74
     0
  0
LTYPE
  5
66B
330
64C
100
AcDbSymbolTableRecord
100
AcDbLinetypeTableRecord
  2
HIDDEN
 70
     0
  3
_ _ _ _ _ _ _ _ _ _ _ _ _ _ _ _ _ _ _ _ _ _ _
 72
    65
 73
     2
 40
0.375
 49
0.25
 74
     0
 49
-0.125
 74
     0
  0
LTYPE
  5
6E5
330
64C
100
AcDbSymbolTableRecord
100
AcDbLinetypeTableRecord
  2
PHANTOM2
 70
     0
  3
Phantom (.5x) ___ _ _ ___ _ _ ___ _ _ ___ _ _
 72
    65
 73
     6
 40
1.25
 49
0.625
 74
     0
 49
-0.125
 74
     0
 49
0.125
 74
     0
 49
-0.125
 74
     0
 49
0.125
 74
     0
 49
-0.125
 74
     0
  0
LTYPE
  5
747
330
64C
100
AcDbSymbolTableRecord
100
AcDbLinetypeTableRecord
  2
ASULTYPE
 70
     0
  3
実線
 72
    65
 73
     2
 40
3.0
 49
2.5
 74
     0
 49
0.5
 74
     0
  0
LTYPE
  5
748
330
64C
100
AcDbSymbolTableRecord
100
AcDbLinetypeTableRecord
  2
ASVLTYPE
 70
     0
  3
__ __ __ __ __ __ __ __ __ __ __ __ __ __ __ __ __ __ __ __ __
 72
    65
 73
     2
 40
0.75
 49
0.5
 74
     0
 49
-0.25
 74
     0
  0
LTYPE
  5
789
330
64C
100
AcDbSymbolTableRecord
100
AcDbLinetypeTableRecord
  2
AM_ISO02W050
 70
     0
  3
__ __ __ __ __ __ __ __ __ __ __ __ __ __ __
 72
    65
 73
     2
 40
7.5
 49
6.0
 74
     0
 49
-1.5
 74
     0
  0
LTYPE
  5
78A
330
64C
100
AcDbSymbolTableRecord
100
AcDbLinetypeTableRecord
  2
AM_ISO08W050
 70
     0
  3
____ . ____ . ____ . ____ . ____ . ____ . ____
 72
    65
 73
     4
 40
18.0
 49
12.0
 74
     0
 49
-1.5
 74
     0
 49
3.0
 74
     0
 49
-1.5
 74
     0
  0
LTYPE
  5
78B
330
64C
100
AcDbSymbolTableRecord
100
AcDbLinetypeTableRecord
  2
AM_ISO09W050
 70
     0
  3
_____ . . _____ . . _____ . . ____ .. ____
 72
    65
 73
     6
 40
22.5
 49
12.0
 74
     0
 49
-1.5
 74
     0
 49
3.0
 74
     0
 49
-1.5
 74
     0
 49
3.0
 74
     0
 49
-1.5
 74
     0
  0
LTYPE
  5
78C
330
64C
100
AcDbSymbolTableRecord
100
AcDbLinetypeTableRecord
  2
Amconstr
 70
     0
  3
_______________________
 72
    65
 73
     2
 40
9999.0
 49
9999.0
 74
     0
 49
0.0
 74
     0
  0
LTYPE
  5
78D
330
64C
100
AcDbSymbolTableRecord
100
AcDbLinetypeTableRecord
  2
AM_ISO08W050x2
 70
     0
  3
__ . __ . __ . __ . __ . __
 72
    65
 73
     4
 40
9.0
 49
6.0
 74
     0
 49
-0.75
 74
     0
 49
1.5
 74
     0
 49
-0.75
 74
     0
  0
LTYPE
  5
78E
330
64C
100
AcDbSymbolTableRecord
100
AcDbLinetypeTableRecord
  2
AM_ISO02W050x2
 70
     0
  3
 _ _ _ _ _ _ _ _ _ _ _ _
 72
    65
 73
     2
 40
3.75
 49
3.0
 74
     0
 49
-0.75
 74
     0
  0
LTYPE
  5
791
330
64C
100
AcDbSymbolTableRecord
100
AcDbLinetypeTableRecord
  2
Amzigzag
 70
     0
  3
/\/-/\/-/\/-/\/-/\/-/\/
 72
    65
 73
     2
 40
11.00009999999999
 49
0.0001
 74
     4
 75
   135
340
790
 46
0.04
 50
0.0
 44
0.0
 45
0.0
 49
-11.0
 74
     0
  0
LTYPE
  5
792
330
64C
100
AcDbSymbolTableRecord
100
AcDbLinetypeTableRecord
  2
CENTER2
 70
     0
  3
Center (.5x) ___ _ ___ _ ___ _ ___ _ ___ _ ___
 72
    65
 73
     4
 40
1.125
 49
0.75
 74
     0
 49
-0.125
 74
     0
 49
0.125
 74
     0
 49
-0.125
 74
     0
  0
LTYPE
  5
793
330
64C
100
AcDbSymbolTableRecord
100
AcDbLinetypeTableRecord
  2
HIDDEN2
 70
     0
  3
Hidden (.5x) _ _ _ _ _ _ _ _ _ _ _ _ _ _ _ _ _
 72
    65
 73
     2
 40
0.1875
 49
0.125
 74
     0
 49
-0.0625
 74
     0
  0
LTYPE
  5
794
330
64C
100
AcDbSymbolTableRecord
100
AcDbLinetypeTableRecord
  2
Amzigzag2
 70
     0
  3
/\/-/\/-/\/-/\/-/\/-/\/
 72
    65
 73
     2
 40
0.4401
 49
0.0001
 74
     4
 75
   135
340
790
 46
0.0016
 50
0.0
 44
0.0
 45
0.0
 49
-0.4400000000000001
 74
     0
  0
ENDTAB
  0
TABLE
  2
LAYER
  5
649
330
0
100
AcDbSymbolTable
 70
     3
  0
LAYER
  5
657
330
649
100
AcDbSymbolTableRecord
100
AcDbLayerTableRecord
  2
0
 70
     0
 62
     7
  6
CONTINUOUS
370
    -3
390
656
  0
LAYER
  5
66C
330
649
100
AcDbSymbolTableRecord
100
AcDbLayerTableRecord
  2
1
 70
     0
 62
     1
  6
CENTER
370
    -3
390
656
  0
LAYER
  5
66D
330
649
100
AcDbSymbolTableRecord
100
AcDbLayerTableRecord
  2
2
 70
     0
 62
     5
  6
HIDDEN
370
    -3
390
656
  0
ENDTAB
  0
TABLE
  2
STYLE
  5
64A
330
0
100
AcDbSymbolTable
 70
     2
  0
STYLE
  5
658
330
64A
100
AcDbSymbolTableRecord
100
AcDbTextStyleTableRecord
  2
STANDARD
 70
     0
 40
0.0
 41
1.0
 50
0.0
 71
     0
 42
5.0
  3
TXT
  4
BIGFONT
  0
STYLE
  5
790
330
64A
100
AcDbSymbolTableRecord
100
AcDbTextStyleTableRecord
  2

 70
     1
 40
0.0
 41
1.0
 50
0.0
 71
     0
 42
5.0
  3
ltypeshp.shx
  4

  0
ENDTAB
  0
TABLE
  2
VIEW
  5
64D
330
0
100
AcDbSymbolTable
 70
     1
  0
VIEW
  5
66E
330
64D
100
AcDbSymbolTableRecord
100
AcDbViewTableRecord
  2
ALL
 70
     0
 40
270.0
 10
220.9915966386554
 20
135.0
 41
0.0
 11
0.0
 21
0.0
 31
1.0
 12
0.0
 22
0.0
 32
0.0
 42
0.0
 43
0.0
 44
0.0
 50
0.0
 71
     0
281
     0
 72
     0
  0
ENDTAB
  0
TABLE
  2
UCS
  5
64E
330
0
100
AcDbSymbolTable
 70
     0
  0
ENDTAB
  0
TABLE
  2
APPID
  5
650
330
0
100
AcDbSymbolTable
 70
    14
  0
APPID
  5
659
330
650
100
AcDbSymbolTableRecord
100
AcDbRegAppTableRecord
  2
ACAD
 70
     0
  0
APPID
  5
66F
330
650
100
AcDbSymbolTableRecord
100
AcDbRegAppTableRecord
  2
ACAD_EXEMPT_FROM_CAD_STANDARDS
 70
     0
  0
APPID
  5
670
330
650
100
AcDbSymbolTableRecord
100
AcDbRegAppTableRecord
  2
ACAD_MLEADERVER
 70
     0
  0
APPID
  5
6C4
330
650
100
AcDbSymbolTableRecord
100
AcDbRegAppTableRecord
  2
GENIUS_GENDIM_13
 70
     0
  0
APPID
  5
6C5
330
650
100
AcDbSymbolTableRecord
100
AcDbRegAppTableRecord
  2
GENIUS_GENDTOL_13
 70
     0
  0
APPID
  5
6C6
330
650
100
AcDbSymbolTableRecord
100
AcDbRegAppTableRecord
  2
GENIUS_GE3DTOL_13
 70
     0
  0
APPID
  5
6C8
330
650
100
AcDbSymbolTableRecord
100
AcDbRegAppTableRecord
  2
MCAD_NO_VIS
 70
     0
  0
APPID
  5
6C9
330
650
100
AcDbSymbolTableRecord
100
AcDbRegAppTableRecord
  2
ACAD_TEMP_GRAPHIC
 70
     0
  0
APPID
  5
6FA
330
650
100
AcDbSymbolTableRecord
100
AcDbRegAppTableRecord
  2
AD_DRAW
 70
     0
  0
APPID
  5
6FD
330
650
100
AcDbSymbolTableRecord
100
AcDbRegAppTableRecord
  2
ACATTRIBSERVICES
 70
     0
  0
APPID
  5
749
330
650
100
AcDbSymbolTableRecord
100
AcDbRegAppTableRecord
  2
ASURF_PCURVE_APPNAME
 70
     0
  0
APPID
  5
778
330
650
100
AcDbSymbolTableRecord
100
AcDbRegAppTableRecord
  2
DESIGNERASSEMBLIES
 70
     0
  0
APPID
  5
780
330
650
100
AcDbSymbolTableRecord
100
AcDbRegAppTableRecord
  2
ACADM_DIM_EDIT
 70
     0
  0
APPID
  5
781
330
650
100
AcDbSymbolTableRecord
100
AcDbRegAppTableRecord
  2
AMDT_DM_ADJ
 70
     0
  0
ENDTAB
  0
TABLE
  2
DIMSTYLE
  5
651
330
0
100
AcDbSymbolTable
 70
     1
100
AcDbDimStyleTable
 71
     0
  0
DIMSTYLE
105
671
330
651
100
AcDbSymbolTableRecord
100
AcDbDimStyleTableRecord
  2
STANDARD
 70
     0
279
     2
340
658
  0
ENDTAB
  0
TABLE
  2
BLOCK_RECORD
  5
648
330
0
100
AcDbSymbolTable
 70
     3
  0
BLOCK_RECORD
  5
665
102
{ACAD_XDICTIONARY
360
79D
102
}
330
648
100
AcDbSymbolTableRecord
100
AcDbBlockTableRecord
  2
*Model_Space
340
668
  0
BLOCK_RECORD
  5
661
330
648
100
AcDbSymbolTableRecord
100
AcDbBlockTableRecord
  2
*Paper_Space
340
664
  0
BLOCK_RECORD
  5
674
330
648
100
AcDbSymbolTableRecord
100
AcDbBlockTableRecord
  2
$MODEL_SPACE
340
0
  0
BLOCK_RECORD
  5
677
330
648
100
AcDbSymbolTableRecord
100
AcDbBlockTableRecord
  2
$PAPER_SPACE
340
0
  0
BLOCK_RECORD
  5
76F
330
648
100
AcDbSymbolTableRecord
100
AcDbBlockTableRecord
  2
*U2
340
0
  0
ENDTAB
  0
ENDSEC
  0
SECTION
  2
BLOCKS
  0
BLOCK
  5
666
330
665
100
AcDbEntity
  8
0
100
AcDbBlockBegin
  2
*Model_Space
 70
     0
 10
0.0
 20
0.0
 30
0.0
  3
*Model_Space
  1

  0
ENDBLK
  5
667
330
665
100
AcDbEntity
  8
0
100
AcDbBlockEnd
  0
BLOCK
  5
662
330
661
100
AcDbEntity
 67
     1
  8
0
100
AcDbBlockBegin
  2
*Paper_Space
 70
     0
 10
0.0
 20
0.0
 30
0.0
  3
*Paper_Space
  1

  0
ENDBLK
  5
663
330
661
100
AcDbEntity
 67
     1
  8
0
100
AcDbBlockEnd
  0
BLOCK
  5
675
330
674
100
AcDbEntity
  8
0
100
AcDbBlockBegin
  2
$MODEL_SPACE
 70
     0
 10
0.0
 20
0.0
 30
0.0
  3
$MODEL_SPACE
  1

  0
ENDBLK
  5
676
330
674
100
AcDbEntity
  8
0
100
AcDbBlockEnd
  0
BLOCK
  5
678
330
677
100
AcDbEntity
  8
0
100
AcDbBlockBegin
  2
$PAPER_SPACE
 70
     0
 10
0.0
 20
0.0
 30
0.0
  3
$PAPER_SPACE
  1

  0
ENDBLK
  5
679
330
677
100
AcDbEntity
  8
0
100
AcDbBlockEnd
  0
BLOCK
  5
770
330
76F
100
AcDbEntity
  8
0
100
AcDbBlockBegin
  2
*U2
 70
     1
 10
0.0
 20
0.0
 30
0.0
  3
*U2
  1

  0
ENDBLK
  5
771
330
76F
100
AcDbEntity
  8
0
100
AcDbBlockEnd
  0
ENDSEC
  0
SECTION
  2
ENTITIES
  0
ARC
  5
67A
330
665
100
AcDbEntity
  8
0
100
AcDbCircle
 10
188.3507171172423
 20
120.49999539375
 30
0.0
 40
9.5
100
AcDbArc
 50
0.0
 51
180.0
  0
ARC
  5
67B
330
665
100
AcDbEntity
  8
0
100
AcDbCircle
 10
102.4850149309454
 20
89.99999769687498
 30
0.0
 40
39.9999977
100
AcDbArc
 50
74.04392026280714
 51
105.9560797371927
  0
CIRCLE
  5
67C
330
665
100
AcDbEntity
  8
0
100
AcDbCircle
 10
102.4850149309454
 20
89.99999769687498
 30
0.0
 40
17.00000000000002
  0
CIRCLE
  5
67D
330
665
100
AcDbEntity
  8
0
100
AcDbCircle
 10
102.4850149309454
 20
89.99999769687498
 30
0.0
 40
31.41561899566887
  0
ARC
  5
67E
330
665
100
AcDbEntity
  8
0
100
AcDbCircle
 10
77.6069675809455
 20
133.0900397001792
 30
0.0
 40
14.6341455
100
AcDbArc
 50
258.4490344564073
 51
341.5509655435909
  0
ARC
  5
67F
330
665
100
AcDbEntity
  8
0
100
AcDbCircle
 10
77.6069675809455
 20
46.90995569357077
 30
0.0
 40
14.6341455
100
AcDbArc
 50
18.44903445640909
 51
101.5509655435925
  0
ARC
  5
680
330
665
100
AcDbEntity
  8
0
100
AcDbCircle
 10
127.3630622809454
 20
46.90995569357071
 30
0.0
 40
14.6341455
100
AcDbArc
 50
78.44903445640742
 51
161.5509655435909
  0
ARC
  5
681
330
665
100
AcDbEntity
  8
0
100
AcDbCircle
 10
102.4850149309454
 20
89.99999769687498
 30
0.0
 40
39.9999977
100
AcDbArc
 50
254.043920262807
 51
285.9560797371928
  0
ARC
  5
682
330
665
100
AcDbEntity
  8
0
100
AcDbCircle
 10
152.2411096309454
 20
89.99999769687498
 30
0.0
 40
14.6341455
100
AcDbArc
 50
138.4490344564092
 51
221.5509655435907
  0
ARC
  5
683
330
665
100
AcDbEntity
  8
0
100
AcDbCircle
 10
102.4850149309454
 20
89.99999769687498
 30
0.0
 40
39.9999977
100
AcDbArc
 50
14.04392026280579
 51
45.95607973719436
  0
ARC
  5
684
330
665
100
AcDbEntity
  8
0
100
AcDbCircle
 10
102.4850149309454
 20
89.99999769687498
 30
0.0
 40
39.9999977
100
AcDbArc
 50
314.0439202628056
 51
345.9560797371942
  0
ARC
  5
685
330
665
100
AcDbEntity
  8
0
100
AcDbCircle
 10
127.3630622809454
 20
133.0900397001792
 30
0.0
 40
14.6341455
100
AcDbArc
 50
198.4490344564091
 51
281.5509655435926
  0
ARC
  5
686
330
665
100
AcDbEntity
  8
0
100
AcDbCircle
 10
188.3507171172423
 20
59.49999999999999
 30
0.0
 40
9.5
100
AcDbArc
 50
180.0
 51
0.0
  0
ARC
  5
687
330
665
100
AcDbEntity
  8
0
100
AcDbCircle
 10
188.3507171172423
 20
86.06748721132936
 30
0.0
 40
27.0
100
AcDbArc
 50
253.4155798975244
 51
286.5844201024755
  0
ARC
  5
688
330
665
100
AcDbEntity
  8
0
100
AcDbCircle
 10
188.3507171172423
 20
60.24713902870153
 30
0.0
 40
8.367519900602227
100
AcDbArc
 50
183.9039878037351
 51
356.0960121962647
  0
LINE
  5
689
330
665
100
AcDbEntity
  8
1
100
AcDbLine
 10
173.8507171172424
 20
89.99999769687498
 30
0.0
 11
223.8507171172424
 21
89.99999769687498
 31
0.0
  0
LINE
  5
68A
330
665
100
AcDbEntity
  8
0
100
AcDbLine
 10
217.6507171172423
 20
72.49999769687498
 30
0.0
 11
203.8507171172423
 21
72.49999769687498
 31
0.0
  0
LINE
  5
68B
330
665
100
AcDbEntity
  8
0
100
AcDbLine
 10
217.6507171172423
 20
107.4999976968749
 30
0.0
 11
203.8507171172423
 21
107.4999976968749
 31
0.0
  0
LINE
  5
68C
330
665
100
AcDbEntity
  8
2
100
AcDbLine
 10
218.8507171172424
 20
95.99999769687498
 30
0.0
 11
212.8507171172424
 21
89.99999769687498
 31
0.0
  0
LINE
  5
68D
330
665
100
AcDbEntity
  8
0
100
AcDbLine
 10
218.8507171172424
 20
73.6999976968752
 30
0.0
 11
218.8507171172424
 21
106.2999976968747
 31
0.0
  0
LINE
  5
68E
330
665
100
AcDbEntity
  8
0
100
AcDbLine
 10
217.6507171172423
 20
107.4999976968749
 30
0.0
 11
217.6507171172423
 21
72.49999769687498
 31
0.0
  0
ARC
  5
68F
330
665
100
AcDbEntity
  8
0
100
AcDbCircle
 10
52.72892023094546
 20
89.99999769687498
 30
0.0
 40
14.6341455
100
AcDbArc
 50
318.4490344564092
 51
41.55096554359071
  0
ARC
  5
690
330
665
100
AcDbEntity
  8
0
100
AcDbCircle
 10
102.4850149309454
 20
89.99999769687498
 30
0.0
 40
39.9999977
100
AcDbArc
 50
194.0439202628056
 51
225.9560797371944
  0
LINE
  5
691
330
665
100
AcDbEntity
  8
0
100
AcDbLine
 10
218.8507171172424
 20
73.6999976968752
 30
0.0
 11
217.6507171172423
 21
72.49999769687498
 31
0.0
  0
LINE
  5
692
330
665
100
AcDbEntity
  8
2
100
AcDbLine
 10
218.8507171172424
 20
83.99999769687498
 30
0.0
 11
212.8507171172424
 21
89.99999769687498
 31
0.0
  0
ARC
  5
693
330
665
100
AcDbEntity
  8
0
100
AcDbCircle
 10
102.4850149309454
 20
89.99999769687498
 30
0.0
 40
39.9999977
100
AcDbArc
 50
134.0439202628055
 51
165.9560797371941
  0
LINE
  5
694
330
665
100
AcDbEntity
  8
0
100
AcDbLine
 10
218.8507171172424
 20
106.2999976968747
 30
0.0
 11
217.6507171172423
 21
107.4999976968749
 31
0.0
  0
LINE
  5
695
330
665
100
AcDbEntity
  8
2
100
AcDbLine
 10
188.8507171172424
 20
72.49999769687498
 30
0.0
 11
188.8507171172424
 21
107.4999976968749
 31
0.0
  0
LINE
  5
696
330
665
100
AcDbEntity
  8
2
100
AcDbLine
 10
186.4507171172423
 20
106.999997696875
 30
0.0
 11
186.4507171172423
 21
72.99999769687499
 31
0.0
  0
ARC
  5
697
330
665
100
AcDbEntity
  8
0
100
AcDbCircle
 10
194.9086488799276
 20
90.00330049017772
 30
0.0
 40
14.92453239347941
100
AcDbArc
 50
162.9401684602376
 51
180.012679534166
  0
ARC
  5
698
330
665
100
AcDbEntity
  8
0
100
AcDbCircle
 10
181.7927853545576
 20
90.00330049017755
 30
0.0
 40
14.924532393479
100
AcDbArc
 50
359.9873204658348
 51
17.05983153976283
  0
LINE
  5
699
330
665
100
AcDbEntity
  8
0
100
AcDbLine
 10
203.8507171172414
 20
112.0836665228575
 30
0.0
 11
203.8507171172412
 21
67.91632887089241
 31
0.0
  0
LINE
  5
69A
330
665
100
AcDbEntity
  8
0
100
AcDbLine
 10
197.8507171172424
 20
59.49999999999999
 30
0.0
 11
197.8507171172424
 21
120.49999539375
 31
0.0
  0
LINE
  5
69B
330
665
100
AcDbEntity
  8
0
100
AcDbLine
 10
178.8507171172424
 20
120.49999539375
 30
0.0
 11
178.8507171172424
 21
59.49999999999999
 31
0.0
  0
LINE
  5
69C
330
665
100
AcDbEntity
  8
2
100
AcDbLine
 10
186.4507171172423
 20
72.99999769687499
 30
0.0
 11
178.8949444022711
 21
58.5843787012061
 31
0.0
  0
ARC
  5
69D
330
665
100
AcDbEntity
  8
0
100
AcDbCircle
 10
189.0348383376089
 20
88.0150571392097
 30
0.0
 40
8.623696902087845
100
AcDbArc
 50
220.0612969565759
 51
243.7765562310565
  0
LINE
  5
69E
330
665
100
AcDbEntity
  8
2
100
AcDbLine
 10
189.8507171172424
 20
71.49999769687498
 30
0.0
 11
203.8507171172414
 21
71.49999769687501
 31
0.0
  0
ARC
  5
69F
330
665
100
AcDbEntity
  8
0
100
AcDbCircle
 10
202.8507171172412
 20
67.91632887089241
 30
0.0
 40
1.0
100
AcDbArc
 50
274.9999999999997
 51
0.0
  0
LINE
  5
6A0
330
665
100
AcDbEntity
  8
0
100
AcDbLine
 10
197.8507171172424
 20
66.47506571571945
 30
0.0
 11
202.937872859989
 21
66.92013417280067
 31
0.0
  0
ARC
  5
6A1
330
665
100
AcDbEntity
  8
0
100
AcDbCircle
 10
196.1999807725534
 20
59.71148106340523
 30
0.0
 40
0.5
100
AcDbArc
 50
356.0960121962656
 51
106.5844201024787
  0
LINE
  5
6A2
330
665
100
AcDbEntity
  8
2
100
AcDbLine
 10
189.8507171172424
 20
72.49999769687498
 30
0.0
 11
189.8507171172424
 21
71.49999769687498
 31
0.0
  0
LINE
  5
6A3
330
665
100
AcDbEntity
  8
2
100
AcDbLine
 10
188.8507171172424
 20
72.99999769687499
 30
0.0
 11
186.4507171172423
 21
72.99999769687499
 31
0.0
  0
LINE
  5
6A4
330
665
100
AcDbEntity
  8
2
100
AcDbLine
 10
188.8507171172424
 20
72.49999769687498
 30
0.0
 11
189.8507171172424
 21
72.49999769687498
 31
0.0
  0
ARC
  5
6A5
330
665
100
AcDbEntity
  8
0
100
AcDbCircle
 10
186.5966624108187
 20
88.91479027220567
 30
0.0
 40
10.02165161351352
100
AcDbArc
 50
319.9387030434229
 51
340.7956346620952
  0
ARC
  5
6A6
330
665
100
AcDbEntity
  8
0
100
AcDbCircle
 10
188.7899812782575
 20
85.12324428012432
 30
0.0
 40
5.589822542146849
100
AcDbArc
 50
265.4928877027618
 51
296.2234437689406
  0
ARC
  5
6A7
330
665
100
AcDbEntity
  8
0
100
AcDbCircle
 10
187.1527004434972
 20
88.44720434492463
 30
0.0
 40
9.295142912136565
100
AcDbArc
 50
296.2234437689435
 51
319.9387030434239
  0
ARC
  5
6A8
330
665
100
AcDbEntity
  8
0
100
AcDbCircle
 10
188.3507171172425
 20
86.62617407913684
 30
0.0
 40
7.075466299524689
100
AcDbArc
 50
243.7765562310592
 51
270.0
  0
ARC
  5
6A9
330
665
100
AcDbEntity
  8
0
100
AcDbCircle
 10
181.7927853545576
 20
89.99669490357234
 30
0.0
 40
14.92453239347899
100
AcDbArc
 50
342.9401684602372
 51
0.0126795341660348
  0
ARC
  5
6AA
330
665
100
AcDbEntity
  8
0
100
AcDbCircle
 10
180.5014534619314
 20
59.71148106340523
 30
0.0
 40
0.5
100
AcDbArc
 50
73.41557989752113
 51
183.9039878037334
  0
ARC
  5
6AB
330
665
100
AcDbEntity
  8
0
100
AcDbCircle
 10
190.1047718236659
 20
88.91479027220556
 30
0.0
 40
10.0216516135134
100
AcDbArc
 50
199.2043653379047
 51
220.0612969565759
  0
ARC
  5
6AC
330
665
100
AcDbEntity
  8
0
100
AcDbCircle
 10
194.9086488799276
 20
89.99669490357227
 30
0.0
 40
14.92453239347941
100
AcDbArc
 50
179.987320465834
 51
197.0598315397623
  0
LINE
  5
6AD
330
665
100
AcDbEntity
  8
2
100
AcDbLine
 10
186.4507171172423
 20
106.999997696875
 30
0.0
 11
178.8949444022711
 21
121.4156166925437
 31
0.0
  0
ARC
  5
6AE
330
665
100
AcDbEntity
  8
0
100
AcDbCircle
 10
188.3507171172423
 20
119.7528563650483
 30
0.0
 40
8.367519900602227
100
AcDbArc
 50
3.903987803735197
 51
176.0960121962648
  0
ARC
  5
6AF
330
665
100
AcDbEntity
  8
0
100
AcDbCircle
 10
188.3507171172423
 20
93.93250818242062
 30
0.0
 40
27.0
100
AcDbArc
 50
73.41557989752452
 51
106.5844201024754
  0
ARC
  5
6B0
330
665
100
AcDbEntity
  8
0
100
AcDbCircle
 10
189.0348383376089
 20
91.98493825454027
 30
0.0
 40
8.623696902087845
100
AcDbArc
 50
116.2234437689406
 51
139.9387030434228
  0
LINE
  5
6B1
330
665
100
AcDbEntity
  8
2
100
AcDbLine
 10
189.8507171172424
 20
108.4999976968749
 30
0.0
 11
203.8507171172414
 21
108.4999976968749
 31
0.0
  0
ARC
  5
6B2
330
665
100
AcDbEntity
  8
0
100
AcDbCircle
 10
188.7899812782575
 20
94.87675111362564
 30
0.0
 40
5.589822542146849
100
AcDbArc
 50
63.7765562310593
 51
94.50711229723806
  0
ARC
  5
6B3
330
665
100
AcDbEntity
  8
0
100
AcDbCircle
 10
187.1527004434972
 20
91.55279104882534
 30
0.0
 40
9.295142912136565
100
AcDbArc
 50
40.06129695657604
 51
63.7765562310561
  0
ARC
  5
6B4
330
665
100
AcDbEntity
  8
0
100
AcDbCircle
 10
186.5966624108187
 20
91.08520512154429
 30
0.0
 40
10.02165161351352
100
AcDbArc
 50
19.20436533790473
 51
40.06129695657706
  0
ARC
  5
6B5
330
665
100
AcDbEntity
  8
0
100
AcDbCircle
 10
188.3507171172425
 20
93.37382131461314
 30
0.0
 40
7.075466299524689
100
AcDbArc
 50
90.0
 51
116.2234437689406
  0
LINE
  5
6B6
330
665
100
AcDbEntity
  8
2
100
AcDbLine
 10
188.8507171172424
 20
106.999997696875
 30
0.0
 11
186.4507171172423
 21
106.999997696875
 31
0.0
  0
LINE
  5
6B7
330
665
100
AcDbEntity
  8
2
100
AcDbLine
 10
188.8507171172424
 20
107.4999976968749
 30
0.0
 11
189.8507171172424
 21
107.4999976968749
 31
0.0
  0
LINE
  5
6B8
330
665
100
AcDbEntity
  8
2
100
AcDbLine
 10
189.8507171172424
 20
107.4999976968749
 30
0.0
 11
189.8507171172424
 21
108.4999976968749
 31
0.0
  0
ARC
  5
6B9
330
665
100
AcDbEntity
  8
0
100
AcDbCircle
 10
202.8507171172413
 20
112.0836665228575
 30
0.0
 40
1.0
100
AcDbArc
 50
0.0
 51
85.00000000000019
  0
LINE
  5
6BA
330
665
100
AcDbEntity
  8
0
100
AcDbLine
 10
197.8507171172424
 20
113.5249296780304
 30
0.0
 11
202.937872859989
 21
113.0798612209492
 31
0.0
  0
ARC
  5
6BB
330
665
100
AcDbEntity
  8
0
100
AcDbCircle
 10
196.1999807725534
 20
120.2885143303447
 30
0.0
 40
0.5
100
AcDbArc
 50
253.4155798975211
 51
3.903987803733574
  0
ARC
  5
6BC
330
665
100
AcDbEntity
  8
0
100
AcDbCircle
 10
190.1047718236659
 20
91.0852051215444
 30
0.0
 40
10.0216516135134
100
AcDbArc
 50
139.9387030434228
 51
160.7956346620951
  0
ARC
  5
6BD
330
665
100
AcDbEntity
  8
0
100
AcDbCircle
 10
180.5014534619314
 20
120.2885143303447
 30
0.0
 40
0.5
100
AcDbArc
 50
176.0960121962656
 51
286.5844201024788
  0
LINE
  5
6BE
330
665
100
AcDbEntity
  8
1
100
AcDbLine
 10
102.4855149309454
 20
134.9999953999999
 30
0.0
 11
102.4855149309454
 21
44.99999999374998
 31
0.0
  0
LINE
  5
6BF
330
665
100
AcDbEntity
  8
1
100
AcDbLine
 10
147.4855126340704
 20
89.99999769687498
 30
0.0
 11
57.48551722782045
 21
89.99999769687498
 31
0.0
  0
ENDSEC
  0
SECTION
  2
OBJECTS
  0
DICTIONARY
  5
653
330
0
100
AcDbDictionary
281
     1
  3
ACAD_GROUP
350
654
  3
ACAD_LAYOUT
350
660
  3
ACAD_MLINESTYLE
350
65D
  3
ACAD_PLOTSETTINGS
350
65F
  3
ACAD_PLOTSTYLENAME
350
655
  3
AcDbVariableDictionary
350
7A3
  3
AcmDictionary
350
779
  3
AMG
350
6C1
  3
AMGSNAPSETTINGS
350
796
  3
DWGPROPS
350
77C
  3
MAPISURF_MODULE
350
74C
  0
DICTIONARY
  5
79D
330
665
100
AcDbDictionary
280
     1
281
     1
  3
ACAD_INDEX
360
79E
  0
DICTIONARY
  5
654
102
{ACAD_REACTORS
330
653
102
}
330
653
100
AcDbDictionary
281
     1
  0
DICTIONARY
  5
660
102
{ACAD_REACTORS
330
653
102
}
330
653
100
AcDbDictionary
281
     1
  3
Model
350
668
  3
ﾚｲｱｳﾄ1
350
664
  0
DICTIONARY
  5
65D
102
{ACAD_REACTORS
330
653
102
}
330
653
100
AcDbDictionary
281
     1
  3
Standard
350
65E
  0
DICTIONARY
  5
65F
102
{ACAD_REACTORS
330
653
102
}
330
653
100
AcDbDictionary
281
     1
  0
ACDBDICTIONARYWDFLT
  5
655
102
{ACAD_REACTORS
330
653
102
}
330
653
100
AcDbDictionary
281
     1
  3
Normal
350
656
100
AcDbDictionaryWithDefault
340
656
  0
DICTIONARY
  5
7A3
102
{ACAD_REACTORS
330
653
102
}
330
653
100
AcDbDictionary
281
     1
  3
DIMASSOC
350
7A5
  3
INDEXCTL
350
7A4
  0
DICTIONARY
  5
779
102
{ACAD_REACTORS
330
653
102
}
330
653
100
AcDbDictionary
281
     1
  3
AcmBOMDATA
350
77A
  0
DICTIONARY
  5
6C1
102
{ACAD_REACTORS
330
653
102
}
330
653
100
AcDbDictionary
281
     1
  3
AcMgSettings
350
6C2
  3
AMGLAYCFG
350
786
  0
DICTIONARY
  5
796
102
{ACAD_REACTORS
330
653
102
}
330
653
100
AcDbDictionary
281
     1
  3
DIMENSION
350
79B
  3
FEA
350
79A
  3
HATCH (1)
350
797
  3
HATCH (2)
350
798
  3
SIMPLE WELD
350
79C
  3
SYMBOLS
350
799
  0
XRECORD
  5
77C
102
{ACAD_REACTORS
330
653
102
}
330
653
100
AcDbXrecord
280
     1
  1
DWGPROPS COOKIE
  2

  3

  4

  6

  7

  8

  9

300
AmdtFileType=84
301
=
302
=
303
=
304
=
305
=
306
=
307
=
308
=
309
=
 40
0.0510311458333333
 41
2449839.785277777
 42
2456171.657967662
  1

 90
        1
  0
DICTIONARY
  5
79E
102
{ACAD_REACTORS
330
79D
102
}
330
79D
100
AcDbDictionary
281
     1
  3
*A1
350
79F
  0
LAYOUT
  5
668
102
{ACAD_REACTORS
330
660
102
}
330
660
100
AcDbPlotSettings
  1

  2
\\KONISHIDENXP\SHARP MX-2700FG
  4

  6

 40
0.0
 41
0.0
 42
0.0
 43
0.0
 44
0.0
 45
0.0
 46
0.0
 47
0.0
 48
0.0
 49
0.0
140
0.0
141
0.0
142
1.0
143
1.0
 70
  1712
 72
     0
 73
     0
 74
     0
  7

 75
     0
147
1.0
148
0.0
149
0.0
100
AcDbLayout
  1
Model
 70
     1
 71
     0
 10
0.0
 20
0.0
 11
12.0
 21
9.0
 12
0.0
 22
0.0
 32
0.0
 14
0.0
 24
0.0
 34
0.0
 15
0.0
 25
0.0
 35
0.0
146
0.0
 13
0.0
 23
0.0
 33
0.0
 16
1.0
 26
0.0
 36
0.0
 17
0.0
 27
1.0
 37
0.0
 76
     0
330
665
  0
LAYOUT
  5
664
102
{ACAD_REACTORS
330
660
102
}
330
660
100
AcDbPlotSettings
  1

  2
\\KONISHIDENXP\SHARP MX-2700FG
  4

  6

 40
0.0
 41
0.0
 42
0.0
 43
0.0
 44
0.0
 45
0.0
 46
0.0
 47
0.0
 48
0.0
 49
0.0
140
0.0
141
0.0
142
1.0
143
1.0
 70
   688
 72
     0
 73
     0
 74
     5
  7

 75
    16
147
1.0
148
0.0
149
0.0
100
AcDbLayout
  1
ﾚｲｱｳﾄ1
 70
     0
 71
     1
 10
0.0
 20
0.0
 11
12.0
 21
9.0
 12
0.0
 22
0.0
 32
0.0
 14
1.000000000000000E+20
 24
1.000000000000000E+20
 34
1.000000000000000E+20
 15
-1.000000000000000E+20
 25
-1.000000000000000E+20
 35
-1.000000000000000E+20
146
0.0
 13
0.0
 23
0.0
 33
0.0
 16
1.0
 26
0.0
 36
0.0
 17
0.0
 27
1.0
 37
0.0
 76
     0
330
661
  0
MLINESTYLE
  5
65E
102
{ACAD_REACTORS
330
65D
102
}
330
65D
100
AcDbMlineStyle
  2
STANDARD
 70
     0
  3

 62
   256
 51
90.0
 52
90.0
 71
     2
 49
0.5
 62
   256
  6
BYLAYER
 49
-0.5
 62
   256
  6
BYLAYER
  0
ACDBPLACEHOLDER
  5
656
102
{ACAD_REACTORS
330
655
102
}
330
655
  0
DICTIONARYVAR
  5
7A5
102
{ACAD_REACTORS
330
7A3
102
}
330
7A3
100
DictionaryVariables
280
     0
  1
0
  0
DICTIONARYVAR
  5
7A4
102
{ACAD_REACTORS
330
7A3
102
}
330
7A3
100
DictionaryVariables
280
     0
  1
1
  0
ACMDATADICTIONARY
  5
77A
102
{ACAD_REACTORS
330
779
102
}
330
779
100
AcDbDictionary
281
     1
  3
*A1
350
77B
100
AcmDataDictionary
  0
DICTIONARY
  5
6C2
102
{ACAD_REACTORS
330
6C1
102
}
330
6C1
100
AcDbDictionary
281
     1
  3
DWGSETTINGS
350
6C3
  0
ACAMGFILTERDAT
  5
79B
102
{ACAD_REACTORS
330
796
102
}
330
796
100
AcAmgFilterDat
 70
    15
  1
DIMENSION,AMDT_*_DIM
  2
*
  3
*
  4
*
  5
*
290
     1
  0
ACAMGFILTERDAT
  5
79A
102
{ACAD_REACTORS
330
796
102
}
330
796
100
AcAmgFilterDat
 70
    15
  1
*
  2
AM_FEA-AM_*
  3
*
  4
*
  5
*
290
     1
  0
ACAMGFILTERDAT
  5
797
102
{ACAD_REACTORS
330
796
102
}
330
796
100
AcAmgFilterDat
 70
    15
  1
HATCH
  2
*
  3
*
  4
*
  5
*
290
     1
  0
ACAMGFILTERDAT
  5
798
102
{ACAD_REACTORS
330
796
102
}
330
796
100
AcAmgFilterDat
 70
    15
  1
LINE
  2
8,8N,*-8,*-8N,AM_8,AM_8N,*-AM_8,*-AM_8N
  3
*
  4
*
  5
INSERT,STDPART2D
290
     1
  0
ACAMGFILTERDAT
  5
79C
102
{ACAD_REACTORS
330
796
102
}
330
796
100
AcAmgFilterDat
 70
    15
  1
ARC
  2
AM_5
  3
*
  4
2
  5
INSERT
290
     0
  0
ACAMGFILTERDAT
  5
799
102
{ACAD_REACTORS
330
796
102
}
330
796
100
AcAmgFilterDat
 70
    15
  1
ACMFCFRAME,ACMDATUMTARGET,ACMDATUMID,ACMWELDSYM,ACMSURFSYM,ACMFEATID,ACMPARTREF,ACMBALLOON,AMDTEDGESYM,AMGSCREWCALCTABLE
  2
*
  3
*
  4
*
  5
*
290
     1
  0
LAYER_INDEX
  5
79F
102
{ACAD_REACTORS
330
79E
102
}
330
79E
100
AcDbIndex
 40
2456451.62142162
100
AcDbLayerIndex
  8
0
360
7A0
 90
       53
  8
1
360
7A1
 90
        3
  8
2
360
7A2
 90
       14
  0
ACMDATAENTRYBLOCK
  5
77B
102
{ACAD_REACTORS
330
77A
102
}
330
77A
100
AcmDataEntry
100
AcmDataEntryBlock
  0
IDBUFFER
  5
7A0
330
0
100
AcDbIdBuffer
330
6B9
330
6BA
330
6BB
330
6BC
330
6BD
330
67A
330
67B
330
67C
330
67D
330
67E
330
67F
330
680
330
681
330
682
330
683
330
684
330
685
330
686
330
687
330
688
330
68A
330
68B
330
68D
330
68E
330
68F
330
690
330
691
330
693
330
694
330
697
330
698
330
699
330
69A
330
69B
330
69D
330
69F
330
6A0
330
6A1
330
6A5
330
6A6
330
6A7
330
6A8
330
6A9
330
6AA
330
6AB
330
6AC
330
6AE
330
6AF
330
6B0
330
6B2
330
6B3
330
6B4
330
6B5
  0
IDBUFFER
  5
7A1
330
0
100
AcDbIdBuffer
330
689
330
6BE
330
6BF
  0
IDBUFFER
  5
7A2
330
0
100
AcDbIdBuffer
330
68C
330
692
330
695
330
696
330
69C
330
69E
330
6A2
330
6A3
330
6A4
330
6AD
330
6B1
330
6B6
330
6B7
330
6B8
  0
ENDSEC
  0
EOF
