  0
SECTION
  2
HEADER
  9
$ACADVER
  1
AC1015
  9
$ACADMAINTVER
 70
    13
  9
$DWGCODEPAGE
  3
ANSI_932
  9
$INSBASE
 10
0.0
 20
0.0
 30
0.0
  9
$EXTMIN
 10
55.54965123719956
 20
64.31865876679606
 30
0.0
  9
$EXTMAX
 10
237.75763631458
 20
135.318658766796
 30
0.0
  9
$LIMMIN
 10
0.0
 20
0.0
  9
$LIMMAX
 10
375.0
 20
270.0
  9
$ORTHOMODE
 70
     1
  9
$REGENMODE
 70
     1
  9
$FILLMODE
 70
     1
  9
$QTEXTMODE
 70
     0
  9
$MIRRTEXT
 70
     0
  9
$LTSCALE
 40
5.0
  9
$ATTMODE
 70
     1
  9
$TEXTSIZE
 40
5.0
  9
$TRACEWID
 40
0.05
  9
$TEXTSTYLE
  7
STANDARD
  9
$CLAYER
  8
0
  9
$CELTYPE
  6
ByLayer
  9
$CECOLOR
 62
   256
  9
$CELTSCALE
 40
1.0
  9
$DISPSILH
 70
     0
  9
$DIMSCALE
 40
1.0
  9
$DIMASZ
 40
3.0
  9
$DIMEXO
 40
2.0
  9
$DIMDLI
 40
0.38
  9
$DIMRND
 40
0.0
  9
$DIMDLE
 40
0.0
  9
$DIMEXE
 40
2.0
  9
$DIMTP
 40
0.0
  9
$DIMTM
 40
0.0
  9
$DIMTXT
 40
3.0
  9
$DIMCEN
 40
0.0
  9
$DIMTSZ
 40
0.0
  9
$DIMTOL
 70
     0
  9
$DIMLIM
 70
     0
  9
$DIMTIH
 70
     0
  9
$DIMTOH
 70
     0
  9
$DIMSE1
 70
     0
  9
$DIMSE2
 70
     0
  9
$DIMTAD
 70
     1
  9
$DIMZIN
 70
     0
  9
$DIMBLK
  1

  9
$DIMASO
 70
     0
  9
$DIMSHO
 70
     0
  9
$DIMPOST
  1

  9
$DIMAPOST
  1

  9
$DIMALT
 70
     0
  9
$DIMALTD
 70
     2
  9
$DIMALTF
 40
25.4
  9
$DIMLFAC
 40
1.0
  9
$DIMTOFL
 70
     1
  9
$DIMTVP
 40
1.6
  9
$DIMTIX
 70
     1
  9
$DIMSOXD
 70
     0
  9
$DIMSAH
 70
     0
  9
$DIMBLK1
  1

  9
$DIMBLK2
  1

  9
$DIMSTYLE
  2
STANDARD
  9
$DIMCLRD
 70
     0
  9
$DIMCLRE
 70
     0
  9
$DIMCLRT
 70
     0
  9
$DIMTFAC
 40
1.0
  9
$DIMGAP
 40
0.09
  9
$DIMJUST
 70
     0
  9
$DIMSD1
 70
     0
  9
$DIMSD2
 70
     0
  9
$DIMTOLJ
 70
     1
  9
$DIMTZIN
 70
     0
  9
$DIMALTZ
 70
     0
  9
$DIMALTTZ
 70
     0
  9
$DIMUPT
 70
     0
  9
$DIMDEC
 70
     4
  9
$DIMTDEC
 70
     4
  9
$DIMALTU
 70
     2
  9
$DIMALTTD
 70
     2
  9
$DIMTXSTY
  7
STANDARD
  9
$DIMAUNIT
 70
     0
  9
$DIMADEC
 70
     0
  9
$DIMALTRND
 40
0.0
  9
$DIMAZIN
 70
     0
  9
$DIMDSEP
 70
    46
  9
$DIMATFIT
 70
     3
  9
$DIMFRAC
 70
     0
  9
$DIMLDRBLK
  1

  9
$DIMLUNIT
 70
     2
  9
$DIMLWD
 70
    -2
  9
$DIMLWE
 70
    -2
  9
$DIMTMOVE
 70
     0
  9
$LUNITS
 70
     2
  9
$LUPREC
 70
     4
  9
$SKETCHINC
 40
0.1
  9
$FILLETRAD
 40
0.0
  9
$AUNITS
 70
     0
  9
$AUPREC
 70
     4
  9
$MENU
  1
E:\r13\win\SUPPORT\ACAD
  9
$ELEVATION
 40
0.0
  9
$PELEVATION
 40
0.0
  9
$THICKNESS
 40
0.0
  9
$LIMCHECK
 70
     0
  9
$CHAMFERA
 40
0.0
  9
$CHAMFERB
 40
0.0
  9
$CHAMFERC
 40
0.0
  9
$CHAMFERD
 40
0.0
  9
$SKPOLY
 70
     0
  9
$TDCREATE
 40
2449839.785277777
  9
$TDUCREATE
 40
2449839.410277778
  9
$TDUPDATE
 40
2456451.617664386
  9
$TDUUPDATE
 40
2456451.242664386
  9
$TDINDWG
 40
0.0439454514
  9
$TDUSRTIMER
 40
0.0439452662
  9
$USRTIMER
 70
     1
  9
$ANGBASE
 50
0.0
  9
$ANGDIR
 70
     0
  9
$PDMODE
 70
     0
  9
$PDSIZE
 40
0.0
  9
$PLINEWID
 40
0.0
  9
$SPLFRAME
 70
     0
  9
$SPLINETYPE
 70
     6
  9
$SPLINESEGS
 70
     8
  9
$HANDSEED
  5
7FC
  9
$SURFTAB1
 70
     6
  9
$SURFTAB2
 70
     6
  9
$SURFTYPE
 70
     6
  9
$SURFU
 70
     6
  9
$SURFV
 70
     6
  9
$UCSBASE
  2

  9
$UCSNAME
  2

  9
$UCSORG
 10
0.0
 20
0.0
 30
0.0
  9
$UCSXDIR
 10
1.0
 20
0.0
 30
0.0
  9
$UCSYDIR
 10
0.0
 20
1.0
 30
0.0
  9
$UCSORTHOREF
  2

  9
$UCSORTHOVIEW
 70
     0
  9
$UCSORGTOP
 10
0.0
 20
0.0
 30
0.0
  9
$UCSORGBOTTOM
 10
0.0
 20
0.0
 30
0.0
  9
$UCSORGLEFT
 10
0.0
 20
0.0
 30
0.0
  9
$UCSORGRIGHT
 10
0.0
 20
0.0
 30
0.0
  9
$UCSORGFRONT
 10
0.0
 20
0.0
 30
0.0
  9
$UCSORGBACK
 10
0.0
 20
0.0
 30
0.0
  9
$PUCSBASE
  2

  9
$PUCSNAME
  2

  9
$PUCSORG
 10
0.0
 20
0.0
 30
0.0
  9
$PUCSXDIR
 10
1.0
 20
0.0
 30
0.0
  9
$PUCSYDIR
 10
0.0
 20
1.0
 30
0.0
  9
$PUCSORTHOREF
  2

  9
$PUCSORTHOVIEW
 70
     0
  9
$PUCSORGTOP
 10
0.0
 20
0.0
 30
0.0
  9
$PUCSORGBOTTOM
 10
0.0
 20
0.0
 30
0.0
  9
$PUCSORGLEFT
 10
0.0
 20
0.0
 30
0.0
  9
$PUCSORGRIGHT
 10
0.0
 20
0.0
 30
0.0
  9
$PUCSORGFRONT
 10
0.0
 20
0.0
 30
0.0
  9
$PUCSORGBACK
 10
0.0
 20
0.0
 30
0.0
  9
$USERI1
 70
     0
  9
$USERI2
 70
     1
  9
$USERI3
 70
     1
  9
$USERI4
 70
     0
  9
$USERI5
 70
     0
  9
$USERR1
 40
0.0
  9
$USERR2
 40
0.0
  9
$USERR3
 40
0.0
  9
$USERR4
 40
0.0
  9
$USERR5
 40
0.0
  9
$WORLDVIEW
 70
     1
  9
$SHADEDGE
 70
     3
  9
$SHADEDIF
 70
    70
  9
$TILEMODE
 70
     1
  9
$MAXACTVP
 70
    16
  9
$PINSBASE
 10
0.0
 20
0.0
 30
0.0
  9
$PLIMCHECK
 70
     0
  9
$PEXTMIN
 10
1.000000000000000E+20
 20
1.000000000000000E+20
 30
1.000000000000000E+20
  9
$PEXTMAX
 10
-1.000000000000000E+20
 20
-1.000000000000000E+20
 30
-1.000000000000000E+20
  9
$PLIMMIN
 10
0.0
 20
0.0
  9
$PLIMMAX
 10
12.0
 20
9.0
  9
$UNITMODE
 70
     0
  9
$VISRETAIN
 70
     0
  9
$PLINEGEN
 70
     0
  9
$PSLTSCALE
 70
     0
  9
$TREEDEPTH
 70
  3020
  9
$CMLSTYLE
  2
Standard
  9
$CMLJUST
 70
     0
  9
$CMLSCALE
 40
1.0
  9
$PROXYGRAPHICS
 70
     1
  9
$MEASUREMENT
 70
     0
  9
$CELWEIGHT
370
    -1
  9
$ENDCAPS
280
     0
  9
$JOINSTYLE
280
     0
  9
$LWDISPLAY
290
     0
  9
$INSUNITS
 70
     0
  9
$HYPERLINKBASE
  1

  9
$STYLESHEET
  1

  9
$XEDIT
290
     1
  9
$CEPSNTYPE
380
     0
  9
$PSTYLEMODE
290
     1
  9
$FINGERPRINTGUID
  2
{8BDB94FB-B7DF-49E1-95D5-DDA5DC87126A}
  9
$VERSIONGUID
  2
{93AEEF3D-5CB7-4156-8A19-3E535E011BCE}
  9
$EXTNAMES
290
     1
  9
$PSVPSCALE
 40
0.0
  9
$OLESTARTUP
290
     0
  0
ENDSEC
  0
SECTION
  2
CLASSES
  0
CLASS
  1
ACDBDICTIONARYWDFLT
  2
AcDbDictionaryWithDefault
  3
AutoCAD 2000
 90
        0
280
     0
281
     0
  0
CLASS
  1
ACDBPLACEHOLDER
  2
AcDbPlaceHolder
  3
AutoCAD 2000
 90
        0
280
     0
281
     0
  0
CLASS
  1
LAYOUT
  2
AcDbLayout
  3
AutoCAD 2000
 90
        0
280
     0
281
     0
  0
CLASS
  1
AMGSETTINGSOBJ
  2
AmgSettingsObj
  3
"AcadM|Product Description: AutoCAD Mechanical 2000|Company: Autodesk"
 90
        0
280
     0
281
     0
  0
CLASS
  1
ACME_DOCUMENT
  2
AcMeDbDoc
  3
AcMeServices
 90
        0
280
     0
281
     0
  0
CLASS
  1
ACMESCOPE
  2
AcMeScope
  3
AcMeServices
 90
        0
280
     0
281
     0
  0
CLASS
  1
ACMECOMMANDHISTORY
  2
AcMeCommandHistory
  3
AcMeServices
 90
        0
280
     0
281
     0
  0
CLASS
  1
ACIMSYSVARMAN
  2
AcImSysVarManager
  3
AcMeServices
 90
        0
280
     0
281
     0
  0
CLASS
  1
ACIMREALSYSVAR
  2
AcImRealSysVar
  3
AcMeServices
 90
        0
280
     0
281
     0
  0
CLASS
  1
ACIMINTSYSVAR
  2
AcImIntSysVar
  3
AcMeServices
 90
        0
280
     0
281
     0
  0
CLASS
  1
ACMEDRAWINGMAN
  2
AcMeDrawingMan
  3
AcMeServices
 90
        0
280
     0
281
     0
  0
CLASS
  1
ACMEVIEW
  2
AcMeView
  3
AcMeServices
 90
        0
280
     0
281
     0
  0
CLASS
  1
ACDBENTITYCACHE
  2
AcMeEntityCache
  3
AcMeServices
 90
        0
280
     0
281
     0
  0
CLASS
  1
GSMANAGER
  2
AcMeGSManager
  3
AcMeServices
 90
        0
280
     0
281
     0
  0
CLASS
  1
AMDTINTERNALREACTOR
  2
AmdtInternalReactor
  3
AcMeServices
 90
        0
280
     0
281
     0
  0
CLASS
  1
ACMESTATEMGR
  2
AcMeStateMgr
  3
AcMeServices
 90
        0
280
     0
281
     0
  0
CLASS
  1
ACGREFMASTER
  2
AcGrefMaster
  3
AcAttribServices
 90
        0
280
     0
281
     0
  0
CLASS
  1
AM_DRAWING_MGR
  2
AcDmDwgMgr
  3
AcMechDwgViewMgmt
 90
        0
280
     0
281
     0
  0
CLASS
  1
AM_DWG_DOCUMENT
  2
AcDmDwgDocument
  3
AcMechDwgViewMgmt
 90
        0
280
     0
281
     0
  0
CLASS
  1
AM_DWG_SHEET
  2
AcDmSheet
  3
AcMechDwgViewMgmt
 90
        0
280
     0
281
     0
  0
CLASS
  1
AM_VIEWDIMPARMAP
  2
AcDmViewDimParMap
  3
AcMechDwgViewMgmt
 90
        0
280
     0
281
     0
  0
CLASS
  1
AM_DWGMGR_NAME
  2
AcDmDwgMgrName
  3
AcMechDwgViewMgmt
 90
        0
280
     0
281
     0
  0
CLASS
  1
ACME_DATABASE
  2
AcMeDbDatabase
  3
AcMeServices
 90
        0
280
     0
281
     0
  0
CLASS
  1
ACRFINSADJUSTERMGR
  2
AcRfInsAdjusterMgr
  3
AcMeServices
 90
        0
280
     0
281
     0
  0
CLASS
  1
ACGREFACADMASTER
  2
AcGrefacadMaster
  3
AcGrefServices
 90
        0
280
     0
281
     0
  0
CLASS
  1
AMDTMENUSTATEMGR
  2
AmdtMenuStateMgr
  3
McadcomServices
 90
        0
280
     0
281
     0
  0
CLASS
  1
AMDTMCOMMENUSTATE
  2
AmdtMcomMenuState
  3
McadcomServices
 90
        0
280
     0
281
     0
  0
CLASS
  1
AMIMASTER
  2
AmiMaster
  3
AmiServices
 90
        0
280
     0
281
     0
  0
CLASS
  1
ASAPP
  2
AcAsAppObject
  3
AutoSurfServices
 90
        0
280
     0
281
     0
  0
CLASS
  1
IM_STATIC_MAN
  2
AcImStaticVarManager
  3
AcMeServices
 90
        0
280
     0
281
     0
  0
CLASS
  1
ACIMSTRSYSVAR
  2
AcImStrSysVar
  3
AcMeServices
 90
        0
280
     0
281
     0
  0
CLASS
  1
ACIMDBLSTATICVAR
  2
AcImDblStaticVar
  3
AcMeServices
 90
        0
280
     0
281
     0
  0
CLASS
  1
ACIMSTRSTATICVAR
  2
AcImStrStaticVar
  3
AcMeServices
 90
        0
280
     0
281
     0
  0
CLASS
  1
ACIMINTSTATICVAR
  2
AcImIntStaticVar
  3
AcMeServices
 90
        0
280
     0
281
     0
  0
CLASS
  1
ACASGREFMASTER
  2
AcAsGrefMaster
  3
AutoSurfResolverServices
 90
        0
280
     0
281
     0
  0
CLASS
  1
ACADGREFMODULE
  2
AcAdGrefModule
  3
AdGrefServices
 90
        0
280
     0
281
     0
  0
CLASS
  1
AMDTMAPISURFMOUDULE
  2
AmdtMApiSurfModule
  3
MApiSurfServices
 90
        0
280
     0
281
     0
  0
CLASS
  1
MAPIAMMOUDLE
  2
MApiAmModule
  3
MApiAmServices
 90
        0
280
     0
281
     0
  0
CLASS
  1
AMDTADMENUSTATE
  2
AmdtAdMenuState
  3
DesignerServices
 90
        0
280
     0
281
     0
  0
CLASS
  1
ADAPPL
  2
AcAdAppl
  3
DesignerServices
 90
        0
280
     0
281
     0
  0
CLASS
  1
DEPMGR
  2
AcAdDepMgr
  3
DesignerServices
 90
        0
280
     0
281
     0
  0
CLASS
  1
PARAMMGR
  2
AcAdParamMgr
  3
DesignerServices
 90
        0
280
     0
281
     0
  0
CLASS
  1
PARAMSCOPE
  2
AcAdParamScope
  3
DesignerServices
 90
        0
280
     0
281
     0
  0
CLASS
  1
NAMEDAPPL
  2
AcAdNamedAppl
  3
DesignerServices
 90
        0
280
     0
281
     0
  0
CLASS
  1
AMDTDMMENUSTATE
  2
AmdtDmMenuState
  3
AcMechDwgViewMgmt
 90
        0
280
     0
281
     0
  0
CLASS
  1
MAPIADMODULE
  2
MApiAdModule
  3
MApiAdServices
 90
        0
280
     0
281
     0
  0
CLASS
  1
AMDTAMMENUSTATE
  2
AmdtAmMenuState
  3
DesignerAssemblies
 90
        0
280
     0
281
     0
  0
CLASS
  1
ACAMPROJECT
  2
AcAmProject
  3
DesignerAssemblies
 90
        0
280
     0
281
     0
  0
CLASS
  1
ACAMGRCOMPDEF
  2
AcAmGrCompDef
  3
DesignerAssemblies
 90
        0
280
     0
281
     0
  0
CLASS
  1
ACCMCONTEXT
  2
AcCmContext
  3
DesignerAssemblies
 90
        0
280
     0
281
     0
  0
CLASS
  1
ACAMCOMPDEF
  2
AcAmCompDef
  3
DesignerAssemblies
 90
        0
280
     0
281
     0
  0
CLASS
  1
ACAMCOMPDEFMGR
  2
AcAmCompDefMgr
  3
DesignerAssemblies
 90
        0
280
     0
281
     0
  0
CLASS
  1
AMCONTEXTMGR
  2
AcAmContextMgr
  3
DesignerAssemblies
 90
        0
280
     0
281
     0
  0
CLASS
  1
ACAMCONTEXTMODELER
  2
AcAmContextModeler
  3
DesignerAssemblies
 90
        0
280
     0
281
     0
  0
CLASS
  1
ACMDATADICTIONARY
  2
AcmDataDictionary
  3
"AcmSymBB|Product Description: AutoCAD Mechanical 2000|Company: Autodesk"
 90
        0
280
     0
281
     0
  0
CLASS
  1
ACMDATAENTRYBLOCK
  2
AcmDataEntryBlock
  3
"AcmSymBB|Product Description: AutoCAD Mechanical 2000|Company: Autodesk"
 90
        0
280
     0
281
     0
  0
CLASS
  1
CATALOGSTATE
  2
AcAmCatalogState
  3
DesignerAssemblies
 90
        0
280
     0
281
     0
  0
CLASS
  1
ACAMGRCOMPDEFSET
  2
AcAmGrCompDefSet
  3
DesignerAssemblies
 90
        0
280
     0
281
     0
  0
CLASS
  1
AMDTBROWSERDBTAB
  2
AmdtBrowserDbTab
  3
McadcomServices
 90
        0
280
     0
281
     0
  0
CLASS
  1
CBROWSERAPPOBJECT
  2
CBrowserAppObject
  3
McadcomServices
 90
        0
280
     0
281
     0
  0
CLASS
  1
DM_PLACEHOLDER
  2
AcDmSelsetPlaceholder
  3
AcMechDwgViewMgmt
 90
        0
280
     0
281
     0
  0
CLASS
  1
AMGOBJPROPCFG
  2
AmgObjPropCfg
  3
"AmgLay|Product Description: AutoCAD Mechanical 2000|Company: Autodesk"
 90
        1
280
     0
281
     0
  0
CLASS
  1
ACAMGFILTERDAT
  2
AcAmgFilterDat
  3
"AcadM|Product Description: AutoCAD Mechanical 2000|Company: Autodesk"
 90
        0
280
     0
281
     0
  0
CLASS
  1
LAYER_INDEX
  2
AcDbLayerIndex
  3
AutoCAD 2000
 90
        0
280
     0
281
     0
  0
CLASS
  1
IDBUFFER
  2
AcDbIdBuffer
  3
AutoCAD 2000
 90
        0
280
     0
281
     0
  0
CLASS
  1
DICTIONARYVAR
  2
AcDbDictionaryVar
  3
AutoCAD 2000
 90
        0
280
     0
281
     0
  0
ENDSEC
  0
SECTION
  2
TABLES
  0
TABLE
  2
VPORT
  5
629
330
0
100
AcDbSymbolTable
 70
     3
  0
VPORT
  5
7FB
330
629
100
AcDbSymbolTableRecord
100
AcDbViewportTableRecord
  2
*Active
 70
     0
 10
0.0
 20
0.0
 11
1.0
 21
1.0
 12
0.0
 22
0.0
 13
0.0
 23
0.0
 14
10.0
 24
10.0
 15
10.0
 25
10.0
 16
0.0
 26
0.0
 36
1.0
 17
206.235230327868
 27
99.816284767371
 37
0.0
 40
217.031697433907
 41
1.489721886336154
 42
50.0
 43
0.0
 44
0.0
 50
0.0
 51
0.0
 71
     0
 72
   500
 73
     1
 74
     0
 75
     0
 76
     0
 77
     0
 78
     2
281
     0
 65
     0
110
0.0
120
0.0
130
0.0
111
1.0
121
0.0
131
0.0
112
0.0
122
1.0
132
0.0
 79
     0
146
0.0
  0
ENDTAB
  0
TABLE
  2
LTYPE
  5
626
330
0
100
AcDbSymbolTable
 70
    16
  0
LTYPE
  5
634
330
626
100
AcDbSymbolTableRecord
100
AcDbLinetypeTableRecord
  2
ByBlock
 70
     0
  3

 72
    65
 73
     0
 40
0.0
  0
LTYPE
  5
635
330
626
100
AcDbSymbolTableRecord
100
AcDbLinetypeTableRecord
  2
ByLayer
 70
     0
  3

 72
    65
 73
     0
 40
0.0
  0
LTYPE
  5
636
330
626
100
AcDbSymbolTableRecord
100
AcDbLinetypeTableRecord
  2
CONTINUOUS
 70
     0
  3
Solid Line
 72
    65
 73
     0
 40
0.0
  0
LTYPE
  5
644
330
626
100
AcDbSymbolTableRecord
100
AcDbLinetypeTableRecord
  2
CENTER
 70
     0
  3
____ _ ____ _ ____ _ ____ _ ____ _ ____ _ ____
 72
    65
 73
     4
 40
2.0
 49
1.25
 74
     0
 49
-0.25
 74
     0
 49
0.25
 74
     0
 49
-0.25
 74
     0
  0
LTYPE
  5
645
330
626
100
AcDbSymbolTableRecord
100
AcDbLinetypeTableRecord
  2
HIDDEN
 70
     0
  3
_ _ _ _ _ _ _ _ _ _ _ _ _ _ _ _ _ _ _ _ _ _ _
 72
    65
 73
     2
 40
0.375
 49
0.25
 74
     0
 49
-0.125
 74
     0
  0
LTYPE
  5
739
330
626
100
AcDbSymbolTableRecord
100
AcDbLinetypeTableRecord
  2
PHANTOM2
 70
     0
  3
Phantom (.5x) ___ _ _ ___ _ _ ___ _ _ ___ _ _
 72
    65
 73
     6
 40
1.25
 49
0.625
 74
     0
 49
-0.125
 74
     0
 49
0.125
 74
     0
 49
-0.125
 74
     0
 49
0.125
 74
     0
 49
-0.125
 74
     0
  0
LTYPE
  5
79B
330
626
100
AcDbSymbolTableRecord
100
AcDbLinetypeTableRecord
  2
ASULTYPE
 70
     0
  3
実線
 72
    65
 73
     2
 40
3.0
 49
2.5
 74
     0
 49
0.5
 74
     0
  0
LTYPE
  5
79C
330
626
100
AcDbSymbolTableRecord
100
AcDbLinetypeTableRecord
  2
ASVLTYPE
 70
     0
  3
__ __ __ __ __ __ __ __ __ __ __ __ __ __ __ __ __ __ __ __ __
 72
    65
 73
     2
 40
0.75
 49
0.5
 74
     0
 49
-0.25
 74
     0
  0
LTYPE
  5
7DD
330
626
100
AcDbSymbolTableRecord
100
AcDbLinetypeTableRecord
  2
AM_ISO02W050
 70
     0
  3
__ __ __ __ __ __ __ __ __ __ __ __ __ __ __
 72
    65
 73
     2
 40
7.5
 49
6.0
 74
     0
 49
-1.5
 74
     0
  0
LTYPE
  5
7DE
330
626
100
AcDbSymbolTableRecord
100
AcDbLinetypeTableRecord
  2
AM_ISO08W050
 70
     0
  3
____ . ____ . ____ . ____ . ____ . ____ . ____
 72
    65
 73
     4
 40
18.0
 49
12.0
 74
     0
 49
-1.5
 74
     0
 49
3.0
 74
     0
 49
-1.5
 74
     0
  0
LTYPE
  5
7DF
330
626
100
AcDbSymbolTableRecord
100
AcDbLinetypeTableRecord
  2
AM_ISO09W050
 70
     0
  3
_____ . . _____ . . _____ . . ____ .. ____
 72
    65
 73
     6
 40
22.5
 49
12.0
 74
     0
 49
-1.5
 74
     0
 49
3.0
 74
     0
 49
-1.5
 74
     0
 49
3.0
 74
     0
 49
-1.5
 74
     0
  0
LTYPE
  5
7E0
330
626
100
AcDbSymbolTableRecord
100
AcDbLinetypeTableRecord
  2
Amconstr
 70
     0
  3
_______________________
 72
    65
 73
     2
 40
9999.0
 49
9999.0
 74
     0
 49
0.0
 74
     0
  0
LTYPE
  5
7E1
330
626
100
AcDbSymbolTableRecord
100
AcDbLinetypeTableRecord
  2
AM_ISO08W050x2
 70
     0
  3
__ . __ . __ . __ . __ . __
 72
    65
 73
     4
 40
9.0
 49
6.0
 74
     0
 49
-0.75
 74
     0
 49
1.5
 74
     0
 49
-0.75
 74
     0
  0
LTYPE
  5
7E2
330
626
100
AcDbSymbolTableRecord
100
AcDbLinetypeTableRecord
  2
AM_ISO02W050x2
 70
     0
  3
 _ _ _ _ _ _ _ _ _ _ _ _
 72
    65
 73
     2
 40
3.75
 49
3.0
 74
     0
 49
-0.75
 74
     0
  0
LTYPE
  5
7E5
330
626
100
AcDbSymbolTableRecord
100
AcDbLinetypeTableRecord
  2
Amzigzag
 70
     0
  3
/\/-/\/-/\/-/\/-/\/-/\/
 72
    65
 73
     2
 40
11.00009999999999
 49
0.0001
 74
     4
 75
   135
340
7E4
 46
0.04
 50
0.0
 44
0.0
 45
0.0
 49
-11.0
 74
     0
  0
LTYPE
  5
7E6
330
626
100
AcDbSymbolTableRecord
100
AcDbLinetypeTableRecord
  2
CENTER2
 70
     0
  3
Center (.5x) ___ _ ___ _ ___ _ ___ _ ___ _ ___
 72
    65
 73
     4
 40
1.125
 49
0.75
 74
     0
 49
-0.125
 74
     0
 49
0.125
 74
     0
 49
-0.125
 74
     0
  0
LTYPE
  5
7E7
330
626
100
AcDbSymbolTableRecord
100
AcDbLinetypeTableRecord
  2
HIDDEN2
 70
     0
  3
Hidden (.5x) _ _ _ _ _ _ _ _ _ _ _ _ _ _ _ _ _
 72
    65
 73
     2
 40
0.1875
 49
0.125
 74
     0
 49
-0.0625
 74
     0
  0
LTYPE
  5
7E8
330
626
100
AcDbSymbolTableRecord
100
AcDbLinetypeTableRecord
  2
Amzigzag2
 70
     0
  3
/\/-/\/-/\/-/\/-/\/-/\/
 72
    65
 73
     2
 40
0.4401
 49
0.0001
 74
     4
 75
   135
340
7E4
 46
0.0016
 50
0.0
 44
0.0
 45
0.0
 49
-0.4400000000000001
 74
     0
  0
ENDTAB
  0
TABLE
  2
LAYER
  5
623
330
0
100
AcDbSymbolTable
 70
     4
  0
LAYER
  5
631
330
623
100
AcDbSymbolTableRecord
100
AcDbLayerTableRecord
  2
0
 70
     0
 62
     7
  6
CONTINUOUS
370
    -3
390
630
  0
LAYER
  5
646
330
623
100
AcDbSymbolTableRecord
100
AcDbLayerTableRecord
  2
1
 70
     0
 62
     1
  6
CENTER
370
    -3
390
630
  0
LAYER
  5
647
330
623
100
AcDbSymbolTableRecord
100
AcDbLayerTableRecord
  2
2
 70
     0
 62
     5
  6
HIDDEN
370
    -3
390
630
  0
LAYER
  5
648
330
623
100
AcDbSymbolTableRecord
100
AcDbLayerTableRecord
  2
ITTEN
 70
     0
 62
     1
  6
CENTER
370
    -3
390
630
  0
ENDTAB
  0
TABLE
  2
STYLE
  5
624
330
0
100
AcDbSymbolTable
 70
     2
  0
STYLE
  5
632
330
624
100
AcDbSymbolTableRecord
100
AcDbTextStyleTableRecord
  2
STANDARD
 70
     0
 40
0.0
 41
1.0
 50
0.0
 71
     0
 42
5.0
  3
TXT
  4
BIGFONT
  0
STYLE
  5
7E4
330
624
100
AcDbSymbolTableRecord
100
AcDbTextStyleTableRecord
  2

 70
     1
 40
0.0
 41
1.0
 50
0.0
 71
     0
 42
5.0
  3
ltypeshp.shx
  4

  0
ENDTAB
  0
TABLE
  2
VIEW
  5
627
330
0
100
AcDbSymbolTable
 70
     1
  0
VIEW
  5
649
330
627
100
AcDbSymbolTableRecord
100
AcDbViewTableRecord
  2
ALL
 70
     0
 40
270.0
 10
220.9915966386553
 20
135.0
 41
0.0
 11
0.0
 21
0.0
 31
1.0
 12
0.0
 22
0.0
 32
0.0
 42
0.0
 43
0.0
 44
0.0
 50
0.0
 71
     0
281
     0
 72
     0
  0
ENDTAB
  0
TABLE
  2
UCS
  5
628
330
0
100
AcDbSymbolTable
 70
     0
  0
ENDTAB
  0
TABLE
  2
APPID
  5
62A
330
0
100
AcDbSymbolTable
 70
    12
  0
APPID
  5
633
330
62A
100
AcDbSymbolTableRecord
100
AcDbRegAppTableRecord
  2
ACAD
 70
     0
  0
APPID
  5
718
330
62A
100
AcDbSymbolTableRecord
100
AcDbRegAppTableRecord
  2
GENIUS_GENDIM_13
 70
     0
  0
APPID
  5
719
330
62A
100
AcDbSymbolTableRecord
100
AcDbRegAppTableRecord
  2
GENIUS_GENDTOL_13
 70
     0
  0
APPID
  5
71A
330
62A
100
AcDbSymbolTableRecord
100
AcDbRegAppTableRecord
  2
GENIUS_GE3DTOL_13
 70
     0
  0
APPID
  5
71C
330
62A
100
AcDbSymbolTableRecord
100
AcDbRegAppTableRecord
  2
MCAD_NO_VIS
 70
     0
  0
APPID
  5
71D
330
62A
100
AcDbSymbolTableRecord
100
AcDbRegAppTableRecord
  2
ACAD_TEMP_GRAPHIC
 70
     0
  0
APPID
  5
74E
330
62A
100
AcDbSymbolTableRecord
100
AcDbRegAppTableRecord
  2
AD_DRAW
 70
     0
  0
APPID
  5
751
330
62A
100
AcDbSymbolTableRecord
100
AcDbRegAppTableRecord
  2
ACATTRIBSERVICES
 70
     0
  0
APPID
  5
79D
330
62A
100
AcDbSymbolTableRecord
100
AcDbRegAppTableRecord
  2
ASURF_PCURVE_APPNAME
 70
     0
  0
APPID
  5
7CC
330
62A
100
AcDbSymbolTableRecord
100
AcDbRegAppTableRecord
  2
DESIGNERASSEMBLIES
 70
     0
  0
APPID
  5
7D4
330
62A
100
AcDbSymbolTableRecord
100
AcDbRegAppTableRecord
  2
ACADM_DIM_EDIT
 70
     0
  0
APPID
  5
7D5
330
62A
100
AcDbSymbolTableRecord
100
AcDbRegAppTableRecord
  2
AMDT_DM_ADJ
 70
     0
  0
ENDTAB
  0
TABLE
  2
DIMSTYLE
  5
62B
330
0
100
AcDbSymbolTable
 70
     1
100
AcDbDimStyleTable
 71
     0
  0
DIMSTYLE
105
64A
330
62B
100
AcDbSymbolTableRecord
100
AcDbDimStyleTableRecord
  2
STANDARD
 70
     0
279
     2
340
632
  0
ENDTAB
  0
TABLE
  2
BLOCK_RECORD
  5
622
330
0
100
AcDbSymbolTable
 70
     4
  0
BLOCK_RECORD
  5
63F
102
{ACAD_XDICTIONARY
360
7F1
102
}
330
622
100
AcDbSymbolTableRecord
100
AcDbBlockTableRecord
  2
*Model_Space
340
642
  0
BLOCK_RECORD
  5
63B
330
622
100
AcDbSymbolTableRecord
100
AcDbBlockTableRecord
  2
*Paper_Space
340
63E
  0
BLOCK_RECORD
  5
64D
330
622
100
AcDbSymbolTableRecord
100
AcDbBlockTableRecord
  2
$MODEL_SPACE
340
0
  0
BLOCK_RECORD
  5
650
330
622
100
AcDbSymbolTableRecord
100
AcDbBlockTableRecord
  2
$PAPER_SPACE
340
0
  0
BLOCK_RECORD
  5
653
330
622
100
AcDbSymbolTableRecord
100
AcDbBlockTableRecord
  2
BATU
340
0
102
{BLKREFS
331
664
102
}
  0
BLOCK_RECORD
  5
7C3
330
622
100
AcDbSymbolTableRecord
100
AcDbBlockTableRecord
  2
*U3
340
0
  0
ENDTAB
  0
ENDSEC
  0
SECTION
  2
BLOCKS
  0
BLOCK
  5
640
330
63F
100
AcDbEntity
  8
0
100
AcDbBlockBegin
  2
*Model_Space
 70
     0
 10
0.0
 20
0.0
 30
0.0
  3
*Model_Space
  1

  0
ENDBLK
  5
641
330
63F
100
AcDbEntity
  8
0
100
AcDbBlockEnd
  0
BLOCK
  5
63C
330
63B
100
AcDbEntity
 67
     1
  8
0
100
AcDbBlockBegin
  2
*Paper_Space
 70
     0
 10
0.0
 20
0.0
 30
0.0
  3
*Paper_Space
  1

  0
ENDBLK
  5
63D
330
63B
100
AcDbEntity
 67
     1
  8
0
100
AcDbBlockEnd
  0
BLOCK
  5
64E
330
64D
100
AcDbEntity
  8
0
100
AcDbBlockBegin
  2
$MODEL_SPACE
 70
     0
 10
0.0
 20
0.0
 30
0.0
  3
$MODEL_SPACE
  1

  0
ENDBLK
  5
64F
330
64D
100
AcDbEntity
  8
0
100
AcDbBlockEnd
  0
BLOCK
  5
651
330
650
100
AcDbEntity
  8
0
100
AcDbBlockBegin
  2
$PAPER_SPACE
 70
     0
 10
0.0
 20
0.0
 30
0.0
  3
$PAPER_SPACE
  1

  0
ENDBLK
  5
652
330
650
100
AcDbEntity
  8
0
100
AcDbBlockEnd
  0
BLOCK
  5
654
330
653
100
AcDbEntity
  8
0
100
AcDbBlockBegin
  2
BATU
 70
     0
 10
0.0
 20
0.0
 30
0.0
  3
BATU
  1

  0
LINE
  5
655
330
653
100
AcDbEntity
  8
ITTEN
100
AcDbLine
 10
0.5
 20
0.0
 30
0.0
 11
-0.5
 21
0.0
 31
0.0
  0
LINE
  5
656
330
653
100
AcDbEntity
  8
ITTEN
100
AcDbLine
 10
0.0
 20
0.5
 30
0.0
 11
0.0
 21
-0.5
 31
0.0
  0
ENDBLK
  5
657
330
653
100
AcDbEntity
  8
0
100
AcDbBlockEnd
  0
BLOCK
  5
7C4
330
7C3
100
AcDbEntity
  8
0
100
AcDbBlockBegin
  2
*U3
 70
     1
 10
0.0
 20
0.0
 30
0.0
  3
*U3
  1

  0
ENDBLK
  5
7C5
330
7C3
100
AcDbEntity
  8
0
100
AcDbBlockEnd
  0
ENDSEC
  0
SECTION
  2
ENTITIES
  0
LINE
  5
658
330
63F
100
AcDbEntity
  8
1
100
AcDbLine
 10
105.3713904940997
 20
99.81865876679606
 30
0.0
 11
176.3713904940996
 21
99.81865876679606
 31
0.0
  0
ARC
  5
659
330
63F
100
AcDbEntity
  8
0
100
AcDbCircle
 10
140.8713904940997
 20
99.81865876679606
 30
0.0
 40
30.5
100
AcDbArc
 50
196.4802380728264
 51
223.5197619271753
  0
ARC
  5
65A
330
63F
100
AcDbEntity
  8
0
100
AcDbCircle
 10
140.8713904940997
 20
99.81865876679606
 30
0.0
 40
30.5
100
AcDbArc
 50
136.4802380728245
 51
163.519761927175
  0
LINE
  5
65B
330
63F
100
AcDbEntity
  8
1
100
AcDbLine
 10
140.8713904940997
 20
64.31865876679606
 30
0.0
 11
140.8713904940997
 21
135.318658766796
 31
0.0
  0
CIRCLE
  5
65C
330
63F
100
AcDbEntity
  8
0
100
AcDbCircle
 10
140.8713904940997
 20
99.81865876679606
 30
0.0
 40
22.42958648294686
  0
ARC
  5
65D
330
63F
100
AcDbEntity
  8
0
100
AcDbCircle
 10
161.6213904940997
 20
63.87860450974184
 30
0.0
 40
15.00000000000001
100
AcDbArc
 50
84.7724337775358
 51
155.2275662224649
  0
ARC
  5
65E
330
63F
100
AcDbEntity
  8
0
100
AcDbCircle
 10
120.1213904940996
 20
63.87860450974184
 30
0.0
 40
15.00000000000001
100
AcDbArc
 50
24.77243377753505
 51
95.2275662224642
  0
ARC
  5
65F
330
63F
100
AcDbEntity
  8
0
100
AcDbCircle
 10
140.8713904940997
 20
99.81865876679606
 30
0.0
 40
30.5
100
AcDbArc
 50
256.4802380728252
 51
283.5197619271747
  0
ARC
  5
660
330
63F
100
AcDbEntity
  8
0
100
AcDbCircle
 10
140.8713904940997
 20
99.81865876679606
 30
0.0
 40
30.5
100
AcDbArc
 50
16.48023807282492
 51
43.51976192717539
  0
ARC
  5
661
330
63F
100
AcDbEntity
  8
0
100
AcDbCircle
 10
140.8713904940997
 20
99.81865876679606
 30
0.0
 40
30.5
100
AcDbArc
 50
316.4802380728245
 51
343.519761927175
  0
ARC
  5
662
330
63F
100
AcDbEntity
  8
0
100
AcDbCircle
 10
182.3713904940996
 20
99.81865876679606
 30
0.0
 40
15.00000000000001
100
AcDbArc
 50
144.7724337775349
 51
215.227566222465
  0
CIRCLE
  5
663
330
63F
100
AcDbEntity
  8
0
100
AcDbCircle
 10
140.8713904940997
 20
99.81865876679606
 30
0.0
 40
12.0
  0
INSERT
  5
664
330
63F
100
AcDbEntity
  8
0
100
AcDbBlockReference
  2
BATU
 10
140.8713904940997
 20
99.81865876679606
 30
0.0
 41
0.0010000000000048
 42
0.0010000000000048
 43
0.001
 50
90.0
  0
ARC
  5
665
330
63F
100
AcDbEntity
  8
0
100
AcDbCircle
 10
140.8713904940997
 20
99.81865876679606
 30
0.0
 40
30.5
100
AcDbArc
 50
76.4802380728253
 51
103.5197619271745
  0
ARC
  5
666
330
63F
100
AcDbEntity
  8
0
100
AcDbCircle
 10
161.6213904940996
 20
135.7587130238502
 30
0.0
 40
15.00000000000001
100
AcDbArc
 50
204.772433777535
 51
275.227566222464
  0
ARC
  5
667
330
63F
100
AcDbEntity
  8
0
100
AcDbCircle
 10
120.1213904940996
 20
135.7587130238502
 30
0.0
 40
15.00000000000001
100
AcDbArc
 50
264.7724337775358
 51
335.2275662224649
  0
LINE
  5
668
330
63F
100
AcDbEntity
  8
2
100
AcDbLine
 10
207.9085797108064
 20
87.81865876679603
 30
0.0
 11
202.75763631458
 21
77.31865876679609
 31
0.0
  0
LINE
  5
669
330
63F
100
AcDbEntity
  8
0
100
AcDbLine
 10
202.75763631458
 20
122.3186587667959
 30
0.0
 11
202.75763631458
 21
77.31865876679606
 31
0.0
  0
LINE
  5
66A
330
63F
100
AcDbEntity
  8
0
100
AcDbLine
 10
218.75763631458
 20
122.3186601154952
 30
0.0
 11
218.75763631458
 21
77.31865876679606
 31
0.0
  0
ARC
  5
66B
330
63F
100
AcDbEntity
  8
0
100
AcDbCircle
 10
210.75763631458
 20
77.31865876679606
 30
0.0
 40
8.0
100
AcDbArc
 50
180.0
 51
0.0
  0
ARC
  5
66C
330
63F
100
AcDbEntity
  8
0
100
AcDbCircle
 10
210.7576363145799
 20
92.35762794134336
 30
0.0
 40
16.72408015977653
100
AcDbArc
 50
248.0780801375821
 51
291.9219198624178
  0
ARC
  5
66D
330
63F
100
AcDbEntity
  8
0
100
AcDbCircle
 10
210.6230601721418
 20
77.32982257701981
 30
0.0
 40
6.867307571962157
100
AcDbArc
 50
188.5883890494504
 51
271.1228765432338
  0
ARC
  5
66E
330
63F
100
AcDbEntity
  8
0
100
AcDbCircle
 10
210.8922124570181
 20
77.32982257701981
 30
0.0
 40
6.867307571962157
100
AcDbArc
 50
268.8771234567659
 51
351.4116109505494
  0
ARC
  5
66F
330
63F
100
AcDbEntity
  8
0
100
AcDbCircle
 10
217.1881212696296
 20
76.37896089451842
 30
0.0
 40
0.5
100
AcDbArc
 50
351.4116109505494
 51
111.921919862425
  0
ARC
  5
670
330
63F
100
AcDbEntity
  8
0
100
AcDbCircle
 10
204.3271513595304
 20
76.37896089451842
 30
0.0
 40
0.5
100
AcDbArc
 50
68.07808013757547
 51
188.5883890494504
  0
LINE
  5
671
330
63F
100
AcDbEntity
  8
2
100
AcDbLine
 10
209.75763631458
 20
87.31865876679604
 30
0.0
 11
210.75763631458
 21
87.31865876679604
 31
0.0
  0
LINE
  5
672
330
63F
100
AcDbEntity
  8
2
100
AcDbLine
 10
209.75763631458
 20
112.3186587667959
 30
0.0
 11
210.75763631458
 21
112.3186587667959
 31
0.0
  0
LINE
  5
673
330
63F
100
AcDbEntity
  8
1
100
AcDbLine
 10
197.75763631458
 20
99.81865876679606
 30
0.0
 11
237.75763631458
 21
99.81865876679606
 31
0.0
  0
ARC
  5
674
330
63F
100
AcDbEntity
  8
0
100
AcDbCircle
 10
210.75763631458
 20
122.3186587667959
 30
0.0
 40
8.0
100
AcDbArc
 50
0.0
 51
180.0
  0
ARC
  5
675
330
63F
100
AcDbEntity
  8
0
100
AcDbCircle
 10
210.6230601721418
 20
122.3074949565722
 30
0.0
 40
6.867307571962157
100
AcDbArc
 50
88.87712345676597
 51
171.4116109505494
  0
ARC
  5
676
330
63F
100
AcDbEntity
  8
0
100
AcDbCircle
 10
210.7576363145799
 20
107.2796895922486
 30
0.0
 40
16.72408015977653
100
AcDbArc
 50
68.07808013758211
 51
111.9219198624177
  0
LINE
  5
677
330
63F
100
AcDbEntity
  8
0
100
AcDbLine
 10
221.75763631458
 20
83.55172370601001
 30
0.0
 11
221.75763631458
 21
116.0855938275821
 31
0.0
  0
ARC
  5
678
330
63F
100
AcDbEntity
  8
0
100
AcDbCircle
 10
99.37139049409971
 20
99.81865876679606
 30
0.0
 40
15.00000000000001
100
AcDbArc
 50
324.7724337775348
 51
35.22756622246502
  0
LINE
  5
679
330
63F
100
AcDbEntity
  8
0
100
AcDbLine
 10
231.75763631458
 20
112.3186587667959
 30
0.0
 11
231.75763631458
 21
87.31865876679604
 31
0.0
  0
LINE
  5
67A
330
63F
100
AcDbEntity
  8
0
100
AcDbLine
 10
232.7576363145801
 20
88.31865876679604
 30
0.0
 11
232.7576363145801
 21
111.3186587667959
 31
0.0
  0
LINE
  5
67B
330
63F
100
AcDbEntity
  8
0
100
AcDbLine
 10
221.75763631458
 20
87.31865876679604
 30
0.0
 11
231.75763631458
 21
87.31865876679604
 31
0.0
  0
LINE
  5
67C
330
63F
100
AcDbEntity
  8
0
100
AcDbLine
 10
231.75763631458
 20
87.31865876679604
 30
0.0
 11
232.7576363145801
 21
88.31865876679604
 31
0.0
  0
LINE
  5
67D
330
63F
100
AcDbEntity
  8
2
100
AcDbLine
 10
210.75763631458
 20
87.31865876679604
 30
0.0
 11
210.75763631458
 21
86.81865876679605
 31
0.0
  0
LINE
  5
67E
330
63F
100
AcDbEntity
  8
2
100
AcDbLine
 10
210.75763631458
 20
86.81865876679605
 30
0.0
 11
221.75763631458
 21
86.81865876679605
 31
0.0
  0
LINE
  5
67F
330
63F
100
AcDbEntity
  8
0
100
AcDbLine
 10
221.0273609087781
 20
82.75476794753661
 30
0.0
 11
218.75763631458
 21
82.5561927762183
 31
0.0
  0
ARC
  5
680
330
63F
100
AcDbEntity
  8
0
100
AcDbCircle
 10
220.95763631458
 20
83.55172370601001
 30
0.0
 40
0.8
100
AcDbArc
 50
274.9999999999997
 51
0.0
  0
LINE
  5
681
330
63F
100
AcDbEntity
  8
0
100
AcDbLine
 10
221.75763631458
 20
112.3186587667959
 30
0.0
 11
231.75763631458
 21
112.3186587667959
 31
0.0
  0
LINE
  5
682
330
63F
100
AcDbEntity
  8
2
100
AcDbLine
 10
232.7576363145801
 20
103.8186587667959
 30
0.0
 11
228.7576363145801
 21
99.81865876679606
 31
0.0
  0
LINE
  5
683
330
63F
100
AcDbEntity
  8
2
100
AcDbLine
 10
232.7576363145801
 20
95.81865876679598
 30
0.0
 11
228.7576363145801
 21
99.81865876679599
 31
0.0
  0
LINE
  5
684
330
63F
100
AcDbEntity
  8
0
100
AcDbLine
 10
231.75763631458
 20
112.3186587667959
 30
0.0
 11
232.7576363145801
 21
111.3186587667959
 31
0.0
  0
LINE
  5
685
330
63F
100
AcDbEntity
  8
2
100
AcDbLine
 10
210.75763631458
 20
112.8186587667959
 30
0.0
 11
221.75763631458
 21
112.8186587667959
 31
0.0
  0
LINE
  5
686
330
63F
100
AcDbEntity
  8
2
100
AcDbLine
 10
210.75763631458
 20
112.3186587667959
 30
0.0
 11
210.75763631458
 21
112.8186587667959
 31
0.0
  0
ARC
  5
687
330
63F
100
AcDbEntity
  8
0
100
AcDbCircle
 10
210.8922124570181
 20
122.3074949565722
 30
0.0
 40
6.867307571962157
100
AcDbArc
 50
8.588389049450418
 51
91.12287654323401
  0
LINE
  5
688
330
63F
100
AcDbEntity
  8
0
100
AcDbLine
 10
221.0273609087781
 20
116.8825495860555
 30
0.0
 11
218.75763631458
 21
117.0811247573737
 31
0.0
  0
ARC
  5
689
330
63F
100
AcDbEntity
  8
0
100
AcDbCircle
 10
220.95763631458
 20
116.0855938275821
 30
0.0
 40
0.8
100
AcDbArc
 50
0.0
 51
85.00000000000026
  0
ARC
  5
68A
330
63F
100
AcDbEntity
  8
0
100
AcDbCircle
 10
217.1881212696296
 20
123.2583566390736
 30
0.0
 40
0.5
100
AcDbArc
 50
248.0780801375748
 51
8.588389049450418
  0
LINE
  5
68B
330
63F
100
AcDbEntity
  8
2
100
AcDbLine
 10
207.9085797108064
 20
111.8186587667959
 30
0.0
 11
202.75763631458
 21
122.3186587667959
 31
0.0
  0
LINE
  5
68C
330
63F
100
AcDbEntity
  8
2
100
AcDbLine
 10
209.75763631458
 20
87.31865876679604
 30
0.0
 11
209.75763631458
 21
112.3186587667959
 31
0.0
  0
LINE
  5
68D
330
63F
100
AcDbEntity
  8
2
100
AcDbLine
 10
207.9085797108064
 20
111.8186587667959
 30
0.0
 11
207.9085797108064
 21
87.81865876679605
 31
0.0
  0
LINE
  5
68E
330
63F
100
AcDbEntity
  8
2
100
AcDbLine
 10
209.75763631458
 20
87.81865876679605
 30
0.0
 11
207.9085797108064
 21
87.81865876679605
 31
0.0
  0
LINE
  5
68F
330
63F
100
AcDbEntity
  8
2
100
AcDbLine
 10
209.75763631458
 20
111.8186587667959
 30
0.0
 11
207.9085797108064
 21
111.8186587667959
 31
0.0
  0
ARC
  5
690
330
63F
100
AcDbEntity
  8
0
100
AcDbCircle
 10
204.3271513595304
 20
123.2583566390736
 30
0.0
 40
0.5
100
AcDbArc
 50
171.4116109505494
 51
291.9219198624245
  0
POLYLINE
  5
691
330
63F
100
AcDbEntity
  8
0
100
AcDb3dPolyline
 66
     1
 10
0.0
 20
0.0
 30
0.0
 70
     8
  0
VERTEX
  5
692
330
691
100
AcDbEntity
  8
0
100
AcDbVertex
100
AcDb3dPolylineVertex
 10
210.758
 20
108.9709999999999
 30
0.0
 70
    32
  0
VERTEX
  5
693
330
691
100
AcDbEntity
  8
0
100
AcDbVertex
100
AcDb3dPolylineVertex
 10
210.414
 20
108.9599999999999
 30
0.0
 70
    32
  0
VERTEX
  5
694
330
691
100
AcDbEntity
  8
0
100
AcDbVertex
100
AcDb3dPolylineVertex
 10
210.0719999999999
 20
108.927
 30
0.0
 70
    32
  0
VERTEX
  5
695
330
691
100
AcDbEntity
  8
0
100
AcDbVertex
100
AcDb3dPolylineVertex
 10
209.7309999999999
 20
108.872
 30
0.0
 70
    32
  0
VERTEX
  5
696
330
691
100
AcDbEntity
  8
0
100
AcDbVertex
100
AcDb3dPolylineVertex
 10
209.3919999999999
 20
108.7949999999999
 30
0.0
 70
    32
  0
VERTEX
  5
697
330
691
100
AcDbEntity
  8
0
100
AcDbVertex
100
AcDb3dPolylineVertex
 10
209.057
 20
108.6969999999999
 30
0.0
 70
    32
  0
VERTEX
  5
698
330
691
100
AcDbEntity
  8
0
100
AcDbVertex
100
AcDb3dPolylineVertex
 10
208.726
 20
108.577
 30
0.0
 70
    32
  0
VERTEX
  5
699
330
691
100
AcDbEntity
  8
0
100
AcDbVertex
100
AcDb3dPolylineVertex
 10
208.399
 20
108.4359999999999
 30
0.0
 70
    32
  0
VERTEX
  5
69A
330
691
100
AcDbEntity
  8
0
100
AcDbVertex
100
AcDb3dPolylineVertex
 10
208.0789999999999
 20
108.274
 30
0.0
 70
    32
  0
VERTEX
  5
69B
330
691
100
AcDbEntity
  8
0
100
AcDbVertex
100
AcDb3dPolylineVertex
 10
207.7649999999999
 20
108.092
 30
0.0
 70
    32
  0
VERTEX
  5
69C
330
691
100
AcDbEntity
  8
0
100
AcDbVertex
100
AcDb3dPolylineVertex
 10
207.458
 20
107.8899999999999
 30
0.0
 70
    32
  0
VERTEX
  5
69D
330
691
100
AcDbEntity
  8
0
100
AcDbVertex
100
AcDb3dPolylineVertex
 10
207.159
 20
107.6689999999999
 30
0.0
 70
    32
  0
VERTEX
  5
69E
330
691
100
AcDbEntity
  8
0
100
AcDbVertex
100
AcDb3dPolylineVertex
 10
206.869
 20
107.4289999999999
 30
0.0
 70
    32
  0
VERTEX
  5
69F
330
691
100
AcDbEntity
  8
0
100
AcDbVertex
100
AcDb3dPolylineVertex
 10
206.5879999999999
 20
107.17
 30
0.0
 70
    32
  0
VERTEX
  5
6A0
330
691
100
AcDbEntity
  8
0
100
AcDbVertex
100
AcDb3dPolylineVertex
 10
206.3169999999999
 20
106.894
 30
0.0
 70
    32
  0
VERTEX
  5
6A1
330
691
100
AcDbEntity
  8
0
100
AcDbVertex
100
AcDb3dPolylineVertex
 10
206.057
 20
106.6
 30
0.0
 70
    32
  0
VERTEX
  5
6A2
330
691
100
AcDbEntity
  8
0
100
AcDbVertex
100
AcDb3dPolylineVertex
 10
205.8079999999999
 20
106.29
 30
0.0
 70
    32
  0
VERTEX
  5
6A3
330
691
100
AcDbEntity
  8
0
100
AcDbVertex
100
AcDb3dPolylineVertex
 10
205.5709999999999
 20
105.9649999999999
 30
0.0
 70
    32
  0
VERTEX
  5
6A4
330
691
100
AcDbEntity
  8
0
100
AcDbVertex
100
AcDb3dPolylineVertex
 10
205.3469999999999
 20
105.6249999999999
 30
0.0
 70
    32
  0
VERTEX
  5
6A5
330
691
100
AcDbEntity
  8
0
100
AcDbVertex
100
AcDb3dPolylineVertex
 10
205.1349999999999
 20
105.271
 30
0.0
 70
    32
  0
VERTEX
  5
6A6
330
691
100
AcDbEntity
  8
0
100
AcDbVertex
100
AcDb3dPolylineVertex
 10
204.937
 20
104.9029999999999
 30
0.0
 70
    32
  0
VERTEX
  5
6A7
330
691
100
AcDbEntity
  8
0
100
AcDbVertex
100
AcDb3dPolylineVertex
 10
204.754
 20
104.5239999999999
 30
0.0
 70
    32
  0
VERTEX
  5
6A8
330
691
100
AcDbEntity
  8
0
100
AcDbVertex
100
AcDb3dPolylineVertex
 10
204.584
 20
104.1329999999999
 30
0.0
 70
    32
  0
VERTEX
  5
6A9
330
691
100
AcDbEntity
  8
0
100
AcDbVertex
100
AcDb3dPolylineVertex
 10
204.43
 20
103.732
 30
0.0
 70
    32
  0
VERTEX
  5
6AA
330
691
100
AcDbEntity
  8
0
100
AcDbVertex
100
AcDb3dPolylineVertex
 10
204.2899999999999
 20
103.3209999999999
 30
0.0
 70
    32
  0
VERTEX
  5
6AB
330
691
100
AcDbEntity
  8
0
100
AcDbVertex
100
AcDb3dPolylineVertex
 10
204.1669999999999
 20
102.902
 30
0.0
 70
    32
  0
VERTEX
  5
6AC
330
691
100
AcDbEntity
  8
0
100
AcDbVertex
100
AcDb3dPolylineVertex
 10
204.059
 20
102.475
 30
0.0
 70
    32
  0
VERTEX
  5
6AD
330
691
100
AcDbEntity
  8
0
100
AcDbVertex
100
AcDb3dPolylineVertex
 10
203.967
 20
102.0429999999999
 30
0.0
 70
    32
  0
VERTEX
  5
6AE
330
691
100
AcDbEntity
  8
0
100
AcDbVertex
100
AcDb3dPolylineVertex
 10
203.892
 20
101.604
 30
0.0
 70
    32
  0
VERTEX
  5
6AF
330
691
100
AcDbEntity
  8
0
100
AcDbVertex
100
AcDb3dPolylineVertex
 10
203.833
 20
101.162
 30
0.0
 70
    32
  0
VERTEX
  5
6B0
330
691
100
AcDbEntity
  8
0
100
AcDbVertex
100
AcDb3dPolylineVertex
 10
203.791
 20
100.716
 30
0.0
 70
    32
  0
VERTEX
  5
6B1
330
691
100
AcDbEntity
  8
0
100
AcDbVertex
100
AcDb3dPolylineVertex
 10
203.7659999999999
 20
100.2679999999999
 30
0.0
 70
    32
  0
VERTEX
  5
6B2
330
691
100
AcDbEntity
  8
0
100
AcDbVertex
100
AcDb3dPolylineVertex
 10
203.7579999999999
 20
99.8187
 30
0.0
 70
    32
  0
VERTEX
  5
6B3
330
691
100
AcDbEntity
  8
0
100
AcDbVertex
100
AcDb3dPolylineVertex
 10
203.7659999999999
 20
99.3696
 30
0.0
 70
    32
  0
VERTEX
  5
6B4
330
691
100
AcDbEntity
  8
0
100
AcDbVertex
100
AcDb3dPolylineVertex
 10
203.791
 20
98.9216
 30
0.0
 70
    32
  0
VERTEX
  5
6B5
330
691
100
AcDbEntity
  8
0
100
AcDbVertex
100
AcDb3dPolylineVertex
 10
203.833
 20
98.47570000000001
 30
0.0
 70
    32
  0
VERTEX
  5
6B6
330
691
100
AcDbEntity
  8
0
100
AcDbVertex
100
AcDb3dPolylineVertex
 10
203.892
 20
98.03310000000001
 30
0.0
 70
    32
  0
VERTEX
  5
6B7
330
691
100
AcDbEntity
  8
0
100
AcDbVertex
100
AcDb3dPolylineVertex
 10
203.967
 20
97.59480000000001
 30
0.0
 70
    32
  0
VERTEX
  5
6B8
330
691
100
AcDbEntity
  8
0
100
AcDbVertex
100
AcDb3dPolylineVertex
 10
204.059
 20
97.1619
 30
0.0
 70
    32
  0
VERTEX
  5
6B9
330
691
100
AcDbEntity
  8
0
100
AcDbVertex
100
AcDb3dPolylineVertex
 10
204.1669999999999
 20
96.73529999999999
 30
0.0
 70
    32
  0
VERTEX
  5
6BA
330
691
100
AcDbEntity
  8
0
100
AcDbVertex
100
AcDb3dPolylineVertex
 10
204.2899999999999
 20
96.31619999999999
 30
0.0
 70
    32
  0
VERTEX
  5
6BB
330
691
100
AcDbEntity
  8
0
100
AcDbVertex
100
AcDb3dPolylineVertex
 10
204.43
 20
95.9055
 30
0.0
 70
    32
  0
VERTEX
  5
6BC
330
691
100
AcDbEntity
  8
0
100
AcDbVertex
100
AcDb3dPolylineVertex
 10
204.584
 20
95.5043
 30
0.0
 70
    32
  0
VERTEX
  5
6BD
330
691
100
AcDbEntity
  8
0
100
AcDbVertex
100
AcDb3dPolylineVertex
 10
204.754
 20
95.1134
 30
0.0
 70
    32
  0
VERTEX
  5
6BE
330
691
100
AcDbEntity
  8
0
100
AcDbVertex
100
AcDb3dPolylineVertex
 10
204.937
 20
94.7339
 30
0.0
 70
    32
  0
VERTEX
  5
6BF
330
691
100
AcDbEntity
  8
0
100
AcDbVertex
100
AcDb3dPolylineVertex
 10
205.1349999999999
 20
94.36660000000001
 30
0.0
 70
    32
  0
VERTEX
  5
6C0
330
691
100
AcDbEntity
  8
0
100
AcDbVertex
100
AcDb3dPolylineVertex
 10
205.3469999999999
 20
94.01239999999999
 30
0.0
 70
    32
  0
VERTEX
  5
6C1
330
691
100
AcDbEntity
  8
0
100
AcDbVertex
100
AcDb3dPolylineVertex
 10
205.5709999999999
 20
93.67230000000001
 30
0.0
 70
    32
  0
VERTEX
  5
6C2
330
691
100
AcDbEntity
  8
0
100
AcDbVertex
100
AcDb3dPolylineVertex
 10
205.8079999999999
 20
93.3469
 30
0.0
 70
    32
  0
VERTEX
  5
6C3
330
691
100
AcDbEntity
  8
0
100
AcDbVertex
100
AcDb3dPolylineVertex
 10
206.057
 20
93.0372
 30
0.0
 70
    32
  0
VERTEX
  5
6C4
330
691
100
AcDbEntity
  8
0
100
AcDbVertex
100
AcDb3dPolylineVertex
 10
206.3169999999999
 20
92.74379999999998
 30
0.0
 70
    32
  0
VERTEX
  5
6C5
330
691
100
AcDbEntity
  8
0
100
AcDbVertex
100
AcDb3dPolylineVertex
 10
206.5879999999999
 20
92.4674
 30
0.0
 70
    32
  0
VERTEX
  5
6C6
330
691
100
AcDbEntity
  8
0
100
AcDbVertex
100
AcDb3dPolylineVertex
 10
206.869
 20
92.20869999999999
 30
0.0
 70
    32
  0
VERTEX
  5
6C7
330
691
100
AcDbEntity
  8
0
100
AcDbVertex
100
AcDb3dPolylineVertex
 10
207.159
 20
91.96839999999999
 30
0.0
 70
    32
  0
VERTEX
  5
6C8
330
691
100
AcDbEntity
  8
0
100
AcDbVertex
100
AcDb3dPolylineVertex
 10
207.458
 20
91.74699999999999
 30
0.0
 70
    32
  0
VERTEX
  5
6C9
330
691
100
AcDbEntity
  8
0
100
AcDbVertex
100
AcDb3dPolylineVertex
 10
207.7649999999999
 20
91.545
 30
0.0
 70
    32
  0
VERTEX
  5
6CA
330
691
100
AcDbEntity
  8
0
100
AcDbVertex
100
AcDb3dPolylineVertex
 10
208.0789999999999
 20
91.363
 30
0.0
 70
    32
  0
VERTEX
  5
6CB
330
691
100
AcDbEntity
  8
0
100
AcDbVertex
100
AcDb3dPolylineVertex
 10
208.399
 20
91.20130000000001
 30
0.0
 70
    32
  0
VERTEX
  5
6CC
330
691
100
AcDbEntity
  8
0
100
AcDbVertex
100
AcDb3dPolylineVertex
 10
208.726
 20
91.0604
 30
0.0
 70
    32
  0
VERTEX
  5
6CD
330
691
100
AcDbEntity
  8
0
100
AcDbVertex
100
AcDb3dPolylineVertex
 10
209.057
 20
90.9406
 30
0.0
 70
    32
  0
VERTEX
  5
6CE
330
691
100
AcDbEntity
  8
0
100
AcDbVertex
100
AcDb3dPolylineVertex
 10
209.3919999999999
 20
90.8421
 30
0.0
 70
    32
  0
VERTEX
  5
6CF
330
691
100
AcDbEntity
  8
0
100
AcDbVertex
100
AcDb3dPolylineVertex
 10
209.7309999999999
 20
90.76529999999999
 30
0.0
 70
    32
  0
VERTEX
  5
6D0
330
691
100
AcDbEntity
  8
0
100
AcDbVertex
100
AcDb3dPolylineVertex
 10
210.0719999999999
 20
90.7103
 30
0.0
 70
    32
  0
VERTEX
  5
6D1
330
691
100
AcDbEntity
  8
0
100
AcDbVertex
100
AcDb3dPolylineVertex
 10
210.414
 20
90.6773
 30
0.0
 70
    32
  0
VERTEX
  5
6D2
330
691
100
AcDbEntity
  8
0
100
AcDbVertex
100
AcDb3dPolylineVertex
 10
210.758
 20
90.66630000000001
 30
0.0
 70
    32
  0
VERTEX
  5
6D3
330
691
100
AcDbEntity
  8
0
100
AcDbVertex
100
AcDb3dPolylineVertex
 10
211.1009999999999
 20
90.6773
 30
0.0
 70
    32
  0
VERTEX
  5
6D4
330
691
100
AcDbEntity
  8
0
100
AcDbVertex
100
AcDb3dPolylineVertex
 10
211.444
 20
90.7103
 30
0.0
 70
    32
  0
VERTEX
  5
6D5
330
691
100
AcDbEntity
  8
0
100
AcDbVertex
100
AcDb3dPolylineVertex
 10
211.7849999999999
 20
90.76529999999999
 30
0.0
 70
    32
  0
VERTEX
  5
6D6
330
691
100
AcDbEntity
  8
0
100
AcDbVertex
100
AcDb3dPolylineVertex
 10
212.1229999999999
 20
90.8421
 30
0.0
 70
    32
  0
VERTEX
  5
6D7
330
691
100
AcDbEntity
  8
0
100
AcDbVertex
100
AcDb3dPolylineVertex
 10
212.4579999999999
 20
90.9406
 30
0.0
 70
    32
  0
VERTEX
  5
6D8
330
691
100
AcDbEntity
  8
0
100
AcDbVertex
100
AcDb3dPolylineVertex
 10
212.7899999999999
 20
91.0604
 30
0.0
 70
    32
  0
VERTEX
  5
6D9
330
691
100
AcDbEntity
  8
0
100
AcDbVertex
100
AcDb3dPolylineVertex
 10
213.1159999999999
 20
91.20130000000001
 30
0.0
 70
    32
  0
VERTEX
  5
6DA
330
691
100
AcDbEntity
  8
0
100
AcDbVertex
100
AcDb3dPolylineVertex
 10
213.436
 20
91.363
 30
0.0
 70
    32
  0
VERTEX
  5
6DB
330
691
100
AcDbEntity
  8
0
100
AcDbVertex
100
AcDb3dPolylineVertex
 10
213.7509999999999
 20
91.545
 30
0.0
 70
    32
  0
VERTEX
  5
6DC
330
691
100
AcDbEntity
  8
0
100
AcDbVertex
100
AcDb3dPolylineVertex
 10
214.057
 20
91.74699999999999
 30
0.0
 70
    32
  0
VERTEX
  5
6DD
330
691
100
AcDbEntity
  8
0
100
AcDbVertex
100
AcDb3dPolylineVertex
 10
214.3559999999999
 20
91.96839999999999
 30
0.0
 70
    32
  0
VERTEX
  5
6DE
330
691
100
AcDbEntity
  8
0
100
AcDbVertex
100
AcDb3dPolylineVertex
 10
214.647
 20
92.20869999999999
 30
0.0
 70
    32
  0
VERTEX
  5
6DF
330
691
100
AcDbEntity
  8
0
100
AcDbVertex
100
AcDb3dPolylineVertex
 10
214.928
 20
92.4674
 30
0.0
 70
    32
  0
VERTEX
  5
6E0
330
691
100
AcDbEntity
  8
0
100
AcDbVertex
100
AcDb3dPolylineVertex
 10
215.198
 20
92.74379999999998
 30
0.0
 70
    32
  0
VERTEX
  5
6E1
330
691
100
AcDbEntity
  8
0
100
AcDbVertex
100
AcDb3dPolylineVertex
 10
215.459
 20
93.0372
 30
0.0
 70
    32
  0
VERTEX
  5
6E2
330
691
100
AcDbEntity
  8
0
100
AcDbVertex
100
AcDb3dPolylineVertex
 10
215.707
 20
93.3469
 30
0.0
 70
    32
  0
VERTEX
  5
6E3
330
691
100
AcDbEntity
  8
0
100
AcDbVertex
100
AcDb3dPolylineVertex
 10
215.944
 20
93.67230000000001
 30
0.0
 70
    32
  0
VERTEX
  5
6E4
330
691
100
AcDbEntity
  8
0
100
AcDbVertex
100
AcDb3dPolylineVertex
 10
216.169
 20
94.01239999999999
 30
0.0
 70
    32
  0
VERTEX
  5
6E5
330
691
100
AcDbEntity
  8
0
100
AcDbVertex
100
AcDb3dPolylineVertex
 10
216.38
 20
94.36660000000001
 30
0.0
 70
    32
  0
VERTEX
  5
6E6
330
691
100
AcDbEntity
  8
0
100
AcDbVertex
100
AcDb3dPolylineVertex
 10
216.578
 20
94.7339
 30
0.0
 70
    32
  0
VERTEX
  5
6E7
330
691
100
AcDbEntity
  8
0
100
AcDbVertex
100
AcDb3dPolylineVertex
 10
216.7619999999999
 20
95.1134
 30
0.0
 70
    32
  0
VERTEX
  5
6E8
330
691
100
AcDbEntity
  8
0
100
AcDbVertex
100
AcDb3dPolylineVertex
 10
216.9309999999999
 20
95.5043
 30
0.0
 70
    32
  0
VERTEX
  5
6E9
330
691
100
AcDbEntity
  8
0
100
AcDbVertex
100
AcDb3dPolylineVertex
 10
217.0859999999999
 20
95.9055
 30
0.0
 70
    32
  0
VERTEX
  5
6EA
330
691
100
AcDbEntity
  8
0
100
AcDbVertex
100
AcDb3dPolylineVertex
 10
217.225
 20
96.31619999999999
 30
0.0
 70
    32
  0
VERTEX
  5
6EB
330
691
100
AcDbEntity
  8
0
100
AcDbVertex
100
AcDb3dPolylineVertex
 10
217.348
 20
96.73529999999999
 30
0.0
 70
    32
  0
VERTEX
  5
6EC
330
691
100
AcDbEntity
  8
0
100
AcDbVertex
100
AcDb3dPolylineVertex
 10
217.456
 20
97.1619
 30
0.0
 70
    32
  0
VERTEX
  5
6ED
330
691
100
AcDbEntity
  8
0
100
AcDbVertex
100
AcDb3dPolylineVertex
 10
217.5479999999999
 20
97.59480000000001
 30
0.0
 70
    32
  0
VERTEX
  5
6EE
330
691
100
AcDbEntity
  8
0
100
AcDbVertex
100
AcDb3dPolylineVertex
 10
217.6229999999999
 20
98.03310000000001
 30
0.0
 70
    32
  0
VERTEX
  5
6EF
330
691
100
AcDbEntity
  8
0
100
AcDbVertex
100
AcDb3dPolylineVertex
 10
217.682
 20
98.47570000000001
 30
0.0
 70
    32
  0
VERTEX
  5
6F0
330
691
100
AcDbEntity
  8
0
100
AcDbVertex
100
AcDb3dPolylineVertex
 10
217.724
 20
98.9216
 30
0.0
 70
    32
  0
VERTEX
  5
6F1
330
691
100
AcDbEntity
  8
0
100
AcDbVertex
100
AcDb3dPolylineVertex
 10
217.749
 20
99.3696
 30
0.0
 70
    32
  0
VERTEX
  5
6F2
330
691
100
AcDbEntity
  8
0
100
AcDbVertex
100
AcDb3dPolylineVertex
 10
217.7579999999999
 20
99.8187
 30
0.0
 70
    32
  0
VERTEX
  5
6F3
330
691
100
AcDbEntity
  8
0
100
AcDbVertex
100
AcDb3dPolylineVertex
 10
217.749
 20
100.2679999999999
 30
0.0
 70
    32
  0
VERTEX
  5
6F4
330
691
100
AcDbEntity
  8
0
100
AcDbVertex
100
AcDb3dPolylineVertex
 10
217.724
 20
100.716
 30
0.0
 70
    32
  0
VERTEX
  5
6F5
330
691
100
AcDbEntity
  8
0
100
AcDbVertex
100
AcDb3dPolylineVertex
 10
217.682
 20
101.162
 30
0.0
 70
    32
  0
VERTEX
  5
6F6
330
691
100
AcDbEntity
  8
0
100
AcDbVertex
100
AcDb3dPolylineVertex
 10
217.6229999999999
 20
101.604
 30
0.0
 70
    32
  0
VERTEX
  5
6F7
330
691
100
AcDbEntity
  8
0
100
AcDbVertex
100
AcDb3dPolylineVertex
 10
217.5479999999999
 20
102.0429999999999
 30
0.0
 70
    32
  0
VERTEX
  5
6F8
330
691
100
AcDbEntity
  8
0
100
AcDbVertex
100
AcDb3dPolylineVertex
 10
217.456
 20
102.475
 30
0.0
 70
    32
  0
VERTEX
  5
6F9
330
691
100
AcDbEntity
  8
0
100
AcDbVertex
100
AcDb3dPolylineVertex
 10
217.348
 20
102.902
 30
0.0
 70
    32
  0
VERTEX
  5
6FA
330
691
100
AcDbEntity
  8
0
100
AcDbVertex
100
AcDb3dPolylineVertex
 10
217.225
 20
103.3209999999999
 30
0.0
 70
    32
  0
VERTEX
  5
6FB
330
691
100
AcDbEntity
  8
0
100
AcDbVertex
100
AcDb3dPolylineVertex
 10
217.0859999999999
 20
103.732
 30
0.0
 70
    32
  0
VERTEX
  5
6FC
330
691
100
AcDbEntity
  8
0
100
AcDbVertex
100
AcDb3dPolylineVertex
 10
216.9309999999999
 20
104.1329999999999
 30
0.0
 70
    32
  0
VERTEX
  5
6FD
330
691
100
AcDbEntity
  8
0
100
AcDbVertex
100
AcDb3dPolylineVertex
 10
216.7619999999999
 20
104.5239999999999
 30
0.0
 70
    32
  0
VERTEX
  5
6FE
330
691
100
AcDbEntity
  8
0
100
AcDbVertex
100
AcDb3dPolylineVertex
 10
216.578
 20
104.9029999999999
 30
0.0
 70
    32
  0
VERTEX
  5
6FF
330
691
100
AcDbEntity
  8
0
100
AcDbVertex
100
AcDb3dPolylineVertex
 10
216.38
 20
105.271
 30
0.0
 70
    32
  0
VERTEX
  5
700
330
691
100
AcDbEntity
  8
0
100
AcDbVertex
100
AcDb3dPolylineVertex
 10
216.169
 20
105.6249999999999
 30
0.0
 70
    32
  0
VERTEX
  5
701
330
691
100
AcDbEntity
  8
0
100
AcDbVertex
100
AcDb3dPolylineVertex
 10
215.944
 20
105.9649999999999
 30
0.0
 70
    32
  0
VERTEX
  5
702
330
691
100
AcDbEntity
  8
0
100
AcDbVertex
100
AcDb3dPolylineVertex
 10
215.707
 20
106.29
 30
0.0
 70
    32
  0
VERTEX
  5
703
330
691
100
AcDbEntity
  8
0
100
AcDbVertex
100
AcDb3dPolylineVertex
 10
215.459
 20
106.6
 30
0.0
 70
    32
  0
VERTEX
  5
704
330
691
100
AcDbEntity
  8
0
100
AcDbVertex
100
AcDb3dPolylineVertex
 10
215.198
 20
106.894
 30
0.0
 70
    32
  0
VERTEX
  5
705
330
691
100
AcDbEntity
  8
0
100
AcDbVertex
100
AcDb3dPolylineVertex
 10
214.928
 20
107.17
 30
0.0
 70
    32
  0
VERTEX
  5
706
330
691
100
AcDbEntity
  8
0
100
AcDbVertex
100
AcDb3dPolylineVertex
 10
214.647
 20
107.4289999999999
 30
0.0
 70
    32
  0
VERTEX
  5
707
330
691
100
AcDbEntity
  8
0
100
AcDbVertex
100
AcDb3dPolylineVertex
 10
214.3559999999999
 20
107.6689999999999
 30
0.0
 70
    32
  0
VERTEX
  5
708
330
691
100
AcDbEntity
  8
0
100
AcDbVertex
100
AcDb3dPolylineVertex
 10
214.057
 20
107.8899999999999
 30
0.0
 70
    32
  0
VERTEX
  5
709
330
691
100
AcDbEntity
  8
0
100
AcDbVertex
100
AcDb3dPolylineVertex
 10
213.7509999999999
 20
108.092
 30
0.0
 70
    32
  0
VERTEX
  5
70A
330
691
100
AcDbEntity
  8
0
100
AcDbVertex
100
AcDb3dPolylineVertex
 10
213.436
 20
108.274
 30
0.0
 70
    32
  0
VERTEX
  5
70B
330
691
100
AcDbEntity
  8
0
100
AcDbVertex
100
AcDb3dPolylineVertex
 10
213.1159999999999
 20
108.4359999999999
 30
0.0
 70
    32
  0
VERTEX
  5
70C
330
691
100
AcDbEntity
  8
0
100
AcDbVertex
100
AcDb3dPolylineVertex
 10
212.7899999999999
 20
108.577
 30
0.0
 70
    32
  0
VERTEX
  5
70D
330
691
100
AcDbEntity
  8
0
100
AcDbVertex
100
AcDb3dPolylineVertex
 10
212.4579999999999
 20
108.6969999999999
 30
0.0
 70
    32
  0
VERTEX
  5
70E
330
691
100
AcDbEntity
  8
0
100
AcDbVertex
100
AcDb3dPolylineVertex
 10
212.1229999999999
 20
108.7949999999999
 30
0.0
 70
    32
  0
VERTEX
  5
70F
330
691
100
AcDbEntity
  8
0
100
AcDbVertex
100
AcDb3dPolylineVertex
 10
211.7849999999999
 20
108.872
 30
0.0
 70
    32
  0
VERTEX
  5
710
330
691
100
AcDbEntity
  8
0
100
AcDbVertex
100
AcDb3dPolylineVertex
 10
211.444
 20
108.927
 30
0.0
 70
    32
  0
VERTEX
  5
711
330
691
100
AcDbEntity
  8
0
100
AcDbVertex
100
AcDb3dPolylineVertex
 10
211.1009999999999
 20
108.9599999999999
 30
0.0
 70
    32
  0
VERTEX
  5
712
330
691
100
AcDbEntity
  8
0
100
AcDbVertex
100
AcDb3dPolylineVertex
 10
210.758
 20
108.9709999999999
 30
0.0
 70
    32
  0
SEQEND
  5
713
330
691
100
AcDbEntity
  8
0
  0
ENDSEC
  0
SECTION
  2
OBJECTS
  0
DICTIONARY
  5
62D
330
0
100
AcDbDictionary
281
     1
  3
ACAD_GROUP
350
62E
  3
ACAD_LAYOUT
350
63A
  3
ACAD_MLINESTYLE
350
637
  3
ACAD_PLOTSETTINGS
350
639
  3
ACAD_PLOTSTYLENAME
350
62F
  3
AcDbVariableDictionary
350
7F8
  3
AcmDictionary
350
7CD
  3
AMG
350
715
  3
AMGSNAPSETTINGS
350
7EA
  3
DWGPROPS
350
7D0
  3
MAPISURF_MODULE
350
7A0
  0
DICTIONARY
  5
7F1
330
63F
100
AcDbDictionary
280
     1
281
     1
  3
ACAD_INDEX
360
7F2
  0
DICTIONARY
  5
62E
102
{ACAD_REACTORS
330
62D
102
}
330
62D
100
AcDbDictionary
281
     1
  0
DICTIONARY
  5
63A
102
{ACAD_REACTORS
330
62D
102
}
330
62D
100
AcDbDictionary
281
     1
  3
Model
350
642
  3
ﾚｲｱｳﾄ1
350
63E
  0
DICTIONARY
  5
637
102
{ACAD_REACTORS
330
62D
102
}
330
62D
100
AcDbDictionary
281
     1
  3
Standard
350
638
  0
DICTIONARY
  5
639
102
{ACAD_REACTORS
330
62D
102
}
330
62D
100
AcDbDictionary
281
     1
  0
ACDBDICTIONARYWDFLT
  5
62F
102
{ACAD_REACTORS
330
62D
102
}
330
62D
100
AcDbDictionary
281
     1
  3
Normal
350
630
100
AcDbDictionaryWithDefault
340
630
  0
DICTIONARY
  5
7F8
102
{ACAD_REACTORS
330
62D
102
}
330
62D
100
AcDbDictionary
281
     1
  3
DIMASSOC
350
7FA
  3
INDEXCTL
350
7F9
  0
DICTIONARY
  5
7CD
102
{ACAD_REACTORS
330
62D
102
}
330
62D
100
AcDbDictionary
281
     1
  3
AcmBOMDATA
350
7CE
  0
DICTIONARY
  5
715
102
{ACAD_REACTORS
330
62D
102
}
330
62D
100
AcDbDictionary
281
     1
  3
AcMgSettings
350
716
  3
AMGLAYCFG
350
7DA
  0
DICTIONARY
  5
7EA
102
{ACAD_REACTORS
330
62D
102
}
330
62D
100
AcDbDictionary
281
     1
  3
DIMENSION
350
7EF
  3
FEA
350
7EE
  3
HATCH (1)
350
7EB
  3
HATCH (2)
350
7EC
  3
SIMPLE WELD
350
7F0
  3
SYMBOLS
350
7ED
  0
XRECORD
  5
7D0
102
{ACAD_REACTORS
330
62D
102
}
330
62D
100
AcDbXrecord
280
     1
  1
DWGPROPS COOKIE
  2

  3

  4

  6

  7

  8

  9

300
AmdtFileType=84
301
=
302
=
303
=
304
=
305
=
306
=
307
=
308
=
309
=
 40
0.0426332407407408
 41
2449839.785277777
 42
2453236.829311342
  1

 90
        1
  0
DICTIONARY
  5
7F2
102
{ACAD_REACTORS
330
7F1
102
}
330
7F1
100
AcDbDictionary
281
     1
  3
*A1
350
7F3
  0
LAYOUT
  5
642
102
{ACAD_REACTORS
330
63A
102
}
330
63A
100
AcDbPlotSettings
  1

  2
\\KONISHIDENXP\SHARP MX-2700FG
  4

  6

 40
0.0
 41
0.0
 42
0.0
 43
0.0
 44
0.0
 45
0.0
 46
0.0
 47
0.0
 48
0.0
 49
0.0
140
0.0
141
0.0
142
1.0
143
1.0
 70
  1712
 72
     0
 73
     0
 74
     0
  7

 75
     0
147
1.0
148
0.0
149
0.0
100
AcDbLayout
  1
Model
 70
     1
 71
     0
 10
0.0
 20
0.0
 11
12.0
 21
9.0
 12
0.0
 22
0.0
 32
0.0
 14
0.0
 24
0.0
 34
0.0
 15
0.0
 25
0.0
 35
0.0
146
0.0
 13
0.0
 23
0.0
 33
0.0
 16
1.0
 26
0.0
 36
0.0
 17
0.0
 27
1.0
 37
0.0
 76
     0
330
63F
  0
LAYOUT
  5
63E
102
{ACAD_REACTORS
330
63A
102
}
330
63A
100
AcDbPlotSettings
  1

  2
\\KONISHIDENXP\SHARP MX-2700FG
  4

  6

 40
0.0
 41
0.0
 42
0.0
 43
0.0
 44
0.0
 45
0.0
 46
0.0
 47
0.0
 48
0.0
 49
0.0
140
0.0
141
0.0
142
1.0
143
1.0
 70
   688
 72
     0
 73
     0
 74
     5
  7

 75
    16
147
1.0
148
0.0
149
0.0
100
AcDbLayout
  1
ﾚｲｱｳﾄ1
 70
     0
 71
     1
 10
0.0
 20
0.0
 11
12.0
 21
9.0
 12
0.0
 22
0.0
 32
0.0
 14
1.000000000000000E+20
 24
1.000000000000000E+20
 34
1.000000000000000E+20
 15
-1.000000000000000E+20
 25
-1.000000000000000E+20
 35
-1.000000000000000E+20
146
0.0
 13
0.0
 23
0.0
 33
0.0
 16
1.0
 26
0.0
 36
0.0
 17
0.0
 27
1.0
 37
0.0
 76
     0
330
63B
  0
MLINESTYLE
  5
638
102
{ACAD_REACTORS
330
637
102
}
330
637
100
AcDbMlineStyle
  2
STANDARD
 70
     0
  3

 62
   256
 51
90.0
 52
90.0
 71
     2
 49
0.5
 62
   256
  6
BYLAYER
 49
-0.5
 62
   256
  6
BYLAYER
  0
ACDBPLACEHOLDER
  5
630
102
{ACAD_REACTORS
330
62F
102
}
330
62F
  0
DICTIONARYVAR
  5
7FA
102
{ACAD_REACTORS
330
7F8
102
}
330
7F8
100
DictionaryVariables
280
     0
  1
0
  0
DICTIONARYVAR
  5
7F9
102
{ACAD_REACTORS
330
7F8
102
}
330
7F8
100
DictionaryVariables
280
     0
  1
1
  0
ACMDATADICTIONARY
  5
7CE
102
{ACAD_REACTORS
330
7CD
102
}
330
7CD
100
AcDbDictionary
281
     1
  3
*A1
350
7CF
100
AcmDataDictionary
  0
DICTIONARY
  5
716
102
{ACAD_REACTORS
330
715
102
}
330
715
100
AcDbDictionary
281
     1
  3
DWGSETTINGS
350
717
  0
ACAMGFILTERDAT
  5
7EF
102
{ACAD_REACTORS
330
7EA
102
}
330
7EA
100
AcAmgFilterDat
 70
    15
  1
DIMENSION,AMDT_*_DIM
  2
*
  3
*
  4
*
  5
*
290
     1
  0
ACAMGFILTERDAT
  5
7EE
102
{ACAD_REACTORS
330
7EA
102
}
330
7EA
100
AcAmgFilterDat
 70
    15
  1
*
  2
AM_FEA-AM_*
  3
*
  4
*
  5
*
290
     1
  0
ACAMGFILTERDAT
  5
7EB
102
{ACAD_REACTORS
330
7EA
102
}
330
7EA
100
AcAmgFilterDat
 70
    15
  1
HATCH
  2
*
  3
*
  4
*
  5
*
290
     1
  0
ACAMGFILTERDAT
  5
7EC
102
{ACAD_REACTORS
330
7EA
102
}
330
7EA
100
AcAmgFilterDat
 70
    15
  1
LINE
  2
8,8N,*-8,*-8N,AM_8,AM_8N,*-AM_8,*-AM_8N
  3
*
  4
*
  5
INSERT,STDPART2D
290
     1
  0
ACAMGFILTERDAT
  5
7F0
102
{ACAD_REACTORS
330
7EA
102
}
330
7EA
100
AcAmgFilterDat
 70
    15
  1
ARC
  2
AM_5
  3
*
  4
2
  5
INSERT
290
     0
  0
ACAMGFILTERDAT
  5
7ED
102
{ACAD_REACTORS
330
7EA
102
}
330
7EA
100
AcAmgFilterDat
 70
    15
  1
ACMFCFRAME,ACMDATUMTARGET,ACMDATUMID,ACMWELDSYM,ACMSURFSYM,ACMFEATID,ACMPARTREF,ACMBALLOON,AMDTEDGESYM,AMGSCREWCALCTABLE
  2
*
  3
*
  4
*
  5
*
290
     1
  0
LAYER_INDEX
  5
7F3
102
{ACAD_REACTORS
330
7F2
102
}
330
7F2
100
AcDbIndex
 40
2456451.617664386
100
AcDbLayerIndex
  8
0
360
7F4
 90
       41
  8
1
360
7F5
 90
        3
  8
2
360
7F6
 90
       14
  8
ITTEN
360
7F7
 90
        0
  0
ACMDATAENTRYBLOCK
  5
7CF
102
{ACAD_REACTORS
330
7CE
102
}
330
7CE
100
AcmDataEntry
100
AcmDataEntryBlock
  0
IDBUFFER
  5
7F4
330
0
100
AcDbIdBuffer
330
66B
330
66C
330
66D
330
66E
330
66F
330
670
330
674
330
675
330
676
330
677
330
678
330
679
330
67A
330
67B
330
67C
330
67F
330
680
330
681
330
684
330
687
330
688
330
689
330
68A
330
690
330
691
330
659
330
65A
330
65C
330
65D
330
65E
330
65F
330
660
330
661
330
662
330
663
330
664
330
665
330
666
330
667
330
669
330
66A
  0
IDBUFFER
  5
7F5
330
0
100
AcDbIdBuffer
330
658
330
65B
330
673
  0
IDBUFFER
  5
7F6
330
0
100
AcDbIdBuffer
330
668
330
671
330
672
330
67D
330
67E
330
682
330
683
330
685
330
686
330
68B
330
68C
330
68D
330
68E
330
68F
  0
IDBUFFER
  5
7F7
330
0
100
AcDbIdBuffer
  0
ENDSEC
  0
EOF
