  0
SECTION
  2
HEADER
  9
$ACADVER
  1
AC1015
  9
$ACADMAINTVER
 70
    13
  9
$DWGCODEPAGE
  3
ANSI_932
  9
$INSBASE
 10
0.0
 20
0.0
 30
0.0
  9
$EXTMIN
 10
55.54965123719956
 20
55.64792395490789
 30
0.0
  9
$EXTMAX
 10
237.75763631458
 20
135.318658766796
 30
0.0
  9
$LIMMIN
 10
0.0
 20
0.0
  9
$LIMMAX
 10
375.0
 20
270.0
  9
$ORTHOMODE
 70
     1
  9
$REGENMODE
 70
     1
  9
$FILLMODE
 70
     1
  9
$QTEXTMODE
 70
     0
  9
$MIRRTEXT
 70
     0
  9
$LTSCALE
 40
5.0
  9
$ATTMODE
 70
     1
  9
$TEXTSIZE
 40
5.0
  9
$TRACEWID
 40
0.05
  9
$TEXTSTYLE
  7
STANDARD
  9
$CLAYER
  8
0
  9
$CELTYPE
  6
ByLayer
  9
$CECOLOR
 62
   256
  9
$CELTSCALE
 40
1.0
  9
$DISPSILH
 70
     0
  9
$DIMSCALE
 40
1.0
  9
$DIMASZ
 40
3.0
  9
$DIMEXO
 40
2.0
  9
$DIMDLI
 40
0.38
  9
$DIMRND
 40
0.0
  9
$DIMDLE
 40
0.0
  9
$DIMEXE
 40
2.0
  9
$DIMTP
 40
0.0
  9
$DIMTM
 40
0.0
  9
$DIMTXT
 40
3.0
  9
$DIMCEN
 40
0.0
  9
$DIMTSZ
 40
0.0
  9
$DIMTOL
 70
     0
  9
$DIMLIM
 70
     0
  9
$DIMTIH
 70
     0
  9
$DIMTOH
 70
     0
  9
$DIMSE1
 70
     0
  9
$DIMSE2
 70
     0
  9
$DIMTAD
 70
     1
  9
$DIMZIN
 70
     0
  9
$DIMBLK
  1

  9
$DIMASO
 70
     0
  9
$DIMSHO
 70
     0
  9
$DIMPOST
  1

  9
$DIMAPOST
  1

  9
$DIMALT
 70
     0
  9
$DIMALTD
 70
     2
  9
$DIMALTF
 40
25.4
  9
$DIMLFAC
 40
1.0
  9
$DIMTOFL
 70
     1
  9
$DIMTVP
 40
1.6
  9
$DIMTIX
 70
     1
  9
$DIMSOXD
 70
     0
  9
$DIMSAH
 70
     0
  9
$DIMBLK1
  1

  9
$DIMBLK2
  1

  9
$DIMSTYLE
  2
STANDARD
  9
$DIMCLRD
 70
     0
  9
$DIMCLRE
 70
     0
  9
$DIMCLRT
 70
     0
  9
$DIMTFAC
 40
1.0
  9
$DIMGAP
 40
0.09
  9
$DIMJUST
 70
     0
  9
$DIMSD1
 70
     0
  9
$DIMSD2
 70
     0
  9
$DIMTOLJ
 70
     1
  9
$DIMTZIN
 70
     0
  9
$DIMALTZ
 70
     0
  9
$DIMALTTZ
 70
     0
  9
$DIMUPT
 70
     0
  9
$DIMDEC
 70
     4
  9
$DIMTDEC
 70
     4
  9
$DIMALTU
 70
     2
  9
$DIMALTTD
 70
     2
  9
$DIMTXSTY
  7
STANDARD
  9
$DIMAUNIT
 70
     0
  9
$DIMADEC
 70
     0
  9
$DIMALTRND
 40
0.0
  9
$DIMAZIN
 70
     0
  9
$DIMDSEP
 70
    46
  9
$DIMATFIT
 70
     3
  9
$DIMFRAC
 70
     0
  9
$DIMLDRBLK
  1

  9
$DIMLUNIT
 70
     2
  9
$DIMLWD
 70
    -2
  9
$DIMLWE
 70
    -2
  9
$DIMTMOVE
 70
     0
  9
$LUNITS
 70
     2
  9
$LUPREC
 70
     4
  9
$SKETCHINC
 40
0.1
  9
$FILLETRAD
 40
0.0
  9
$AUNITS
 70
     0
  9
$AUPREC
 70
     4
  9
$MENU
  1
E:\r13\win\SUPPORT\ACAD
  9
$ELEVATION
 40
0.0
  9
$PELEVATION
 40
0.0
  9
$THICKNESS
 40
0.0
  9
$LIMCHECK
 70
     0
  9
$CHAMFERA
 40
0.0
  9
$CHAMFERB
 40
0.0
  9
$CHAMFERC
 40
0.0
  9
$CHAMFERD
 40
0.0
  9
$SKPOLY
 70
     0
  9
$TDCREATE
 40
2449839.785277777
  9
$TDUCREATE
 40
2449839.410277778
  9
$TDUPDATE
 40
2456451.618664814
  9
$TDUUPDATE
 40
2456451.243664814
  9
$TDINDWG
 40
0.0449458912
  9
$TDUSRTIMER
 40
0.0449457060
  9
$USRTIMER
 70
     1
  9
$ANGBASE
 50
0.0
  9
$ANGDIR
 70
     0
  9
$PDMODE
 70
     0
  9
$PDSIZE
 40
0.0
  9
$PLINEWID
 40
0.0
  9
$SPLFRAME
 70
     0
  9
$SPLINETYPE
 70
     6
  9
$SPLINESEGS
 70
     8
  9
$HANDSEED
  5
8D0
  9
$SURFTAB1
 70
     6
  9
$SURFTAB2
 70
     6
  9
$SURFTYPE
 70
     6
  9
$SURFU
 70
     6
  9
$SURFV
 70
     6
  9
$UCSBASE
  2

  9
$UCSNAME
  2

  9
$UCSORG
 10
0.0
 20
0.0
 30
0.0
  9
$UCSXDIR
 10
1.0
 20
0.0
 30
0.0
  9
$UCSYDIR
 10
0.0
 20
1.0
 30
0.0
  9
$UCSORTHOREF
  2

  9
$UCSORTHOVIEW
 70
     0
  9
$UCSORGTOP
 10
0.0
 20
0.0
 30
0.0
  9
$UCSORGBOTTOM
 10
0.0
 20
0.0
 30
0.0
  9
$UCSORGLEFT
 10
0.0
 20
0.0
 30
0.0
  9
$UCSORGRIGHT
 10
0.0
 20
0.0
 30
0.0
  9
$UCSORGFRONT
 10
0.0
 20
0.0
 30
0.0
  9
$UCSORGBACK
 10
0.0
 20
0.0
 30
0.0
  9
$PUCSBASE
  2

  9
$PUCSNAME
  2

  9
$PUCSORG
 10
0.0
 20
0.0
 30
0.0
  9
$PUCSXDIR
 10
1.0
 20
0.0
 30
0.0
  9
$PUCSYDIR
 10
0.0
 20
1.0
 30
0.0
  9
$PUCSORTHOREF
  2

  9
$PUCSORTHOVIEW
 70
     0
  9
$PUCSORGTOP
 10
0.0
 20
0.0
 30
0.0
  9
$PUCSORGBOTTOM
 10
0.0
 20
0.0
 30
0.0
  9
$PUCSORGLEFT
 10
0.0
 20
0.0
 30
0.0
  9
$PUCSORGRIGHT
 10
0.0
 20
0.0
 30
0.0
  9
$PUCSORGFRONT
 10
0.0
 20
0.0
 30
0.0
  9
$PUCSORGBACK
 10
0.0
 20
0.0
 30
0.0
  9
$USERI1
 70
     0
  9
$USERI2
 70
     1
  9
$USERI3
 70
     1
  9
$USERI4
 70
     0
  9
$USERI5
 70
     0
  9
$USERR1
 40
0.0
  9
$USERR2
 40
0.0
  9
$USERR3
 40
0.0
  9
$USERR4
 40
0.0
  9
$USERR5
 40
0.0
  9
$WORLDVIEW
 70
     1
  9
$SHADEDGE
 70
     3
  9
$SHADEDIF
 70
    70
  9
$TILEMODE
 70
     1
  9
$MAXACTVP
 70
    16
  9
$PINSBASE
 10
0.0
 20
0.0
 30
0.0
  9
$PLIMCHECK
 70
     0
  9
$PEXTMIN
 10
1.000000000000000E+20
 20
1.000000000000000E+20
 30
1.000000000000000E+20
  9
$PEXTMAX
 10
-1.000000000000000E+20
 20
-1.000000000000000E+20
 30
-1.000000000000000E+20
  9
$PLIMMIN
 10
0.0
 20
0.0
  9
$PLIMMAX
 10
12.0
 20
9.0
  9
$UNITMODE
 70
     0
  9
$VISRETAIN
 70
     0
  9
$PLINEGEN
 70
     0
  9
$PSLTSCALE
 70
     0
  9
$TREEDEPTH
 70
  3020
  9
$CMLSTYLE
  2
Standard
  9
$CMLJUST
 70
     0
  9
$CMLSCALE
 40
1.0
  9
$PROXYGRAPHICS
 70
     1
  9
$MEASUREMENT
 70
     0
  9
$CELWEIGHT
370
    -1
  9
$ENDCAPS
280
     0
  9
$JOINSTYLE
280
     0
  9
$LWDISPLAY
290
     0
  9
$INSUNITS
 70
     0
  9
$HYPERLINKBASE
  1

  9
$STYLESHEET
  1

  9
$XEDIT
290
     1
  9
$CEPSNTYPE
380
     0
  9
$PSTYLEMODE
290
     1
  9
$FINGERPRINTGUID
  2
{8BDB94FB-B7DF-49E1-95D5-DDA5DC87126A}
  9
$VERSIONGUID
  2
{2B432947-ECB6-4853-9367-69C0D567117E}
  9
$EXTNAMES
290
     1
  9
$PSVPSCALE
 40
0.0
  9
$OLESTARTUP
290
     0
  0
ENDSEC
  0
SECTION
  2
CLASSES
  0
CLASS
  1
ACDBDICTIONARYWDFLT
  2
AcDbDictionaryWithDefault
  3
AutoCAD 2000
 90
        0
280
     0
281
     0
  0
CLASS
  1
ACDBPLACEHOLDER
  2
AcDbPlaceHolder
  3
AutoCAD 2000
 90
        0
280
     0
281
     0
  0
CLASS
  1
LAYOUT
  2
AcDbLayout
  3
AutoCAD 2000
 90
        0
280
     0
281
     0
  0
CLASS
  1
AMGSETTINGSOBJ
  2
AmgSettingsObj
  3
"AcadM|Product Description: AutoCAD Mechanical 2000|Company: Autodesk"
 90
        0
280
     0
281
     0
  0
CLASS
  1
ACME_DOCUMENT
  2
AcMeDbDoc
  3
AcMeServices
 90
        0
280
     0
281
     0
  0
CLASS
  1
ACMESCOPE
  2
AcMeScope
  3
AcMeServices
 90
        0
280
     0
281
     0
  0
CLASS
  1
ACMECOMMANDHISTORY
  2
AcMeCommandHistory
  3
AcMeServices
 90
        0
280
     0
281
     0
  0
CLASS
  1
ACIMSYSVARMAN
  2
AcImSysVarManager
  3
AcMeServices
 90
        0
280
     0
281
     0
  0
CLASS
  1
ACIMREALSYSVAR
  2
AcImRealSysVar
  3
AcMeServices
 90
        0
280
     0
281
     0
  0
CLASS
  1
ACIMINTSYSVAR
  2
AcImIntSysVar
  3
AcMeServices
 90
        0
280
     0
281
     0
  0
CLASS
  1
ACMEDRAWINGMAN
  2
AcMeDrawingMan
  3
AcMeServices
 90
        0
280
     0
281
     0
  0
CLASS
  1
ACMEVIEW
  2
AcMeView
  3
AcMeServices
 90
        0
280
     0
281
     0
  0
CLASS
  1
ACDBENTITYCACHE
  2
AcMeEntityCache
  3
AcMeServices
 90
        0
280
     0
281
     0
  0
CLASS
  1
GSMANAGER
  2
AcMeGSManager
  3
AcMeServices
 90
        0
280
     0
281
     0
  0
CLASS
  1
AMDTINTERNALREACTOR
  2
AmdtInternalReactor
  3
AcMeServices
 90
        0
280
     0
281
     0
  0
CLASS
  1
ACMESTATEMGR
  2
AcMeStateMgr
  3
AcMeServices
 90
        0
280
     0
281
     0
  0
CLASS
  1
ACGREFMASTER
  2
AcGrefMaster
  3
AcAttribServices
 90
        0
280
     0
281
     0
  0
CLASS
  1
AM_DRAWING_MGR
  2
AcDmDwgMgr
  3
AcMechDwgViewMgmt
 90
        0
280
     0
281
     0
  0
CLASS
  1
AM_DWG_DOCUMENT
  2
AcDmDwgDocument
  3
AcMechDwgViewMgmt
 90
        0
280
     0
281
     0
  0
CLASS
  1
AM_DWG_SHEET
  2
AcDmSheet
  3
AcMechDwgViewMgmt
 90
        0
280
     0
281
     0
  0
CLASS
  1
AM_VIEWDIMPARMAP
  2
AcDmViewDimParMap
  3
AcMechDwgViewMgmt
 90
        0
280
     0
281
     0
  0
CLASS
  1
AM_DWGMGR_NAME
  2
AcDmDwgMgrName
  3
AcMechDwgViewMgmt
 90
        0
280
     0
281
     0
  0
CLASS
  1
ACME_DATABASE
  2
AcMeDbDatabase
  3
AcMeServices
 90
        0
280
     0
281
     0
  0
CLASS
  1
ACRFINSADJUSTERMGR
  2
AcRfInsAdjusterMgr
  3
AcMeServices
 90
        0
280
     0
281
     0
  0
CLASS
  1
ACGREFACADMASTER
  2
AcGrefacadMaster
  3
AcGrefServices
 90
        0
280
     0
281
     0
  0
CLASS
  1
AMDTMENUSTATEMGR
  2
AmdtMenuStateMgr
  3
McadcomServices
 90
        0
280
     0
281
     0
  0
CLASS
  1
AMDTMCOMMENUSTATE
  2
AmdtMcomMenuState
  3
McadcomServices
 90
        0
280
     0
281
     0
  0
CLASS
  1
AMIMASTER
  2
AmiMaster
  3
AmiServices
 90
        0
280
     0
281
     0
  0
CLASS
  1
ASAPP
  2
AcAsAppObject
  3
AutoSurfServices
 90
        0
280
     0
281
     0
  0
CLASS
  1
IM_STATIC_MAN
  2
AcImStaticVarManager
  3
AcMeServices
 90
        0
280
     0
281
     0
  0
CLASS
  1
ACIMSTRSYSVAR
  2
AcImStrSysVar
  3
AcMeServices
 90
        0
280
     0
281
     0
  0
CLASS
  1
ACIMDBLSTATICVAR
  2
AcImDblStaticVar
  3
AcMeServices
 90
        0
280
     0
281
     0
  0
CLASS
  1
ACIMSTRSTATICVAR
  2
AcImStrStaticVar
  3
AcMeServices
 90
        0
280
     0
281
     0
  0
CLASS
  1
ACIMINTSTATICVAR
  2
AcImIntStaticVar
  3
AcMeServices
 90
        0
280
     0
281
     0
  0
CLASS
  1
ACASGREFMASTER
  2
AcAsGrefMaster
  3
AutoSurfResolverServices
 90
        0
280
     0
281
     0
  0
CLASS
  1
ACADGREFMODULE
  2
AcAdGrefModule
  3
AdGrefServices
 90
        0
280
     0
281
     0
  0
CLASS
  1
AMDTMAPISURFMOUDULE
  2
AmdtMApiSurfModule
  3
MApiSurfServices
 90
        0
280
     0
281
     0
  0
CLASS
  1
MAPIAMMOUDLE
  2
MApiAmModule
  3
MApiAmServices
 90
        0
280
     0
281
     0
  0
CLASS
  1
AMDTADMENUSTATE
  2
AmdtAdMenuState
  3
DesignerServices
 90
        0
280
     0
281
     0
  0
CLASS
  1
ADAPPL
  2
AcAdAppl
  3
DesignerServices
 90
        0
280
     0
281
     0
  0
CLASS
  1
DEPMGR
  2
AcAdDepMgr
  3
DesignerServices
 90
        0
280
     0
281
     0
  0
CLASS
  1
PARAMMGR
  2
AcAdParamMgr
  3
DesignerServices
 90
        0
280
     0
281
     0
  0
CLASS
  1
PARAMSCOPE
  2
AcAdParamScope
  3
DesignerServices
 90
        0
280
     0
281
     0
  0
CLASS
  1
NAMEDAPPL
  2
AcAdNamedAppl
  3
DesignerServices
 90
        0
280
     0
281
     0
  0
CLASS
  1
AMDTDMMENUSTATE
  2
AmdtDmMenuState
  3
AcMechDwgViewMgmt
 90
        0
280
     0
281
     0
  0
CLASS
  1
MAPIADMODULE
  2
MApiAdModule
  3
MApiAdServices
 90
        0
280
     0
281
     0
  0
CLASS
  1
AMDTAMMENUSTATE
  2
AmdtAmMenuState
  3
DesignerAssemblies
 90
        0
280
     0
281
     0
  0
CLASS
  1
ACAMPROJECT
  2
AcAmProject
  3
DesignerAssemblies
 90
        0
280
     0
281
     0
  0
CLASS
  1
ACAMGRCOMPDEF
  2
AcAmGrCompDef
  3
DesignerAssemblies
 90
        0
280
     0
281
     0
  0
CLASS
  1
ACCMCONTEXT
  2
AcCmContext
  3
DesignerAssemblies
 90
        0
280
     0
281
     0
  0
CLASS
  1
ACAMCOMPDEF
  2
AcAmCompDef
  3
DesignerAssemblies
 90
        0
280
     0
281
     0
  0
CLASS
  1
ACAMCOMPDEFMGR
  2
AcAmCompDefMgr
  3
DesignerAssemblies
 90
        0
280
     0
281
     0
  0
CLASS
  1
AMCONTEXTMGR
  2
AcAmContextMgr
  3
DesignerAssemblies
 90
        0
280
     0
281
     0
  0
CLASS
  1
ACAMCONTEXTMODELER
  2
AcAmContextModeler
  3
DesignerAssemblies
 90
        0
280
     0
281
     0
  0
CLASS
  1
ACMDATADICTIONARY
  2
AcmDataDictionary
  3
"AcmSymBB|Product Description: AutoCAD Mechanical 2000|Company: Autodesk"
 90
        0
280
     0
281
     0
  0
CLASS
  1
ACMDATAENTRYBLOCK
  2
AcmDataEntryBlock
  3
"AcmSymBB|Product Description: AutoCAD Mechanical 2000|Company: Autodesk"
 90
        0
280
     0
281
     0
  0
CLASS
  1
CATALOGSTATE
  2
AcAmCatalogState
  3
DesignerAssemblies
 90
        0
280
     0
281
     0
  0
CLASS
  1
ACAMGRCOMPDEFSET
  2
AcAmGrCompDefSet
  3
DesignerAssemblies
 90
        0
280
     0
281
     0
  0
CLASS
  1
AMDTBROWSERDBTAB
  2
AmdtBrowserDbTab
  3
McadcomServices
 90
        0
280
     0
281
     0
  0
CLASS
  1
CBROWSERAPPOBJECT
  2
CBrowserAppObject
  3
McadcomServices
 90
        0
280
     0
281
     0
  0
CLASS
  1
DM_PLACEHOLDER
  2
AcDmSelsetPlaceholder
  3
AcMechDwgViewMgmt
 90
        0
280
     0
281
     0
  0
CLASS
  1
AMGOBJPROPCFG
  2
AmgObjPropCfg
  3
"AmgLay|Product Description: AutoCAD Mechanical 2000|Company: Autodesk"
 90
        1
280
     0
281
     0
  0
CLASS
  1
ACAMGFILTERDAT
  2
AcAmgFilterDat
  3
"AcadM|Product Description: AutoCAD Mechanical 2000|Company: Autodesk"
 90
        0
280
     0
281
     0
  0
CLASS
  1
LAYER_INDEX
  2
AcDbLayerIndex
  3
AutoCAD 2000
 90
        0
280
     0
281
     0
  0
CLASS
  1
IDBUFFER
  2
AcDbIdBuffer
  3
AutoCAD 2000
 90
        0
280
     0
281
     0
  0
CLASS
  1
DICTIONARYVAR
  2
AcDbDictionaryVar
  3
AutoCAD 2000
 90
        0
280
     0
281
     0
  0
CLASS
  1
AMDTFORMULAUPDATEDISPATCHER
  2
AmdtFormulaUpdateDispatcher
  3
AcMeServices
 90
        0
280
     0
281
     0
  0
ENDSEC
  0
SECTION
  2
TABLES
  0
TABLE
  2
VPORT
  5
629
330
0
100
AcDbSymbolTable
 70
     4
  0
VPORT
  5
8CF
330
629
100
AcDbSymbolTableRecord
100
AcDbViewportTableRecord
  2
*Active
 70
     0
 10
0.0
 20
0.0
 11
1.0
 21
1.0
 12
0.0
 22
0.0
 13
0.0
 23
0.0
 14
10.0
 24
10.0
 15
10.0
 25
10.0
 16
0.0
 26
0.0
 36
1.0
 17
206.235230327868
 27
99.816284767371
 37
0.0
 40
217.040964683033
 41
1.489721886336154
 42
50.0
 43
0.0
 44
0.0
 50
0.0
 51
0.0
 71
     0
 72
   500
 73
     1
 74
     0
 75
     0
 76
     0
 77
     0
 78
     2
281
     0
 65
     0
110
0.0
120
0.0
130
0.0
111
1.0
121
0.0
131
0.0
112
0.0
122
1.0
132
0.0
 79
     0
146
0.0
  0
ENDTAB
  0
TABLE
  2
LTYPE
  5
626
330
0
100
AcDbSymbolTable
 70
    18
  0
LTYPE
  5
634
330
626
100
AcDbSymbolTableRecord
100
AcDbLinetypeTableRecord
  2
ByBlock
 70
     0
  3

 72
    65
 73
     0
 40
0.0
  0
LTYPE
  5
635
330
626
100
AcDbSymbolTableRecord
100
AcDbLinetypeTableRecord
  2
ByLayer
 70
     0
  3

 72
    65
 73
     0
 40
0.0
  0
LTYPE
  5
636
330
626
100
AcDbSymbolTableRecord
100
AcDbLinetypeTableRecord
  2
CONTINUOUS
 70
     0
  3
Solid Line
 72
    65
 73
     0
 40
0.0
  0
LTYPE
  5
644
330
626
100
AcDbSymbolTableRecord
100
AcDbLinetypeTableRecord
  2
CENTER
 70
     0
  3
____ _ ____ _ ____ _ ____ _ ____ _ ____ _ ____
 72
    65
 73
     4
 40
2.0
 49
1.25
 74
     0
 49
-0.25
 74
     0
 49
0.25
 74
     0
 49
-0.25
 74
     0
  0
LTYPE
  5
645
330
626
100
AcDbSymbolTableRecord
100
AcDbLinetypeTableRecord
  2
HIDDEN
 70
     0
  3
_ _ _ _ _ _ _ _ _ _ _ _ _ _ _ _ _ _ _ _ _ _ _
 72
    65
 73
     2
 40
0.375
 49
0.25
 74
     0
 49
-0.125
 74
     0
  0
LTYPE
  5
739
330
626
100
AcDbSymbolTableRecord
100
AcDbLinetypeTableRecord
  2
PHANTOM2
 70
     0
  3
Phantom (.5x) ___ _ _ ___ _ _ ___ _ _ ___ _ _
 72
    65
 73
     6
 40
1.25
 49
0.625
 74
     0
 49
-0.125
 74
     0
 49
0.125
 74
     0
 49
-0.125
 74
     0
 49
0.125
 74
     0
 49
-0.125
 74
     0
  0
LTYPE
  5
79B
330
626
100
AcDbSymbolTableRecord
100
AcDbLinetypeTableRecord
  2
ASULTYPE
 70
     0
  3
実線
 72
    65
 73
     2
 40
3.0
 49
2.5
 74
     0
 49
0.5
 74
     0
  0
LTYPE
  5
79C
330
626
100
AcDbSymbolTableRecord
100
AcDbLinetypeTableRecord
  2
ASVLTYPE
 70
     0
  3
__ __ __ __ __ __ __ __ __ __ __ __ __ __ __ __ __ __ __ __ __
 72
    65
 73
     2
 40
0.75
 49
0.5
 74
     0
 49
-0.25
 74
     0
  0
LTYPE
  5
7DD
330
626
100
AcDbSymbolTableRecord
100
AcDbLinetypeTableRecord
  2
AM_ISO02W050
 70
     0
  3
__ __ __ __ __ __ __ __ __ __ __ __ __ __ __
 72
    65
 73
     2
 40
7.5
 49
6.0
 74
     0
 49
-1.5
 74
     0
  0
LTYPE
  5
7DE
330
626
100
AcDbSymbolTableRecord
100
AcDbLinetypeTableRecord
  2
AM_ISO08W050
 70
     0
  3
____ . ____ . ____ . ____ . ____ . ____ . ____
 72
    65
 73
     4
 40
18.0
 49
12.0
 74
     0
 49
-1.5
 74
     0
 49
3.0
 74
     0
 49
-1.5
 74
     0
  0
LTYPE
  5
7DF
330
626
100
AcDbSymbolTableRecord
100
AcDbLinetypeTableRecord
  2
AM_ISO09W050
 70
     0
  3
_____ . . _____ . . _____ . . ____ .. ____
 72
    65
 73
     6
 40
22.5
 49
12.0
 74
     0
 49
-1.5
 74
     0
 49
3.0
 74
     0
 49
-1.5
 74
     0
 49
3.0
 74
     0
 49
-1.5
 74
     0
  0
LTYPE
  5
7E0
330
626
100
AcDbSymbolTableRecord
100
AcDbLinetypeTableRecord
  2
Amconstr
 70
     0
  3
_______________________
 72
    65
 73
     2
 40
9999.0
 49
9999.0
 74
     0
 49
0.0
 74
     0
  0
LTYPE
  5
7E1
330
626
100
AcDbSymbolTableRecord
100
AcDbLinetypeTableRecord
  2
AM_ISO08W050x2
 70
     0
  3
__ . __ . __ . __ . __ . __
 72
    65
 73
     4
 40
9.0
 49
6.0
 74
     0
 49
-0.75
 74
     0
 49
1.5
 74
     0
 49
-0.75
 74
     0
  0
LTYPE
  5
7E2
330
626
100
AcDbSymbolTableRecord
100
AcDbLinetypeTableRecord
  2
AM_ISO02W050x2
 70
     0
  3
 _ _ _ _ _ _ _ _ _ _ _ _
 72
    65
 73
     2
 40
3.75
 49
3.0
 74
     0
 49
-0.75
 74
     0
  0
LTYPE
  5
7E5
330
626
100
AcDbSymbolTableRecord
100
AcDbLinetypeTableRecord
  2
Amzigzag
 70
     0
  3
/\/-/\/-/\/-/\/-/\/-/\/
 72
    65
 73
     2
 40
11.00009999999999
 49
0.0001
 74
     4
 75
   135
340
7E4
 46
0.04
 50
0.0
 44
0.0
 45
0.0
 49
-11.0
 74
     0
  0
LTYPE
  5
7E6
330
626
100
AcDbSymbolTableRecord
100
AcDbLinetypeTableRecord
  2
CENTER2
 70
     0
  3
Center (.5x) ___ _ ___ _ ___ _ ___ _ ___ _ ___
 72
    65
 73
     4
 40
1.125
 49
0.75
 74
     0
 49
-0.125
 74
     0
 49
0.125
 74
     0
 49
-0.125
 74
     0
  0
LTYPE
  5
7E7
330
626
100
AcDbSymbolTableRecord
100
AcDbLinetypeTableRecord
  2
HIDDEN2
 70
     0
  3
Hidden (.5x) _ _ _ _ _ _ _ _ _ _ _ _ _ _ _ _ _
 72
    65
 73
     2
 40
0.1875
 49
0.125
 74
     0
 49
-0.0625
 74
     0
  0
LTYPE
  5
7E8
330
626
100
AcDbSymbolTableRecord
100
AcDbLinetypeTableRecord
  2
Amzigzag2
 70
     0
  3
/\/-/\/-/\/-/\/-/\/-/\/
 72
    65
 73
     2
 40
0.4401
 49
0.0001
 74
     4
 75
   135
340
7E4
 46
0.0016
 50
0.0
 44
0.0
 45
0.0
 49
-0.4400000000000001
 74
     0
  0
LTYPE
  5
818
330
626
100
AcDbSymbolTableRecord
100
AcDbLinetypeTableRecord
  2
TENSEN
 70
     0
  3

 72
    65
 73
     2
 40
3.0
 49
2.0
 74
     0
 49
-1.0
 74
     0
  0
LTYPE
  5
819
330
626
100
AcDbSymbolTableRecord
100
AcDbLinetypeTableRecord
  2
ITTEN
 70
     0
  3

 72
    65
 73
     4
 40
5.5
 49
2.5
 74
     0
 49
-1.0
 74
     0
 49
1.0
 74
     0
 49
-1.0
 74
     0
  0
ENDTAB
  0
TABLE
  2
LAYER
  5
623
330
0
100
AcDbSymbolTable
 70
     6
  0
LAYER
  5
631
330
623
100
AcDbSymbolTableRecord
100
AcDbLayerTableRecord
  2
0
 70
     0
 62
     7
  6
CONTINUOUS
370
    -3
390
630
  0
LAYER
  5
646
330
623
100
AcDbSymbolTableRecord
100
AcDbLayerTableRecord
  2
1
 70
     0
 62
     1
  6
CENTER
370
    -3
390
630
  0
LAYER
  5
647
330
623
100
AcDbSymbolTableRecord
100
AcDbLayerTableRecord
  2
2
 70
     0
 62
     5
  6
HIDDEN
370
    -3
390
630
  0
LAYER
  5
648
330
623
100
AcDbSymbolTableRecord
100
AcDbLayerTableRecord
  2
ITTEN
 70
     0
 62
     1
  6
CENTER
370
    -3
390
630
  0
LAYER
  5
81A
330
623
100
AcDbSymbolTableRecord
100
AcDbLayerTableRecord
  2
3
 70
     0
 62
     5
  6
CONTINUOUS
370
    50
390
630
  0
LAYER
  5
81B
330
623
100
AcDbSymbolTableRecord
100
AcDbLayerTableRecord
  2
DEFPOINTS
 70
     0
 62
     7
  6
CONTINUOUS
290
     0
370
    -3
390
630
  0
ENDTAB
  0
TABLE
  2
STYLE
  5
624
330
0
100
AcDbSymbolTable
 70
     3
  0
STYLE
  5
632
330
624
100
AcDbSymbolTableRecord
100
AcDbTextStyleTableRecord
  2
STANDARD
 70
     0
 40
0.0
 41
1.0
 50
0.0
 71
     0
 42
5.0
  3
TXT
  4
BIGFONT
  0
STYLE
  5
7E4
330
624
100
AcDbSymbolTableRecord
100
AcDbTextStyleTableRecord
  2

 70
     1
 40
0.0
 41
1.0
 50
0.0
 71
     0
 42
5.0
  3
ltypeshp.shx
  4

  0
STYLE
  5
81C
330
624
100
AcDbSymbolTableRecord
100
AcDbTextStyleTableRecord
  2
BIGFONT
 70
     0
 40
3.0
 41
0.8
 50
0.0
 71
     0
 42
3.0
  3
txt.shx
  4
bigfont.shx
  0
ENDTAB
  0
TABLE
  2
VIEW
  5
627
330
0
100
AcDbSymbolTable
 70
     1
  0
VIEW
  5
649
330
627
100
AcDbSymbolTableRecord
100
AcDbViewTableRecord
  2
ALL
 70
     0
 40
270.0
 10
220.9915966386553
 20
135.0
 41
0.0
 11
0.0
 21
0.0
 31
1.0
 12
0.0
 22
0.0
 32
0.0
 42
0.0
 43
0.0
 44
0.0
 50
0.0
 71
     0
281
     0
 72
     0
  0
ENDTAB
  0
TABLE
  2
UCS
  5
628
330
0
100
AcDbSymbolTable
 70
     0
  0
ENDTAB
  0
TABLE
  2
APPID
  5
62A
330
0
100
AcDbSymbolTable
 70
    12
  0
APPID
  5
633
330
62A
100
AcDbSymbolTableRecord
100
AcDbRegAppTableRecord
  2
ACAD
 70
     0
  0
APPID
  5
718
330
62A
100
AcDbSymbolTableRecord
100
AcDbRegAppTableRecord
  2
GENIUS_GENDIM_13
 70
     0
  0
APPID
  5
719
330
62A
100
AcDbSymbolTableRecord
100
AcDbRegAppTableRecord
  2
GENIUS_GENDTOL_13
 70
     0
  0
APPID
  5
71A
330
62A
100
AcDbSymbolTableRecord
100
AcDbRegAppTableRecord
  2
GENIUS_GE3DTOL_13
 70
     0
  0
APPID
  5
71C
330
62A
100
AcDbSymbolTableRecord
100
AcDbRegAppTableRecord
  2
MCAD_NO_VIS
 70
     0
  0
APPID
  5
71D
330
62A
100
AcDbSymbolTableRecord
100
AcDbRegAppTableRecord
  2
ACAD_TEMP_GRAPHIC
 70
     0
  0
APPID
  5
74E
330
62A
100
AcDbSymbolTableRecord
100
AcDbRegAppTableRecord
  2
AD_DRAW
 70
     0
  0
APPID
  5
751
330
62A
100
AcDbSymbolTableRecord
100
AcDbRegAppTableRecord
  2
ACATTRIBSERVICES
 70
     0
  0
APPID
  5
79D
330
62A
100
AcDbSymbolTableRecord
100
AcDbRegAppTableRecord
  2
ASURF_PCURVE_APPNAME
 70
     0
  0
APPID
  5
7CC
330
62A
100
AcDbSymbolTableRecord
100
AcDbRegAppTableRecord
  2
DESIGNERASSEMBLIES
 70
     0
  0
APPID
  5
7D4
330
62A
100
AcDbSymbolTableRecord
100
AcDbRegAppTableRecord
  2
ACADM_DIM_EDIT
 70
     0
  0
APPID
  5
7D5
330
62A
100
AcDbSymbolTableRecord
100
AcDbRegAppTableRecord
  2
AMDT_DM_ADJ
 70
     0
  0
ENDTAB
  0
TABLE
  2
DIMSTYLE
  5
62B
330
0
100
AcDbSymbolTable
 70
     1
100
AcDbDimStyleTable
 71
     0
  0
DIMSTYLE
105
64A
330
62B
100
AcDbSymbolTableRecord
100
AcDbDimStyleTableRecord
  2
STANDARD
 70
     0
279
     2
340
632
  0
ENDTAB
  0
TABLE
  2
BLOCK_RECORD
  5
622
330
0
100
AcDbSymbolTable
 70
     9
  0
BLOCK_RECORD
  5
63F
102
{ACAD_XDICTIONARY
360
7F1
102
}
330
622
100
AcDbSymbolTableRecord
100
AcDbBlockTableRecord
  2
*Model_Space
340
642
  0
BLOCK_RECORD
  5
63B
330
622
100
AcDbSymbolTableRecord
100
AcDbBlockTableRecord
  2
*Paper_Space
340
63E
  0
BLOCK_RECORD
  5
64D
330
622
100
AcDbSymbolTableRecord
100
AcDbBlockTableRecord
  2
$MODEL_SPACE
340
0
  0
BLOCK_RECORD
  5
650
330
622
100
AcDbSymbolTableRecord
100
AcDbBlockTableRecord
  2
$PAPER_SPACE
340
0
  0
BLOCK_RECORD
  5
653
330
622
100
AcDbSymbolTableRecord
100
AcDbBlockTableRecord
  2
BATU
340
0
102
{BLKREFS
331
664
102
}
  0
BLOCK_RECORD
  5
7C3
330
622
100
AcDbSymbolTableRecord
100
AcDbBlockTableRecord
  2
*U3
340
0
  0
BLOCK_RECORD
  5
7FE
330
622
100
AcDbSymbolTableRecord
100
AcDbBlockTableRecord
  2
*D4
340
0
  0
BLOCK_RECORD
  5
80B
330
622
100
AcDbSymbolTableRecord
100
AcDbBlockTableRecord
  2
*D5
340
0
  0
BLOCK_RECORD
  5
88A
330
622
100
AcDbSymbolTableRecord
100
AcDbBlockTableRecord
  2
*D7
340
0
  0
BLOCK_RECORD
  5
897
330
622
100
AcDbSymbolTableRecord
100
AcDbBlockTableRecord
  2
*D8
340
0
  0
ENDTAB
  0
ENDSEC
  0
SECTION
  2
BLOCKS
  0
BLOCK
  5
640
330
63F
100
AcDbEntity
  8
0
100
AcDbBlockBegin
  2
*Model_Space
 70
     0
 10
0.0
 20
0.0
 30
0.0
  3
*Model_Space
  1

  0
ENDBLK
  5
641
330
63F
100
AcDbEntity
  8
0
100
AcDbBlockEnd
  0
BLOCK
  5
63C
330
63B
100
AcDbEntity
 67
     1
  8
0
100
AcDbBlockBegin
  2
*Paper_Space
 70
     0
 10
0.0
 20
0.0
 30
0.0
  3
*Paper_Space
  1

  0
ENDBLK
  5
63D
330
63B
100
AcDbEntity
 67
     1
  8
0
100
AcDbBlockEnd
  0
BLOCK
  5
64E
330
64D
100
AcDbEntity
  8
0
100
AcDbBlockBegin
  2
$MODEL_SPACE
 70
     0
 10
0.0
 20
0.0
 30
0.0
  3
$MODEL_SPACE
  1

  0
ENDBLK
  5
64F
330
64D
100
AcDbEntity
  8
0
100
AcDbBlockEnd
  0
BLOCK
  5
651
330
650
100
AcDbEntity
  8
0
100
AcDbBlockBegin
  2
$PAPER_SPACE
 70
     0
 10
0.0
 20
0.0
 30
0.0
  3
$PAPER_SPACE
  1

  0
ENDBLK
  5
652
330
650
100
AcDbEntity
  8
0
100
AcDbBlockEnd
  0
BLOCK
  5
654
330
653
100
AcDbEntity
  8
0
100
AcDbBlockBegin
  2
BATU
 70
     0
 10
0.0
 20
0.0
 30
0.0
  3
BATU
  1

  0
LINE
  5
655
330
653
100
AcDbEntity
  8
ITTEN
100
AcDbLine
 10
0.5
 20
0.0
 30
0.0
 11
-0.5
 21
0.0
 31
0.0
  0
LINE
  5
656
330
653
100
AcDbEntity
  8
ITTEN
100
AcDbLine
 10
0.0
 20
0.5
 30
0.0
 11
0.0
 21
-0.5
 31
0.0
  0
ENDBLK
  5
657
330
653
100
AcDbEntity
  8
0
100
AcDbBlockEnd
  0
BLOCK
  5
7C4
330
7C3
100
AcDbEntity
  8
0
100
AcDbBlockBegin
  2
*U3
 70
     1
 10
0.0
 20
0.0
 30
0.0
  3
*U3
  1

  0
ENDBLK
  5
7C5
330
7C3
100
AcDbEntity
  8
0
100
AcDbBlockEnd
  0
BLOCK
  5
809
330
7FE
100
AcDbEntity
  8
0
100
AcDbBlockBegin
  2
*D4
 70
     1
 10
0.0
 20
0.0
 30
0.0
  3
*D4
  1

  0
LINE
  5
7FF
330
7FE
100
AcDbEntity
  8
0
 62
     0
370
    -2
100
AcDbLine
 10
142.6000004763102
 20
119.6415184299373
 30
0.0
 11
161.999440033681
 21
119.6415184299373
 31
0.0
  0
LINE
  5
800
330
7FE
100
AcDbEntity
  8
0
 62
     0
370
    -2
100
AcDbLine
 10
142.6000004763102
 20
101.6415184299373
 30
0.0
 11
161.999440033681
 21
101.6415184299373
 31
0.0
  0
LINE
  5
801
330
7FE
100
AcDbEntity
  8
0
 62
     0
370
    -2
100
AcDbLine
 10
161.7994400336811
 20
117.6415184299373
 30
0.0
 11
161.7994400336811
 21
113.105699187434
 31
0.0
  0
LINE
  5
802
330
7FE
100
AcDbEntity
  8
0
 62
     0
370
    -2
100
AcDbLine
 10
161.7994400336811
 20
103.6415184299373
 30
0.0
 11
161.7994400336811
 21
109.805699187434
 31
0.0
  0
SOLID
  5
803
330
7FE
100
AcDbEntity
  8
0
 62
     0
100
AcDbTrace
 10
161.4661067003477
 20
117.6415184299373
 30
0.0
 11
162.1327733670144
 21
117.6415184299373
 31
0.0
 12
161.7994400336811
 22
119.6415184299373
 32
0.0
 13
161.7994400336811
 23
119.6415184299373
 33
0.0
  0
SOLID
  5
804
330
7FE
100
AcDbEntity
  8
0
 62
     0
100
AcDbTrace
 10
161.4661067003477
 20
103.6415184299373
 30
0.0
 11
162.1327733670144
 21
103.6415184299373
 31
0.0
 12
161.7994400336811
 22
101.6415184299373
 32
0.0
 13
161.7994400336811
 23
101.6415184299373
 33
0.0
  0
MTEXT
  5
805
330
7FE
100
AcDbEntity
  8
0
 62
     0
100
AcDbMText
 10
161.799440033681
 20
111.455699187434
 30
0.0
 40
3.5
 41
0.0
 71
     5
 72
     1
  1
\A1;18
 11
0.0000000000000001
 21
1.0
 31
0.0
 73
     1
 44
1.0
  0
POINT
  5
806
330
7FE
100
AcDbEntity
  8
DEFPOINTS
 62
     0
100
AcDbPoint
 10
142.5000004763102
 20
119.6415184299373
 30
0.0
  0
POINT
  5
807
330
7FE
100
AcDbEntity
  8
DEFPOINTS
 62
     0
100
AcDbPoint
 10
142.5000004763102
 20
101.6415184299373
 30
0.0
  0
POINT
  5
808
330
7FE
100
AcDbEntity
  8
DEFPOINTS
 62
     0
100
AcDbPoint
 10
161.7994400336811
 20
101.6415184299373
 30
0.0
  0
ENDBLK
  5
80A
330
7FE
100
AcDbEntity
  8
0
100
AcDbBlockEnd
  0
BLOCK
  5
816
330
80B
100
AcDbEntity
  8
0
100
AcDbBlockBegin
  2
*D5
 70
     1
 10
0.0
 20
0.0
 30
0.0
  3
*D5
  1

  0
LINE
  5
80C
330
80B
100
AcDbEntity
  8
0
 62
     0
370
    -2
100
AcDbLine
 10
216.4564800344925
 20
136.1415184299375
 30
0.0
 11
175.8674875846709
 21
136.1415184299375
 31
0.0
  0
LINE
  5
80D
330
80B
100
AcDbEntity
  8
0
 62
     0
370
    -2
100
AcDbLine
 10
216.4564800344925
 20
85.1415184299374
 30
0.0
 11
175.8674875846709
 21
85.1415184299374
 31
0.0
  0
LINE
  5
80E
330
80B
100
AcDbEntity
  8
0
 62
     0
370
    -2
100
AcDbLine
 10
176.0674875846709
 20
134.1415184299375
 30
0.0
 11
176.0674875846709
 21
114.7929207848577
 31
0.0
  0
LINE
  5
80F
330
80B
100
AcDbEntity
  8
0
 62
     0
370
    -2
100
AcDbLine
 10
176.0674875846709
 20
87.14151842993741
 30
0.0
 11
176.0674875846709
 21
109.2929207848577
 31
0.0
  0
SOLID
  5
810
330
80B
100
AcDbEntity
  8
0
 62
     0
100
AcDbTrace
 10
175.7341542513376
 20
134.1415184299375
 30
0.0
 11
176.4008209180043
 21
134.1415184299375
 31
0.0
 12
176.0674875846709
 22
136.1415184299375
 32
0.0
 13
176.0674875846709
 23
136.1415184299375
 33
0.0
  0
SOLID
  5
811
330
80B
100
AcDbEntity
  8
0
 62
     0
100
AcDbTrace
 10
175.7341542513376
 20
87.14151842993741
 30
0.0
 11
176.4008209180043
 21
87.14151842993741
 31
0.0
 12
176.0674875846709
 22
85.1415184299374
 32
0.0
 13
176.0674875846709
 23
85.1415184299374
 33
0.0
  0
MTEXT
  5
812
330
80B
100
AcDbEntity
  8
0
 62
     0
100
AcDbMText
 10
176.0674875846709
 20
112.0429207848578
 30
0.0
 40
3.5
 41
0.0
 71
     5
 72
     1
  1
\A1;%%C50
 11
0.0000000000000001
 21
1.0
 31
0.0
 73
     1
 44
1.0
  0
POINT
  5
813
330
80B
100
AcDbEntity
  8
DEFPOINTS
 62
     0
100
AcDbPoint
 10
216.5564800344925
 20
136.1415184299375
 30
0.0
  0
POINT
  5
814
330
80B
100
AcDbEntity
  8
DEFPOINTS
 62
     0
100
AcDbPoint
 10
216.5564800344925
 20
85.1415184299374
 30
0.0
  0
POINT
  5
815
330
80B
100
AcDbEntity
  8
DEFPOINTS
 62
     0
100
AcDbPoint
 10
176.0674875846709
 20
85.1415184299374
 30
0.0
  0
ENDBLK
  5
817
330
80B
100
AcDbEntity
  8
0
100
AcDbBlockEnd
  0
BLOCK
  5
895
330
88A
100
AcDbEntity
  8
0
100
AcDbBlockBegin
  2
*D7
 70
     1
 10
0.0
 20
0.0
 30
0.0
  3
*D7
  1

  0
LINE
  5
8AE
330
88A
100
AcDbEntity
  8
0
 62
     0
370
    -2
100
AcDbLine
 10
205.2328206729593
 20
111.6479239549078
 30
0.0
 11
164.6438282231377
 21
111.6479239549078
 31
0.0
  0
LINE
  5
8AF
330
88A
100
AcDbEntity
  8
0
 62
     0
370
    -2
100
AcDbLine
 10
205.2328206729593
 20
60.64792395490771
 30
0.0
 11
164.6438282231377
 21
60.64792395490772
 31
0.0
  0
LINE
  5
8B0
330
88A
100
AcDbEntity
  8
0
 62
     0
370
    -2
100
AcDbLine
 10
164.8438282231377
 20
109.6479239549078
 30
0.0
 11
164.8438282231377
 21
90.14932630982807
 31
0.0
  0
LINE
  5
8B1
330
88A
100
AcDbEntity
  8
0
 62
     0
370
    -2
100
AcDbLine
 10
164.8438282231377
 20
62.64792395490772
 30
0.0
 11
164.8438282231377
 21
84.94932630982807
 31
0.0
  0
MTEXT
  5
8B2
330
88A
100
AcDbEntity
  8
0
 62
     0
100
AcDbMText
 10
164.8438282231377
 20
87.54932630982811
 30
0.0
 40
2.0
 41
0.0
 71
     5
 72
     1
  1
\A1;%%C50
 11
0.0000000000000001
 21
1.0
 31
0.0
 73
     1
 44
1.0
  0
SOLID
  5
8B3
330
88A
100
AcDbEntity
  8
0
 62
     0
100
AcDbTrace
 10
164.5104948898044
 20
109.6479239549078
 30
0.0
 11
165.1771615564711
 21
109.6479239549078
 31
0.0
 12
164.8438282231377
 22
111.6479239549078
 32
0.0
 13
164.8438282231377
 23
111.6479239549078
 33
0.0
  0
SOLID
  5
8B4
330
88A
100
AcDbEntity
  8
0
 62
     0
100
AcDbTrace
 10
164.5104948898044
 20
62.64792395490772
 30
0.0
 11
165.1771615564711
 21
62.64792395490772
 31
0.0
 12
164.8438282231377
 22
60.64792395490772
 32
0.0
 13
164.8438282231377
 23
60.64792395490772
 33
0.0
  0
POINT
  5
8B5
330
88A
100
AcDbEntity
  8
DEFPOINTS
 62
     0
100
AcDbPoint
 10
205.3328206729593
 20
111.6479239549078
 30
0.0
  0
POINT
  5
8B6
330
88A
100
AcDbEntity
  8
DEFPOINTS
 62
     0
100
AcDbPoint
 10
205.3328206729593
 20
60.64792395490771
 30
0.0
  0
POINT
  5
8B7
330
88A
100
AcDbEntity
  8
DEFPOINTS
 62
     0
100
AcDbPoint
 10
164.8438282231377
 20
60.64792395490772
 30
0.0
  0
ENDBLK
  5
896
330
88A
100
AcDbEntity
  8
0
100
AcDbBlockEnd
  0
BLOCK
  5
8A2
330
897
100
AcDbEntity
  8
0
100
AcDbBlockBegin
  2
*D8
 70
     1
 10
0.0
 20
0.0
 30
0.0
  3
*D8
  1

  0
LINE
  5
8C2
330
897
100
AcDbEntity
  8
0
 62
     0
370
    -2
100
AcDbLine
 10
131.376341114777
 20
95.1479239549077
 30
0.0
 11
150.7757806721478
 21
95.1479239549077
 31
0.0
  0
LINE
  5
8C3
330
897
100
AcDbEntity
  8
0
 62
     0
370
    -2
100
AcDbLine
 10
131.376341114777
 20
77.1479239549077
 30
0.0
 11
150.7757806721478
 21
77.1479239549077
 31
0.0
  0
LINE
  5
8C4
330
897
100
AcDbEntity
  8
0
 62
     0
370
    -2
100
AcDbLine
 10
150.5757806721478
 20
93.14792395490769
 30
0.0
 11
150.5757806721478
 21
88.39543804573766
 31
0.0
  0
LINE
  5
8C5
330
897
100
AcDbEntity
  8
0
 62
     0
370
    -2
100
AcDbLine
 10
150.5757806721478
 20
79.1479239549077
 30
0.0
 11
150.5757806721478
 21
85.52877137907099
 31
0.0
  0
MTEXT
  5
8C6
330
897
100
AcDbEntity
  8
0
 62
     0
100
AcDbMText
 10
150.5757806721478
 20
86.96210471240434
 30
0.0
 40
2.0
 41
0.0
 71
     5
 72
     1
  1
\A1;18
 11
0.0000000000000001
 21
1.0
 31
0.0
 73
     1
 44
1.0
  0
SOLID
  5
8C7
330
897
100
AcDbEntity
  8
0
 62
     0
100
AcDbTrace
 10
150.2424473388145
 20
93.14792395490769
 30
0.0
 11
150.9091140054812
 21
93.14792395490769
 31
0.0
 12
150.5757806721478
 22
95.1479239549077
 32
0.0
 13
150.5757806721478
 23
95.1479239549077
 33
0.0
  0
SOLID
  5
8C8
330
897
100
AcDbEntity
  8
0
 62
     0
100
AcDbTrace
 10
150.2424473388145
 20
79.1479239549077
 30
0.0
 11
150.9091140054812
 21
79.1479239549077
 31
0.0
 12
150.5757806721478
 22
77.1479239549077
 32
0.0
 13
150.5757806721478
 23
77.1479239549077
 33
0.0
  0
POINT
  5
8C9
330
897
100
AcDbEntity
  8
DEFPOINTS
 62
     0
100
AcDbPoint
 10
131.276341114777
 20
95.1479239549077
 30
0.0
  0
POINT
  5
8CA
330
897
100
AcDbEntity
  8
DEFPOINTS
 62
     0
100
AcDbPoint
 10
131.276341114777
 20
77.1479239549077
 30
0.0
  0
POINT
  5
8CB
330
897
100
AcDbEntity
  8
DEFPOINTS
 62
     0
100
AcDbPoint
 10
150.5757806721478
 20
77.1479239549077
 30
0.0
  0
ENDBLK
  5
8A3
330
897
100
AcDbEntity
  8
0
100
AcDbBlockEnd
  0
ENDSEC
  0
SECTION
  2
ENTITIES
  0
LINE
  5
856
330
63F
100
AcDbEntity
  8
2
100
AcDbLine
 10
132.4078732550155
 20
68.69412745120623
 30
0.0
 11
126.2763411147758
 21
67.14792395490777
 31
0.0
  0
LINE
  5
857
330
63F
100
AcDbEntity
  8
2
100
AcDbLine
 10
126.2763411147758
 20
71.54882981389346
 30
0.0
 11
132.4078732550155
 21
69.9975110347373
 31
0.0
  0
LINE
  5
858
330
63F
100
AcDbEntity
  8
2
100
AcDbLine
 10
132.4078732550155
 20
103.6017204586092
 30
0.0
 11
126.2763411147758
 21
105.1479239549076
 31
0.0
  0
LINE
  5
859
330
63F
100
AcDbEntity
  8
2
100
AcDbLine
 10
126.2763411147758
 20
100.7470180959219
 30
0.0
 11
132.4078732550155
 21
102.2983368750781
 31
0.0
  0
LINE
  5
85A
330
63F
100
AcDbEntity
  8
2
100
AcDbLine
 10
131.276341114777
 20
76.1479239549077
 30
0.0
 11
120.576341114777
 21
76.1479239549077
 31
0.0
  0
LINE
  5
85B
330
63F
100
AcDbEntity
  8
2
100
AcDbLine
 10
120.576341114777
 20
96.1479239549077
 30
0.0
 11
131.276341114777
 21
96.1479239549077
 31
0.0
  0
ELLIPSE
  5
85C
330
63F
100
AcDbEntity
  8
3
100
AcDbEllipse
 10
132.7763411147758
 20
86.14792395490772
 30
0.0
 11
-0.0000000000000339
 21
-6.526744703292021
 31
0.0
210
0.0
220
0.0
230
1.0
 40
0.8391971532590241
 41
0.0
 42
6.283185307179586
  0
ARC
  5
85D
330
63F
100
AcDbEntity
  8
3
100
AcDbCircle
 10
132.7763411147758
 20
67.14792395490775
 30
0.0
 40
6.5
100
AcDbArc
 50
180.0
 51
0.0
  0
ARC
  5
85E
330
63F
100
AcDbEntity
  8
3
100
AcDbCircle
 10
132.7763411147757
 20
54.06693941753028
 30
0.0
 40
14.00000000000023
100
AcDbArc
 50
68.16468906651758
 51
111.8353109334824
  0
ARC
  5
85F
330
63F
100
AcDbEntity
  8
3
100
AcDbCircle
 10
132.7763411147758
 20
67.02432181149465
 30
0.0
 40
5.489173150552952
100
AcDbArc
 50
183.780966775217
 51
356.219033224783
  0
ARC
  5
860
330
63F
100
AcDbEntity
  8
3
100
AcDbCircle
 10
132.7763411147751
 20
118.2289084922888
 30
0.0
 40
14.00000000000385
100
AcDbArc
 50
248.1646890665254
 51
291.8353109334789
  0
ARC
  5
861
330
63F
100
AcDbEntity
  8
3
100
AcDbCircle
 10
132.6403289885877
 20
105.4066771343724
 30
0.0
 40
5.345983615048816
100
AcDbArc
 50
358.1416437928862
 51
177.5794008769275
  0
ARC
  5
862
330
63F
100
AcDbEntity
  8
3
100
AcDbCircle
 10
132.7763411147758
 20
105.1479239549076
 30
0.0
 40
6.5
100
AcDbArc
 50
0.0000000000008142
 51
179.9999999999991
  0
LINE
  5
863
330
63F
100
AcDbEntity
  8
1
100
AcDbLine
 10
144.2763411147758
 20
86.14792395490772
 30
0.0
 11
105.2763411147758
 21
86.1479239549077
 31
0.0
  0
LINE
  5
864
330
63F
100
AcDbEntity
  8
3
100
AcDbLine
 10
120.576341114777
 20
100.1479239549077
 30
0.0
 11
120.576341114777
 21
72.14792395490767
 31
0.0
  0
LINE
  5
865
330
63F
100
AcDbEntity
  8
3
100
AcDbLine
 10
126.2763411147758
 20
67.14792395490772
 30
0.0
 11
126.2763411147758
 21
105.1479239549076
 31
0.0
  0
LINE
  5
866
330
63F
100
AcDbEntity
  8
3
100
AcDbLine
 10
120.576341114777
 20
72.14792395490767
 30
0.0
 11
126.2763411147758
 21
71.54882981389343
 31
0.0
  0
LINE
  5
867
330
63F
100
AcDbEntity
  8
3
100
AcDbLine
 10
111.0763411147758
 20
96.1479239549077
 30
0.0
 11
111.0763411147758
 21
76.1479239549077
 31
0.0
  0
LINE
  5
868
330
63F
100
AcDbEntity
  8
3
100
AcDbLine
 10
110.2763411147758
 20
76.94792395490771
 30
0.0
 11
110.2763411147758
 21
95.34792395490768
 31
0.0
  0
LINE
  5
869
330
63F
100
AcDbEntity
  8
2
100
AcDbLine
 10
110.2763411147758
 20
89.14792395490776
 30
0.0
 11
113.2763411147758
 21
86.14792395490772
 31
0.0
  0
LINE
  5
86A
330
63F
100
AcDbEntity
  8
3
100
AcDbLine
 10
120.576341114777
 20
76.1479239549077
 30
0.0
 11
111.0763411147758
 21
76.1479239549077
 31
0.0
  0
LINE
  5
86B
330
63F
100
AcDbEntity
  8
3
100
AcDbLine
 10
111.0763411147758
 20
76.1479239549077
 30
0.0
 11
110.2763411147758
 21
76.94792395490771
 31
0.0
  0
LINE
  5
86C
330
63F
100
AcDbEntity
  8
2
100
AcDbLine
 10
110.2763411147758
 20
83.14792395490773
 30
0.0
 11
113.2763411147758
 21
86.14792395490772
 31
0.0
  0
LINE
  5
86D
330
63F
100
AcDbEntity
  8
3
100
AcDbLine
 10
111.0763411147758
 20
96.1479239549077
 30
0.0
 11
120.576341114777
 21
96.1479239549077
 31
0.0
  0
LINE
  5
86E
330
63F
100
AcDbEntity
  8
3
100
AcDbLine
 10
110.2763411147758
 20
95.34792395490768
 30
0.0
 11
111.0763411147758
 21
96.1479239549077
 31
0.0
  0
LINE
  5
86F
330
63F
100
AcDbEntity
  8
3
100
AcDbLine
 10
126.2763411147758
 20
100.7470180959219
 30
0.0
 11
120.576341114777
 21
100.1479239549077
 31
0.0
  0
LINE
  5
871
330
63F
100
AcDbEntity
  8
2
100
AcDbLine
 10
131.276341114777
 20
77.1479239549077
 30
0.0
 11
139.2655906758092
 21
66.774239415989
 31
0.0
  0
LINE
  5
872
330
63F
100
AcDbEntity
  8
3
100
AcDbLine
 10
139.2763411147758
 20
105.1479239549076
 30
0.0
 11
139.2763411147758
 21
67.14792395490772
 31
0.0
  0
CIRCLE
  5
873
330
63F
100
AcDbEntity
  8
3
100
AcDbCircle
 10
205.3328206729593
 20
86.14792395490772
 30
0.0
 40
19.37368453891872
  0
ARC
  5
874
330
63F
100
AcDbEntity
  8
3
100
AcDbCircle
 10
205.3328206729596
 20
86.14792395490807
 30
0.0
 40
25.50000000000054
100
AcDbArc
 50
194.8416591380388
 51
225.1583408619603
  0
ARC
  5
875
330
63F
100
AcDbEntity
  8
3
100
AcDbCircle
 10
205.3328206729582
 20
86.14792395490812
 30
0.0
 40
25.50000000000107
100
AcDbArc
 50
314.8416591380407
 51
345.1583408619604
  0
ARC
  5
876
330
63F
100
AcDbEntity
  8
3
100
AcDbCircle
 10
222.0828206729596
 20
57.13607292812864
 30
0.0
 40
11.00000000000048
100
AcDbArc
 50
83.57292581987378
 51
156.4270741801261
  0
LINE
  5
877
330
63F
100
AcDbEntity
  8
2
100
AcDbLine
 10
132.4078732550155
 20
69.9975110347373
 30
0.0
 11
132.4078732550155
 21
68.69412745120623
 31
0.0
  0
ARC
  5
878
330
63F
100
AcDbEntity
  8
3
100
AcDbCircle
 10
188.5828206729592
 20
57.13607292812909
 30
0.0
 40
10.99999999999999
100
AcDbArc
 50
23.57292581987276
 51
96.42707418012701
  0
ARC
  5
879
330
63F
100
AcDbEntity
  8
3
100
AcDbCircle
 10
205.3328206729593
 20
86.14792395490912
 30
0.0
 40
25.5000000000014
100
AcDbArc
 50
254.8416591380404
 51
285.1583408619587
  0
ARC
  5
87A
330
63F
100
AcDbEntity
  8
3
100
AcDbCircle
 10
222.08282067296
 20
115.1597749816871
 30
0.0
 40
11.00000000000081
100
AcDbArc
 50
203.5729258198745
 51
276.4270741801237
  0
LINE
  5
87B
330
63F
100
AcDbEntity
  8
1
100
AcDbLine
 10
235.8328206729593
 20
86.1479239549077
 30
0.0
 11
174.8328206729593
 21
86.14792395490772
 31
0.0
  0
LINE
  5
87C
330
63F
100
AcDbEntity
  8
2
100
AcDbLine
 10
132.4078732550155
 20
102.2983368750781
 30
0.0
 11
132.4078732550155
 21
103.6017204586092
 31
0.0
  0
LINE
  5
87D
330
63F
100
AcDbEntity
  8
2
100
AcDbLine
 10
131.276341114777
 20
95.1479239549077
 30
0.0
 11
139.2763411147758
 21
105.1479239549076
 31
0.0
  0
LINE
  5
87F
330
63F
100
AcDbEntity
  8
2
100
AcDbLine
 10
131.276341114777
 20
96.1479239549077
 30
0.0
 11
131.276341114777
 21
76.1479239549077
 31
0.0
  0
LINE
  5
880
330
63F
100
AcDbEntity
  8
2
100
AcDbLine
 10
131.276341114777
 20
76.1479239549077
 30
0.0
 11
131.276341114777
 21
77.1479239549077
 31
0.0
  0
LINE
  5
881
330
63F
100
AcDbEntity
  8
2
100
AcDbLine
 10
131.276341114777
 20
96.1479239549077
 30
0.0
 11
131.276341114777
 21
95.1479239549077
 31
0.0
  0
ARC
  5
882
330
63F
100
AcDbEntity
  8
3
100
AcDbCircle
 10
188.5828206729594
 20
115.1597749816863
 30
0.0
 40
10.99999999999989
100
AcDbArc
 50
263.5729258198729
 51
336.4270741801272
  0
ARC
  5
883
330
63F
100
AcDbEntity
  8
3
100
AcDbCircle
 10
205.332820672959
 20
86.14792395490786
 30
0.0
 40
25.49999999999974
100
AcDbArc
 50
134.8416591380396
 51
165.1583408619611
  0
ARC
  5
884
330
63F
100
AcDbEntity
  8
3
100
AcDbCircle
 10
171.8328206729601
 20
86.14792395490807
 30
0.0
 40
10.99999999999918
100
AcDbArc
 50
323.5729258198704
 51
36.42707418012772
  0
CIRCLE
  5
885
330
63F
100
AcDbEntity
  8
3
100
AcDbCircle
 10
205.3328206729593
 20
86.14792395490772
 30
0.0
 40
8.999999999999914
  0
ARC
  5
886
330
63F
100
AcDbEntity
  8
3
100
AcDbCircle
 10
205.3328206729594
 20
86.14792395490765
 30
0.0
 40
25.50000000000018
100
AcDbArc
 50
74.84165913803957
 51
105.1583408619604
  0
ARC
  5
887
330
63F
100
AcDbEntity
  8
3
100
AcDbCircle
 10
205.3328206729606
 20
86.14792395490866
 30
0.0
 40
25.49999999999843
100
AcDbArc
 50
14.84165913803802
 51
45.15834086196034
  0
ARC
  5
888
330
63F
100
AcDbEntity
  8
3
100
AcDbCircle
 10
238.8328206729586
 20
86.14792395490795
 30
0.0
 40
10.99999999999931
100
AcDbArc
 50
143.5729258198722
 51
216.4270741801284
  0
LINE
  5
889
330
63F
100
AcDbEntity
  8
1
100
AcDbLine
 10
205.3328206729593
 20
116.6479239549075
 30
0.0
 11
205.3328206729593
 21
55.6479239549079
 31
0.0
  0
ENDSEC
  0
SECTION
  2
OBJECTS
  0
DICTIONARY
  5
62D
330
0
100
AcDbDictionary
281
     1
  3
ACAD_GROUP
350
62E
  3
ACAD_LAYOUT
350
63A
  3
ACAD_MLINESTYLE
350
637
  3
ACAD_PLOTSETTINGS
350
639
  3
ACAD_PLOTSTYLENAME
350
62F
  3
AcDbVariableDictionary
350
7F8
  3
AcmDictionary
350
7CD
  3
AMG
350
715
  3
AMGSNAPSETTINGS
350
7EA
  3
DWGPROPS
350
7FD
  3
MAPISURF_MODULE
350
7A0
  0
DICTIONARY
  5
7F1
330
63F
100
AcDbDictionary
280
     1
281
     1
  3
ACAD_INDEX
360
7F2
  0
DICTIONARY
  5
62E
102
{ACAD_REACTORS
330
62D
102
}
330
62D
100
AcDbDictionary
281
     1
  0
DICTIONARY
  5
63A
102
{ACAD_REACTORS
330
62D
102
}
330
62D
100
AcDbDictionary
281
     1
  3
Model
350
642
  3
ﾚｲｱｳﾄ1
350
63E
  0
DICTIONARY
  5
637
102
{ACAD_REACTORS
330
62D
102
}
330
62D
100
AcDbDictionary
281
     1
  3
Standard
350
638
  0
DICTIONARY
  5
639
102
{ACAD_REACTORS
330
62D
102
}
330
62D
100
AcDbDictionary
281
     1
  0
ACDBDICTIONARYWDFLT
  5
62F
102
{ACAD_REACTORS
330
62D
102
}
330
62D
100
AcDbDictionary
281
     1
  3
Normal
350
630
100
AcDbDictionaryWithDefault
340
630
  0
DICTIONARY
  5
7F8
102
{ACAD_REACTORS
330
62D
102
}
330
62D
100
AcDbDictionary
281
     1
  3
DIMASSOC
350
7FA
  3
INDEXCTL
350
7F9
  0
DICTIONARY
  5
7CD
102
{ACAD_REACTORS
330
62D
102
}
330
62D
100
AcDbDictionary
281
     1
  3
AcmBOMDATA
350
7CE
  0
DICTIONARY
  5
715
102
{ACAD_REACTORS
330
62D
102
}
330
62D
100
AcDbDictionary
281
     1
  3
AcMgSettings
350
716
  3
AMGLAYCFG
350
7DA
  0
DICTIONARY
  5
7EA
102
{ACAD_REACTORS
330
62D
102
}
330
62D
100
AcDbDictionary
281
     1
  3
DIMENSION
350
7EF
  3
FEA
350
7EE
  3
HATCH (1)
350
7EB
  3
HATCH (2)
350
7EC
  3
SIMPLE WELD
350
7F0
  3
SYMBOLS
350
7ED
  0
XRECORD
  5
7FD
102
{ACAD_REACTORS
330
62D
102
}
330
62D
100
AcDbXrecord
280
     1
  1
DWGPROPS COOKIE
  2

  3

  4

  6

  7

  8

  9

300
AmdtFileType=84
301
=
302
=
303
=
304
=
305
=
306
=
307
=
308
=
309
=
 40
0.0446257986111111
 41
2449839.785277777
 42
2456451.617664386
  1

 90
        1
  0
DICTIONARY
  5
7F2
102
{ACAD_REACTORS
330
7F1
102
}
330
7F1
100
AcDbDictionary
281
     1
  3
*A1
350
7F3
  0
LAYOUT
  5
642
102
{ACAD_REACTORS
330
63A
102
}
330
63A
100
AcDbPlotSettings
  1

  2
\\KONISHIDENXP\SHARP MX-2700FG
  4

  6

 40
0.0
 41
0.0
 42
0.0
 43
0.0
 44
0.0
 45
0.0
 46
0.0
 47
0.0
 48
0.0
 49
0.0
140
0.0
141
0.0
142
1.0
143
1.0
 70
  1712
 72
     0
 73
     0
 74
     0
  7

 75
     0
147
1.0
148
0.0
149
0.0
100
AcDbLayout
  1
Model
 70
     1
 71
     0
 10
0.0
 20
0.0
 11
12.0
 21
9.0
 12
0.0
 22
0.0
 32
0.0
 14
0.0
 24
0.0
 34
0.0
 15
0.0
 25
0.0
 35
0.0
146
0.0
 13
0.0
 23
0.0
 33
0.0
 16
1.0
 26
0.0
 36
0.0
 17
0.0
 27
1.0
 37
0.0
 76
     0
330
63F
  0
LAYOUT
  5
63E
102
{ACAD_REACTORS
330
63A
102
}
330
63A
100
AcDbPlotSettings
  1

  2
\\KONISHIDENXP\SHARP MX-2700FG
  4

  6

 40
0.0
 41
0.0
 42
0.0
 43
0.0
 44
0.0
 45
0.0
 46
0.0
 47
0.0
 48
0.0
 49
0.0
140
0.0
141
0.0
142
1.0
143
1.0
 70
   688
 72
     0
 73
     0
 74
     5
  7

 75
    16
147
1.0
148
0.0
149
0.0
100
AcDbLayout
  1
ﾚｲｱｳﾄ1
 70
     0
 71
     1
 10
0.0
 20
0.0
 11
12.0
 21
9.0
 12
0.0
 22
0.0
 32
0.0
 14
1.000000000000000E+20
 24
1.000000000000000E+20
 34
1.000000000000000E+20
 15
-1.000000000000000E+20
 25
-1.000000000000000E+20
 35
-1.000000000000000E+20
146
0.0
 13
0.0
 23
0.0
 33
0.0
 16
1.0
 26
0.0
 36
0.0
 17
0.0
 27
1.0
 37
0.0
 76
     0
330
63B
  0
MLINESTYLE
  5
638
102
{ACAD_REACTORS
330
637
102
}
330
637
100
AcDbMlineStyle
  2
STANDARD
 70
     0
  3

 62
   256
 51
90.0
 52
90.0
 71
     2
 49
0.5
 62
   256
  6
BYLAYER
 49
-0.5
 62
   256
  6
BYLAYER
  0
ACDBPLACEHOLDER
  5
630
102
{ACAD_REACTORS
330
62F
102
}
330
62F
  0
DICTIONARYVAR
  5
7FA
102
{ACAD_REACTORS
330
7F8
102
}
330
7F8
100
DictionaryVariables
280
     0
  1
0
  0
DICTIONARYVAR
  5
7F9
102
{ACAD_REACTORS
330
7F8
102
}
330
7F8
100
DictionaryVariables
280
     0
  1
1
  0
ACMDATADICTIONARY
  5
7CE
102
{ACAD_REACTORS
330
7CD
102
}
330
7CD
100
AcDbDictionary
281
     1
  3
*A1
350
7CF
100
AcmDataDictionary
  0
DICTIONARY
  5
716
102
{ACAD_REACTORS
330
715
102
}
330
715
100
AcDbDictionary
281
     1
  3
DWGSETTINGS
350
717
  0
ACAMGFILTERDAT
  5
7EF
102
{ACAD_REACTORS
330
7EA
102
}
330
7EA
100
AcAmgFilterDat
 70
    15
  1
DIMENSION,AMDT_*_DIM
  2
*
  3
*
  4
*
  5
*
290
     1
  0
ACAMGFILTERDAT
  5
7EE
102
{ACAD_REACTORS
330
7EA
102
}
330
7EA
100
AcAmgFilterDat
 70
    15
  1
*
  2
AM_FEA-AM_*
  3
*
  4
*
  5
*
290
     1
  0
ACAMGFILTERDAT
  5
7EB
102
{ACAD_REACTORS
330
7EA
102
}
330
7EA
100
AcAmgFilterDat
 70
    15
  1
HATCH
  2
*
  3
*
  4
*
  5
*
290
     1
  0
ACAMGFILTERDAT
  5
7EC
102
{ACAD_REACTORS
330
7EA
102
}
330
7EA
100
AcAmgFilterDat
 70
    15
  1
LINE
  2
8,8N,*-8,*-8N,AM_8,AM_8N,*-AM_8,*-AM_8N
  3
*
  4
*
  5
INSERT,STDPART2D
290
     1
  0
ACAMGFILTERDAT
  5
7F0
102
{ACAD_REACTORS
330
7EA
102
}
330
7EA
100
AcAmgFilterDat
 70
    15
  1
ARC
  2
AM_5
  3
*
  4
2
  5
INSERT
290
     0
  0
ACAMGFILTERDAT
  5
7ED
102
{ACAD_REACTORS
330
7EA
102
}
330
7EA
100
AcAmgFilterDat
 70
    15
  1
ACMFCFRAME,ACMDATUMTARGET,ACMDATUMID,ACMWELDSYM,ACMSURFSYM,ACMFEATID,ACMPARTREF,ACMBALLOON,AMDTEDGESYM,AMGSCREWCALCTABLE
  2
*
  3
*
  4
*
  5
*
290
     1
  0
LAYER_INDEX
  5
7F3
102
{ACAD_REACTORS
330
7F2
102
}
330
7F2
100
AcDbIndex
 40
2456451.618664814
100
AcDbLayerIndex
  8
0
360
7F4
 90
        0
  8
1
360
7F5
 90
        3
  8
2
360
7F6
 90
       15
  8
ITTEN
360
7F7
 90
        0
  8
3
360
8CD
 90
       32
  8
DEFPOINTS
360
8CE
 90
        0
  0
ACMDATAENTRYBLOCK
  5
7CF
102
{ACAD_REACTORS
330
7CE
102
}
330
7CE
100
AcmDataEntry
100
AcmDataEntryBlock
  0
IDBUFFER
  5
7F4
330
0
100
AcDbIdBuffer
  0
IDBUFFER
  5
7F5
330
0
100
AcDbIdBuffer
330
863
330
87B
330
889
  0
IDBUFFER
  5
7F6
330
0
100
AcDbIdBuffer
330
881
330
856
330
857
330
858
330
859
330
85A
330
85B
330
869
330
86C
330
871
330
877
330
87C
330
87D
330
87F
330
880
  0
IDBUFFER
  5
7F7
330
0
100
AcDbIdBuffer
  0
IDBUFFER
  5
8CD
330
0
100
AcDbIdBuffer
330
86F
330
872
330
873
330
874
330
875
330
876
330
878
330
879
330
87A
330
882
330
883
330
884
330
885
330
886
330
887
330
888
330
85C
330
85D
330
85E
330
85F
330
860
330
861
330
862
330
864
330
865
330
866
330
867
330
868
330
86A
330
86B
330
86D
330
86E
  0
IDBUFFER
  5
8CE
330
0
100
AcDbIdBuffer
  0
ENDSEC
  0
EOF
