  0
SECTION
  2
HEADER
  9
$ACADVER
  1
AC1015
  9
$ACADMAINTVER
 70
    13
  9
$DWGCODEPAGE
  3
ANSI_932
  9
$INSBASE
 10
0.0
 20
0.0
 30
0.0
  9
$EXTMIN
 10
43.80489987432603
 20
44.99999999374998
 30
0.0
  9
$EXTMAX
 10
223.8507171172424
 20
134.9999953999999
 30
0.0
  9
$LIMMIN
 10
0.0
 20
0.0
  9
$LIMMAX
 10
375.0
 20
270.0
  9
$ORTHOMODE
 70
     1
  9
$REGENMODE
 70
     1
  9
$FILLMODE
 70
     1
  9
$QTEXTMODE
 70
     0
  9
$MIRRTEXT
 70
     0
  9
$LTSCALE
 40
10.0
  9
$ATTMODE
 70
     1
  9
$TEXTSIZE
 40
5.0
  9
$TRACEWID
 40
0.05
  9
$TEXTSTYLE
  7
STANDARD
  9
$CLAYER
  8
0
  9
$CELTYPE
  6
ByLayer
  9
$CECOLOR
 62
   256
  9
$CELTSCALE
 40
1.0
  9
$DISPSILH
 70
     0
  9
$DIMSCALE
 40
1.0
  9
$DIMASZ
 40
3.0
  9
$DIMEXO
 40
2.0
  9
$DIMDLI
 40
0.38
  9
$DIMRND
 40
0.0
  9
$DIMDLE
 40
0.0
  9
$DIMEXE
 40
2.0
  9
$DIMTP
 40
0.0
  9
$DIMTM
 40
0.0
  9
$DIMTXT
 40
3.0
  9
$DIMCEN
 40
0.0
  9
$DIMTSZ
 40
0.0
  9
$DIMTOL
 70
     0
  9
$DIMLIM
 70
     0
  9
$DIMTIH
 70
     0
  9
$DIMTOH
 70
     0
  9
$DIMSE1
 70
     0
  9
$DIMSE2
 70
     0
  9
$DIMTAD
 70
     1
  9
$DIMZIN
 70
     0
  9
$DIMBLK
  1

  9
$DIMASO
 70
     0
  9
$DIMSHO
 70
     0
  9
$DIMPOST
  1

  9
$DIMAPOST
  1

  9
$DIMALT
 70
     0
  9
$DIMALTD
 70
     2
  9
$DIMALTF
 40
25.4
  9
$DIMLFAC
 40
1.0
  9
$DIMTOFL
 70
     1
  9
$DIMTVP
 40
1.6
  9
$DIMTIX
 70
     1
  9
$DIMSOXD
 70
     0
  9
$DIMSAH
 70
     0
  9
$DIMBLK1
  1

  9
$DIMBLK2
  1

  9
$DIMSTYLE
  2
STANDARD
  9
$DIMCLRD
 70
     0
  9
$DIMCLRE
 70
     0
  9
$DIMCLRT
 70
     0
  9
$DIMTFAC
 40
1.0
  9
$DIMGAP
 40
0.09
  9
$DIMJUST
 70
     0
  9
$DIMSD1
 70
     0
  9
$DIMSD2
 70
     0
  9
$DIMTOLJ
 70
     1
  9
$DIMTZIN
 70
     0
  9
$DIMALTZ
 70
     0
  9
$DIMALTTZ
 70
     0
  9
$DIMUPT
 70
     0
  9
$DIMDEC
 70
     4
  9
$DIMTDEC
 70
     4
  9
$DIMALTU
 70
     2
  9
$DIMALTTD
 70
     2
  9
$DIMTXSTY
  7
STANDARD
  9
$DIMAUNIT
 70
     0
  9
$DIMADEC
 70
     0
  9
$DIMALTRND
 40
0.0
  9
$DIMAZIN
 70
     0
  9
$DIMDSEP
 70
    46
  9
$DIMATFIT
 70
     3
  9
$DIMFRAC
 70
     0
  9
$DIMLDRBLK
  1

  9
$DIMLUNIT
 70
     2
  9
$DIMLWD
 70
    -2
  9
$DIMLWE
 70
    -2
  9
$DIMTMOVE
 70
     0
  9
$LUNITS
 70
     2
  9
$LUPREC
 70
     4
  9
$SKETCHINC
 40
0.1
  9
$FILLETRAD
 40
0.0
  9
$AUNITS
 70
     0
  9
$AUPREC
 70
     4
  9
$MENU
  1
E:\r13\win\SUPPORT\ACAD
  9
$ELEVATION
 40
0.0
  9
$PELEVATION
 40
0.0
  9
$THICKNESS
 40
0.0
  9
$LIMCHECK
 70
     0
  9
$CHAMFERA
 40
0.0
  9
$CHAMFERB
 40
0.0
  9
$CHAMFERC
 40
0.0
  9
$CHAMFERD
 40
0.0
  9
$SKPOLY
 70
     0
  9
$TDCREATE
 40
2449839.785277777
  9
$TDUCREATE
 40
2449839.410277778
  9
$TDUPDATE
 40
2456451.627789884
  9
$TDUUPDATE
 40
2456451.252789884
  9
$TDINDWG
 40
0.0580180903
  9
$TDUSRTIMER
 40
0.0580180903
  9
$USRTIMER
 70
     1
  9
$ANGBASE
 50
0.0
  9
$ANGDIR
 70
     0
  9
$PDMODE
 70
     0
  9
$PDSIZE
 40
0.0
  9
$PLINEWID
 40
0.0
  9
$SPLFRAME
 70
     0
  9
$SPLINETYPE
 70
     6
  9
$SPLINESEGS
 70
     8
  9
$HANDSEED
  5
91F
  9
$SURFTAB1
 70
     6
  9
$SURFTAB2
 70
     6
  9
$SURFTYPE
 70
     6
  9
$SURFU
 70
     6
  9
$SURFV
 70
     6
  9
$UCSBASE
  2

  9
$UCSNAME
  2

  9
$UCSORG
 10
0.0
 20
0.0
 30
0.0
  9
$UCSXDIR
 10
1.0
 20
0.0
 30
0.0
  9
$UCSYDIR
 10
0.0
 20
1.0
 30
0.0
  9
$UCSORTHOREF
  2

  9
$UCSORTHOVIEW
 70
     0
  9
$UCSORGTOP
 10
0.0
 20
0.0
 30
0.0
  9
$UCSORGBOTTOM
 10
0.0
 20
0.0
 30
0.0
  9
$UCSORGLEFT
 10
0.0
 20
0.0
 30
0.0
  9
$UCSORGRIGHT
 10
0.0
 20
0.0
 30
0.0
  9
$UCSORGFRONT
 10
0.0
 20
0.0
 30
0.0
  9
$UCSORGBACK
 10
0.0
 20
0.0
 30
0.0
  9
$PUCSBASE
  2

  9
$PUCSNAME
  2

  9
$PUCSORG
 10
0.0
 20
0.0
 30
0.0
  9
$PUCSXDIR
 10
1.0
 20
0.0
 30
0.0
  9
$PUCSYDIR
 10
0.0
 20
1.0
 30
0.0
  9
$PUCSORTHOREF
  2

  9
$PUCSORTHOVIEW
 70
     0
  9
$PUCSORGTOP
 10
0.0
 20
0.0
 30
0.0
  9
$PUCSORGBOTTOM
 10
0.0
 20
0.0
 30
0.0
  9
$PUCSORGLEFT
 10
0.0
 20
0.0
 30
0.0
  9
$PUCSORGRIGHT
 10
0.0
 20
0.0
 30
0.0
  9
$PUCSORGFRONT
 10
0.0
 20
0.0
 30
0.0
  9
$PUCSORGBACK
 10
0.0
 20
0.0
 30
0.0
  9
$USERI1
 70
     0
  9
$USERI2
 70
     1
  9
$USERI3
 70
     1
  9
$USERI4
 70
     0
  9
$USERI5
 70
     0
  9
$USERR1
 40
0.0
  9
$USERR2
 40
0.0
  9
$USERR3
 40
0.0
  9
$USERR4
 40
0.0
  9
$USERR5
 40
0.0
  9
$WORLDVIEW
 70
     1
  9
$SHADEDGE
 70
     3
  9
$SHADEDIF
 70
    70
  9
$TILEMODE
 70
     1
  9
$MAXACTVP
 70
    16
  9
$PINSBASE
 10
0.0
 20
0.0
 30
0.0
  9
$PLIMCHECK
 70
     0
  9
$PEXTMIN
 10
1.000000000000000E+20
 20
1.000000000000000E+20
 30
1.000000000000000E+20
  9
$PEXTMAX
 10
-1.000000000000000E+20
 20
-1.000000000000000E+20
 30
-1.000000000000000E+20
  9
$PLIMMIN
 10
0.0
 20
0.0
  9
$PLIMMAX
 10
12.0
 20
9.0
  9
$UNITMODE
 70
     0
  9
$VISRETAIN
 70
     0
  9
$PLINEGEN
 70
     0
  9
$PSLTSCALE
 70
     0
  9
$TREEDEPTH
 70
  3020
  9
$CMLSTYLE
  2
Standard
  9
$CMLJUST
 70
     0
  9
$CMLSCALE
 40
1.0
  9
$PROXYGRAPHICS
 70
     1
  9
$MEASUREMENT
 70
     0
  9
$CELWEIGHT
370
    -1
  9
$ENDCAPS
280
     0
  9
$JOINSTYLE
280
     0
  9
$LWDISPLAY
290
     0
  9
$INSUNITS
 70
     0
  9
$HYPERLINKBASE
  1

  9
$STYLESHEET
  1

  9
$XEDIT
290
     1
  9
$CEPSNTYPE
380
     0
  9
$PSTYLEMODE
290
     1
  9
$FINGERPRINTGUID
  2
{149EBB21-D2BF-4DAE-9A1D-7C6E449557AE}
  9
$VERSIONGUID
  2
{42B8CB5E-B6DF-4CC7-9EBA-CB52E866C3F3}
  9
$EXTNAMES
290
     1
  9
$PSVPSCALE
 40
0.0
  9
$OLESTARTUP
290
     0
  0
ENDSEC
  0
SECTION
  2
CLASSES
  0
CLASS
  1
ACDBDICTIONARYWDFLT
  2
AcDbDictionaryWithDefault
  3
AutoCAD 2000
 90
        0
280
     0
281
     0
  0
CLASS
  1
ACDBPLACEHOLDER
  2
AcDbPlaceHolder
  3
AutoCAD 2000
 90
        0
280
     0
281
     0
  0
CLASS
  1
LAYOUT
  2
AcDbLayout
  3
AutoCAD 2000
 90
        0
280
     0
281
     0
  0
CLASS
  1
AMGSETTINGSOBJ
  2
AmgSettingsObj
  3
"AcadM|Product Description: AutoCAD Mechanical 2000|Company: Autodesk"
 90
        0
280
     0
281
     0
  0
CLASS
  1
ACME_DOCUMENT
  2
AcMeDbDoc
  3
AcMeServices
 90
        0
280
     0
281
     0
  0
CLASS
  1
ACMESCOPE
  2
AcMeScope
  3
AcMeServices
 90
        0
280
     0
281
     0
  0
CLASS
  1
ACMECOMMANDHISTORY
  2
AcMeCommandHistory
  3
AcMeServices
 90
        0
280
     0
281
     0
  0
CLASS
  1
ACIMSYSVARMAN
  2
AcImSysVarManager
  3
AcMeServices
 90
        0
280
     0
281
     0
  0
CLASS
  1
ACIMREALSYSVAR
  2
AcImRealSysVar
  3
AcMeServices
 90
        0
280
     0
281
     0
  0
CLASS
  1
ACIMINTSYSVAR
  2
AcImIntSysVar
  3
AcMeServices
 90
        0
280
     0
281
     0
  0
CLASS
  1
ACMEDRAWINGMAN
  2
AcMeDrawingMan
  3
AcMeServices
 90
        0
280
     0
281
     0
  0
CLASS
  1
ACMEVIEW
  2
AcMeView
  3
AcMeServices
 90
        0
280
     0
281
     0
  0
CLASS
  1
ACDBENTITYCACHE
  2
AcMeEntityCache
  3
AcMeServices
 90
        0
280
     0
281
     0
  0
CLASS
  1
GSMANAGER
  2
AcMeGSManager
  3
AcMeServices
 90
        0
280
     0
281
     0
  0
CLASS
  1
AMDTINTERNALREACTOR
  2
AmdtInternalReactor
  3
AcMeServices
 90
        0
280
     0
281
     0
  0
CLASS
  1
ACMESTATEMGR
  2
AcMeStateMgr
  3
AcMeServices
 90
        0
280
     0
281
     0
  0
CLASS
  1
ACGREFMASTER
  2
AcGrefMaster
  3
AcAttribServices
 90
        0
280
     0
281
     0
  0
CLASS
  1
AM_DRAWING_MGR
  2
AcDmDwgMgr
  3
AcMechDwgViewMgmt
 90
        0
280
     0
281
     0
  0
CLASS
  1
AM_DWG_DOCUMENT
  2
AcDmDwgDocument
  3
AcMechDwgViewMgmt
 90
        0
280
     0
281
     0
  0
CLASS
  1
AM_DWG_SHEET
  2
AcDmSheet
  3
AcMechDwgViewMgmt
 90
        0
280
     0
281
     0
  0
CLASS
  1
AM_VIEWDIMPARMAP
  2
AcDmViewDimParMap
  3
AcMechDwgViewMgmt
 90
        0
280
     0
281
     0
  0
CLASS
  1
AM_DWGMGR_NAME
  2
AcDmDwgMgrName
  3
AcMechDwgViewMgmt
 90
        0
280
     0
281
     0
  0
CLASS
  1
ACME_DATABASE
  2
AcMeDbDatabase
  3
AcMeServices
 90
        0
280
     0
281
     0
  0
CLASS
  1
ACRFINSADJUSTERMGR
  2
AcRfInsAdjusterMgr
  3
AcMeServices
 90
        0
280
     0
281
     0
  0
CLASS
  1
ACGREFACADMASTER
  2
AcGrefacadMaster
  3
AcGrefServices
 90
        0
280
     0
281
     0
  0
CLASS
  1
AMDTMENUSTATEMGR
  2
AmdtMenuStateMgr
  3
McadcomServices
 90
        0
280
     0
281
     0
  0
CLASS
  1
AMDTMCOMMENUSTATE
  2
AmdtMcomMenuState
  3
McadcomServices
 90
        0
280
     0
281
     0
  0
CLASS
  1
AMIMASTER
  2
AmiMaster
  3
AmiServices
 90
        0
280
     0
281
     0
  0
CLASS
  1
ASAPP
  2
AcAsAppObject
  3
AutoSurfServices
 90
        0
280
     0
281
     0
  0
CLASS
  1
IM_STATIC_MAN
  2
AcImStaticVarManager
  3
AcMeServices
 90
        0
280
     0
281
     0
  0
CLASS
  1
ACIMSTRSYSVAR
  2
AcImStrSysVar
  3
AcMeServices
 90
        0
280
     0
281
     0
  0
CLASS
  1
ACIMDBLSTATICVAR
  2
AcImDblStaticVar
  3
AcMeServices
 90
        0
280
     0
281
     0
  0
CLASS
  1
ACIMSTRSTATICVAR
  2
AcImStrStaticVar
  3
AcMeServices
 90
        0
280
     0
281
     0
  0
CLASS
  1
ACIMINTSTATICVAR
  2
AcImIntStaticVar
  3
AcMeServices
 90
        0
280
     0
281
     0
  0
CLASS
  1
ACASGREFMASTER
  2
AcAsGrefMaster
  3
AutoSurfResolverServices
 90
        0
280
     0
281
     0
  0
CLASS
  1
ACADGREFMODULE
  2
AcAdGrefModule
  3
AdGrefServices
 90
        0
280
     0
281
     0
  0
CLASS
  1
AMDTMAPISURFMOUDULE
  2
AmdtMApiSurfModule
  3
MApiSurfServices
 90
        0
280
     0
281
     0
  0
CLASS
  1
MAPIAMMOUDLE
  2
MApiAmModule
  3
MApiAmServices
 90
        0
280
     0
281
     0
  0
CLASS
  1
AMDTADMENUSTATE
  2
AmdtAdMenuState
  3
DesignerServices
 90
        0
280
     0
281
     0
  0
CLASS
  1
ADAPPL
  2
AcAdAppl
  3
DesignerServices
 90
        0
280
     0
281
     0
  0
CLASS
  1
DEPMGR
  2
AcAdDepMgr
  3
DesignerServices
 90
        0
280
     0
281
     0
  0
CLASS
  1
PARAMMGR
  2
AcAdParamMgr
  3
DesignerServices
 90
        0
280
     0
281
     0
  0
CLASS
  1
PARAMSCOPE
  2
AcAdParamScope
  3
DesignerServices
 90
        0
280
     0
281
     0
  0
CLASS
  1
NAMEDAPPL
  2
AcAdNamedAppl
  3
DesignerServices
 90
        0
280
     0
281
     0
  0
CLASS
  1
AMDTDMMENUSTATE
  2
AmdtDmMenuState
  3
AcMechDwgViewMgmt
 90
        0
280
     0
281
     0
  0
CLASS
  1
MAPIADMODULE
  2
MApiAdModule
  3
MApiAdServices
 90
        0
280
     0
281
     0
  0
CLASS
  1
AMDTAMMENUSTATE
  2
AmdtAmMenuState
  3
DesignerAssemblies
 90
        0
280
     0
281
     0
  0
CLASS
  1
ACAMPROJECT
  2
AcAmProject
  3
DesignerAssemblies
 90
        0
280
     0
281
     0
  0
CLASS
  1
ACAMGRCOMPDEF
  2
AcAmGrCompDef
  3
DesignerAssemblies
 90
        0
280
     0
281
     0
  0
CLASS
  1
ACCMCONTEXT
  2
AcCmContext
  3
DesignerAssemblies
 90
        0
280
     0
281
     0
  0
CLASS
  1
ACAMCOMPDEF
  2
AcAmCompDef
  3
DesignerAssemblies
 90
        0
280
     0
281
     0
  0
CLASS
  1
ACAMCOMPDEFMGR
  2
AcAmCompDefMgr
  3
DesignerAssemblies
 90
        0
280
     0
281
     0
  0
CLASS
  1
AMCONTEXTMGR
  2
AcAmContextMgr
  3
DesignerAssemblies
 90
        0
280
     0
281
     0
  0
CLASS
  1
ACAMCONTEXTMODELER
  2
AcAmContextModeler
  3
DesignerAssemblies
 90
        0
280
     0
281
     0
  0
CLASS
  1
ACMDATADICTIONARY
  2
AcmDataDictionary
  3
"AcmSymBB|Product Description: AutoCAD Mechanical 2000|Company: Autodesk"
 90
        0
280
     0
281
     0
  0
CLASS
  1
ACMDATAENTRYBLOCK
  2
AcmDataEntryBlock
  3
"AcmSymBB|Product Description: AutoCAD Mechanical 2000|Company: Autodesk"
 90
        0
280
     0
281
     0
  0
CLASS
  1
CATALOGSTATE
  2
AcAmCatalogState
  3
DesignerAssemblies
 90
        0
280
     0
281
     0
  0
CLASS
  1
ACAMGRCOMPDEFSET
  2
AcAmGrCompDefSet
  3
DesignerAssemblies
 90
        0
280
     0
281
     0
  0
CLASS
  1
AMDTBROWSERDBTAB
  2
AmdtBrowserDbTab
  3
McadcomServices
 90
        0
280
     0
281
     0
  0
CLASS
  1
CBROWSERAPPOBJECT
  2
CBrowserAppObject
  3
McadcomServices
 90
        0
280
     0
281
     0
  0
CLASS
  1
DM_PLACEHOLDER
  2
AcDmSelsetPlaceholder
  3
AcMechDwgViewMgmt
 90
        0
280
     0
281
     0
  0
CLASS
  1
AMGOBJPROPCFG
  2
AmgObjPropCfg
  3
"AmgLay|Product Description: AutoCAD Mechanical 2000|Company: Autodesk"
 90
        1
280
     0
281
     0
  0
CLASS
  1
ACAMGFILTERDAT
  2
AcAmgFilterDat
  3
"AcadM|Product Description: AutoCAD Mechanical 2000|Company: Autodesk"
 90
        0
280
     0
281
     0
  0
CLASS
  1
LAYER_INDEX
  2
AcDbLayerIndex
  3
AutoCAD 2000
 90
        0
280
     0
281
     0
  0
CLASS
  1
IDBUFFER
  2
AcDbIdBuffer
  3
AutoCAD 2000
 90
        0
280
     0
281
     0
  0
CLASS
  1
DICTIONARYVAR
  2
AcDbDictionaryVar
  3
AutoCAD 2000
 90
        0
280
     0
281
     0
  0
CLASS
  1
AMDTFORMULAUPDATEDISPATCHER
  2
AmdtFormulaUpdateDispatcher
  3
AcMeServices
 90
        0
280
     0
281
     0
  0
ENDSEC
  0
SECTION
  2
TABLES
  0
TABLE
  2
VPORT
  5
64F
330
0
100
AcDbSymbolTable
 70
     4
  0
VPORT
  5
91E
330
64F
100
AcDbSymbolTableRecord
100
AcDbViewportTableRecord
  2
*Active
 70
     0
 10
0.0
 20
0.0
 11
1.0
 21
1.0
 12
0.0
 22
0.0
 13
0.0
 23
0.0
 14
10.0
 24
10.0
 15
10.0
 25
10.0
 16
0.0
 26
0.0
 36
1.0
 17
162.1942446043165
 27
108.8755197140987
 37
0.0
 40
217.7745370147117
 41
1.489721886336154
 42
50.0
 43
0.0
 44
0.0
 50
0.0
 51
0.0
 71
     0
 72
   500
 73
     1
 74
     0
 75
     0
 76
     0
 77
     0
 78
     2
281
     0
 65
     0
110
0.0
120
0.0
130
0.0
111
1.0
121
0.0
131
0.0
112
0.0
122
1.0
132
0.0
 79
     0
146
0.0
  0
ENDTAB
  0
TABLE
  2
LTYPE
  5
64C
330
0
100
AcDbSymbolTable
 70
    18
  0
LTYPE
  5
65A
330
64C
100
AcDbSymbolTableRecord
100
AcDbLinetypeTableRecord
  2
ByBlock
 70
     0
  3

 72
    65
 73
     0
 40
0.0
  0
LTYPE
  5
65B
330
64C
100
AcDbSymbolTableRecord
100
AcDbLinetypeTableRecord
  2
ByLayer
 70
     0
  3

 72
    65
 73
     0
 40
0.0
  0
LTYPE
  5
65C
330
64C
100
AcDbSymbolTableRecord
100
AcDbLinetypeTableRecord
  2
CONTINUOUS
 70
     0
  3
Solid Line
 72
    65
 73
     0
 40
0.0
  0
LTYPE
  5
66A
330
64C
100
AcDbSymbolTableRecord
100
AcDbLinetypeTableRecord
  2
CENTER
 70
     0
  3
____ _ ____ _ ____ _ ____ _ ____ _ ____ _ ____
 72
    65
 73
     4
 40
2.0
 49
1.25
 74
     0
 49
-0.25
 74
     0
 49
0.25
 74
     0
 49
-0.25
 74
     0
  0
LTYPE
  5
66B
330
64C
100
AcDbSymbolTableRecord
100
AcDbLinetypeTableRecord
  2
HIDDEN
 70
     0
  3
_ _ _ _ _ _ _ _ _ _ _ _ _ _ _ _ _ _ _ _ _ _ _
 72
    65
 73
     2
 40
0.375
 49
0.25
 74
     0
 49
-0.125
 74
     0
  0
LTYPE
  5
6E5
330
64C
100
AcDbSymbolTableRecord
100
AcDbLinetypeTableRecord
  2
PHANTOM2
 70
     0
  3
Phantom (.5x) ___ _ _ ___ _ _ ___ _ _ ___ _ _
 72
    65
 73
     6
 40
1.25
 49
0.625
 74
     0
 49
-0.125
 74
     0
 49
0.125
 74
     0
 49
-0.125
 74
     0
 49
0.125
 74
     0
 49
-0.125
 74
     0
  0
LTYPE
  5
747
330
64C
100
AcDbSymbolTableRecord
100
AcDbLinetypeTableRecord
  2
ASULTYPE
 70
     0
  3
実線
 72
    65
 73
     2
 40
3.0
 49
2.5
 74
     0
 49
0.5
 74
     0
  0
LTYPE
  5
748
330
64C
100
AcDbSymbolTableRecord
100
AcDbLinetypeTableRecord
  2
ASVLTYPE
 70
     0
  3
__ __ __ __ __ __ __ __ __ __ __ __ __ __ __ __ __ __ __ __ __
 72
    65
 73
     2
 40
0.75
 49
0.5
 74
     0
 49
-0.25
 74
     0
  0
LTYPE
  5
789
330
64C
100
AcDbSymbolTableRecord
100
AcDbLinetypeTableRecord
  2
AM_ISO02W050
 70
     0
  3
__ __ __ __ __ __ __ __ __ __ __ __ __ __ __
 72
    65
 73
     2
 40
7.5
 49
6.0
 74
     0
 49
-1.5
 74
     0
  0
LTYPE
  5
78A
330
64C
100
AcDbSymbolTableRecord
100
AcDbLinetypeTableRecord
  2
AM_ISO08W050
 70
     0
  3
____ . ____ . ____ . ____ . ____ . ____ . ____
 72
    65
 73
     4
 40
18.0
 49
12.0
 74
     0
 49
-1.5
 74
     0
 49
3.0
 74
     0
 49
-1.5
 74
     0
  0
LTYPE
  5
78B
330
64C
100
AcDbSymbolTableRecord
100
AcDbLinetypeTableRecord
  2
AM_ISO09W050
 70
     0
  3
_____ . . _____ . . _____ . . ____ .. ____
 72
    65
 73
     6
 40
22.5
 49
12.0
 74
     0
 49
-1.5
 74
     0
 49
3.0
 74
     0
 49
-1.5
 74
     0
 49
3.0
 74
     0
 49
-1.5
 74
     0
  0
LTYPE
  5
78C
330
64C
100
AcDbSymbolTableRecord
100
AcDbLinetypeTableRecord
  2
Amconstr
 70
     0
  3
_______________________
 72
    65
 73
     2
 40
9999.0
 49
9999.0
 74
     0
 49
0.0
 74
     0
  0
LTYPE
  5
78D
330
64C
100
AcDbSymbolTableRecord
100
AcDbLinetypeTableRecord
  2
AM_ISO08W050x2
 70
     0
  3
__ . __ . __ . __ . __ . __
 72
    65
 73
     4
 40
9.0
 49
6.0
 74
     0
 49
-0.75
 74
     0
 49
1.5
 74
     0
 49
-0.75
 74
     0
  0
LTYPE
  5
78E
330
64C
100
AcDbSymbolTableRecord
100
AcDbLinetypeTableRecord
  2
AM_ISO02W050x2
 70
     0
  3
 _ _ _ _ _ _ _ _ _ _ _ _
 72
    65
 73
     2
 40
3.75
 49
3.0
 74
     0
 49
-0.75
 74
     0
  0
LTYPE
  5
791
330
64C
100
AcDbSymbolTableRecord
100
AcDbLinetypeTableRecord
  2
Amzigzag
 70
     0
  3
/\/-/\/-/\/-/\/-/\/-/\/
 72
    65
 73
     2
 40
11.00009999999999
 49
0.0001
 74
     4
 75
   135
340
790
 46
0.04
 50
0.0
 44
0.0
 45
0.0
 49
-11.0
 74
     0
  0
LTYPE
  5
792
330
64C
100
AcDbSymbolTableRecord
100
AcDbLinetypeTableRecord
  2
CENTER2
 70
     0
  3
Center (.5x) ___ _ ___ _ ___ _ ___ _ ___ _ ___
 72
    65
 73
     4
 40
1.125
 49
0.75
 74
     0
 49
-0.125
 74
     0
 49
0.125
 74
     0
 49
-0.125
 74
     0
  0
LTYPE
  5
793
330
64C
100
AcDbSymbolTableRecord
100
AcDbLinetypeTableRecord
  2
HIDDEN2
 70
     0
  3
Hidden (.5x) _ _ _ _ _ _ _ _ _ _ _ _ _ _ _ _ _
 72
    65
 73
     2
 40
0.1875
 49
0.125
 74
     0
 49
-0.0625
 74
     0
  0
LTYPE
  5
794
330
64C
100
AcDbSymbolTableRecord
100
AcDbLinetypeTableRecord
  2
Amzigzag2
 70
     0
  3
/\/-/\/-/\/-/\/-/\/-/\/
 72
    65
 73
     2
 40
0.4401
 49
0.0001
 74
     4
 75
   135
340
790
 46
0.0016
 50
0.0
 44
0.0
 45
0.0
 49
-0.4400000000000001
 74
     0
  0
LTYPE
  5
7F3
330
64C
100
AcDbSymbolTableRecord
100
AcDbLinetypeTableRecord
  2
TENSEN
 70
     0
  3

 72
    65
 73
     2
 40
3.0
 49
2.0
 74
     0
 49
-1.0
 74
     0
  0
LTYPE
  5
7F4
330
64C
100
AcDbSymbolTableRecord
100
AcDbLinetypeTableRecord
  2
ITTEN
 70
     0
  3

 72
    65
 73
     4
 40
5.5
 49
2.5
 74
     0
 49
-1.0
 74
     0
 49
1.0
 74
     0
 49
-1.0
 74
     0
  0
ENDTAB
  0
TABLE
  2
LAYER
  5
649
330
0
100
AcDbSymbolTable
 70
     5
  0
LAYER
  5
657
330
649
100
AcDbSymbolTableRecord
100
AcDbLayerTableRecord
  2
0
 70
     0
 62
     7
  6
CONTINUOUS
370
    -3
390
656
  0
LAYER
  5
66C
330
649
100
AcDbSymbolTableRecord
100
AcDbLayerTableRecord
  2
1
 70
     0
 62
     1
  6
CENTER
370
    -3
390
656
  0
LAYER
  5
66D
330
649
100
AcDbSymbolTableRecord
100
AcDbLayerTableRecord
  2
2
 70
     0
 62
     5
  6
HIDDEN
370
    -3
390
656
  0
LAYER
  5
7F5
330
649
100
AcDbSymbolTableRecord
100
AcDbLayerTableRecord
  2
3
 70
     0
 62
     5
  6
CONTINUOUS
370
    50
390
656
  0
LAYER
  5
7F6
330
649
100
AcDbSymbolTableRecord
100
AcDbLayerTableRecord
  2
DEFPOINTS
 70
     0
 62
     7
  6
CONTINUOUS
290
     0
370
    -3
390
656
  0
ENDTAB
  0
TABLE
  2
STYLE
  5
64A
330
0
100
AcDbSymbolTable
 70
     3
  0
STYLE
  5
658
330
64A
100
AcDbSymbolTableRecord
100
AcDbTextStyleTableRecord
  2
STANDARD
 70
     0
 40
0.0
 41
1.0
 50
0.0
 71
     0
 42
5.0
  3
TXT
  4
BIGFONT
  0
STYLE
  5
790
330
64A
100
AcDbSymbolTableRecord
100
AcDbTextStyleTableRecord
  2

 70
     1
 40
0.0
 41
1.0
 50
0.0
 71
     0
 42
5.0
  3
ltypeshp.shx
  4

  0
STYLE
  5
7F7
330
64A
100
AcDbSymbolTableRecord
100
AcDbTextStyleTableRecord
  2
BIGFONT
 70
     0
 40
3.0
 41
0.8
 50
0.0
 71
     0
 42
3.0
  3
txt.shx
  4
bigfont.shx
  0
ENDTAB
  0
TABLE
  2
VIEW
  5
64D
330
0
100
AcDbSymbolTable
 70
     1
  0
VIEW
  5
66E
330
64D
100
AcDbSymbolTableRecord
100
AcDbViewTableRecord
  2
ALL
 70
     0
 40
270.0
 10
220.9915966386554
 20
135.0
 41
0.0
 11
0.0
 21
0.0
 31
1.0
 12
0.0
 22
0.0
 32
0.0
 42
0.0
 43
0.0
 44
0.0
 50
0.0
 71
     0
281
     0
 72
     0
  0
ENDTAB
  0
TABLE
  2
UCS
  5
64E
330
0
100
AcDbSymbolTable
 70
     0
  0
ENDTAB
  0
TABLE
  2
APPID
  5
650
330
0
100
AcDbSymbolTable
 70
    14
  0
APPID
  5
659
330
650
100
AcDbSymbolTableRecord
100
AcDbRegAppTableRecord
  2
ACAD
 70
     0
  0
APPID
  5
66F
330
650
100
AcDbSymbolTableRecord
100
AcDbRegAppTableRecord
  2
ACAD_EXEMPT_FROM_CAD_STANDARDS
 70
     0
  0
APPID
  5
670
330
650
100
AcDbSymbolTableRecord
100
AcDbRegAppTableRecord
  2
ACAD_MLEADERVER
 70
     0
  0
APPID
  5
6C4
330
650
100
AcDbSymbolTableRecord
100
AcDbRegAppTableRecord
  2
GENIUS_GENDIM_13
 70
     0
  0
APPID
  5
6C5
330
650
100
AcDbSymbolTableRecord
100
AcDbRegAppTableRecord
  2
GENIUS_GENDTOL_13
 70
     0
  0
APPID
  5
6C6
330
650
100
AcDbSymbolTableRecord
100
AcDbRegAppTableRecord
  2
GENIUS_GE3DTOL_13
 70
     0
  0
APPID
  5
6C8
330
650
100
AcDbSymbolTableRecord
100
AcDbRegAppTableRecord
  2
MCAD_NO_VIS
 70
     0
  0
APPID
  5
6C9
330
650
100
AcDbSymbolTableRecord
100
AcDbRegAppTableRecord
  2
ACAD_TEMP_GRAPHIC
 70
     0
  0
APPID
  5
6FA
330
650
100
AcDbSymbolTableRecord
100
AcDbRegAppTableRecord
  2
AD_DRAW
 70
     0
  0
APPID
  5
6FD
330
650
100
AcDbSymbolTableRecord
100
AcDbRegAppTableRecord
  2
ACATTRIBSERVICES
 70
     0
  0
APPID
  5
749
330
650
100
AcDbSymbolTableRecord
100
AcDbRegAppTableRecord
  2
ASURF_PCURVE_APPNAME
 70
     0
  0
APPID
  5
778
330
650
100
AcDbSymbolTableRecord
100
AcDbRegAppTableRecord
  2
DESIGNERASSEMBLIES
 70
     0
  0
APPID
  5
780
330
650
100
AcDbSymbolTableRecord
100
AcDbRegAppTableRecord
  2
ACADM_DIM_EDIT
 70
     0
  0
APPID
  5
781
330
650
100
AcDbSymbolTableRecord
100
AcDbRegAppTableRecord
  2
AMDT_DM_ADJ
 70
     0
  0
ENDTAB
  0
TABLE
  2
DIMSTYLE
  5
651
330
0
100
AcDbSymbolTable
 70
     1
100
AcDbDimStyleTable
 71
     0
  0
DIMSTYLE
105
671
330
651
100
AcDbSymbolTableRecord
100
AcDbDimStyleTableRecord
  2
STANDARD
 70
     0
279
     2
340
658
  0
ENDTAB
  0
TABLE
  2
BLOCK_RECORD
  5
648
330
0
100
AcDbSymbolTable
 70
    16
  0
BLOCK_RECORD
  5
665
102
{ACAD_XDICTIONARY
360
79D
102
}
330
648
100
AcDbSymbolTableRecord
100
AcDbBlockTableRecord
  2
*Model_Space
340
668
  0
BLOCK_RECORD
  5
661
330
648
100
AcDbSymbolTableRecord
100
AcDbBlockTableRecord
  2
*Paper_Space
340
664
  0
BLOCK_RECORD
  5
674
330
648
100
AcDbSymbolTableRecord
100
AcDbBlockTableRecord
  2
$MODEL_SPACE
340
0
  0
BLOCK_RECORD
  5
677
330
648
100
AcDbSymbolTableRecord
100
AcDbBlockTableRecord
  2
$PAPER_SPACE
340
0
  0
BLOCK_RECORD
  5
76F
330
648
100
AcDbSymbolTableRecord
100
AcDbBlockTableRecord
  2
*U2
340
0
  0
BLOCK_RECORD
  5
7A9
330
648
100
AcDbSymbolTableRecord
100
AcDbBlockTableRecord
  2
*D3
340
0
  0
BLOCK_RECORD
  5
7B4
330
648
100
AcDbSymbolTableRecord
100
AcDbBlockTableRecord
  2
*D4
340
0
  0
BLOCK_RECORD
  5
7BF
330
648
100
AcDbSymbolTableRecord
100
AcDbBlockTableRecord
  2
*D5
340
0
  0
BLOCK_RECORD
  5
7CC
330
648
100
AcDbSymbolTableRecord
100
AcDbBlockTableRecord
  2
*D6
340
0
  0
BLOCK_RECORD
  5
7D9
330
648
100
AcDbSymbolTableRecord
100
AcDbBlockTableRecord
  2
*D7
340
0
  0
BLOCK_RECORD
  5
7E6
330
648
100
AcDbSymbolTableRecord
100
AcDbBlockTableRecord
  2
*D8
340
0
  0
BLOCK_RECORD
  5
86D
330
648
100
AcDbSymbolTableRecord
100
AcDbBlockTableRecord
  2
*D10
340
0
  0
BLOCK_RECORD
  5
87A
330
648
100
AcDbSymbolTableRecord
100
AcDbBlockTableRecord
  2
*D11
340
0
  0
BLOCK_RECORD
  5
887
330
648
100
AcDbSymbolTableRecord
100
AcDbBlockTableRecord
  2
*D12
340
0
  0
BLOCK_RECORD
  5
894
330
648
100
AcDbSymbolTableRecord
100
AcDbBlockTableRecord
  2
*D13
340
0
  0
BLOCK_RECORD
  5
89D
330
648
100
AcDbSymbolTableRecord
100
AcDbBlockTableRecord
  2
*D14
340
0
  0
BLOCK_RECORD
  5
8A6
330
648
100
AcDbSymbolTableRecord
100
AcDbBlockTableRecord
  2
*D15
340
0
  0
ENDTAB
  0
ENDSEC
  0
SECTION
  2
BLOCKS
  0
BLOCK
  5
666
330
665
100
AcDbEntity
  8
0
100
AcDbBlockBegin
  2
*Model_Space
 70
     0
 10
0.0
 20
0.0
 30
0.0
  3
*Model_Space
  1

  0
ENDBLK
  5
667
330
665
100
AcDbEntity
  8
0
100
AcDbBlockEnd
  0
BLOCK
  5
662
330
661
100
AcDbEntity
 67
     1
  8
0
100
AcDbBlockBegin
  2
*Paper_Space
 70
     0
 10
0.0
 20
0.0
 30
0.0
  3
*Paper_Space
  1

  0
ENDBLK
  5
663
330
661
100
AcDbEntity
 67
     1
  8
0
100
AcDbBlockEnd
  0
BLOCK
  5
675
330
674
100
AcDbEntity
  8
0
100
AcDbBlockBegin
  2
$MODEL_SPACE
 70
     0
 10
0.0
 20
0.0
 30
0.0
  3
$MODEL_SPACE
  1

  0
ENDBLK
  5
676
330
674
100
AcDbEntity
  8
0
100
AcDbBlockEnd
  0
BLOCK
  5
678
330
677
100
AcDbEntity
  8
0
100
AcDbBlockBegin
  2
$PAPER_SPACE
 70
     0
 10
0.0
 20
0.0
 30
0.0
  3
$PAPER_SPACE
  1

  0
ENDBLK
  5
679
330
677
100
AcDbEntity
  8
0
100
AcDbBlockEnd
  0
BLOCK
  5
770
330
76F
100
AcDbEntity
  8
0
100
AcDbBlockBegin
  2
*U2
 70
     1
 10
0.0
 20
0.0
 30
0.0
  3
*U2
  1

  0
ENDBLK
  5
771
330
76F
100
AcDbEntity
  8
0
100
AcDbBlockEnd
  0
BLOCK
  5
7B2
330
7A9
100
AcDbEntity
  8
0
100
AcDbBlockBegin
  2
*D3
 70
     1
 10
0.0
 20
0.0
 30
0.0
  3
*D3
  1

  0
LINE
  5
7AA
330
7A9
100
AcDbEntity
  8
0
 62
     0
370
    -2
100
AcDbLine
 10
235.7980284351286
 20
139.465477558937
 30
0.0
 11
233.7980284351286
 21
139.465477558937
 31
0.0
  0
LINE
  5
7AB
330
7A9
100
AcDbEntity
  8
0
 62
     0
370
    -2
100
AcDbLine
 10
233.7980284351286
 20
139.465477558937
 30
0.0
 11
227.5284213486306
 21
128.9841162439963
 31
0.0
  0
MTEXT
  5
7AC
330
7A9
100
AcDbEntity
  8
0
 62
     0
100
AcDbMText
 10
238.4980284351286
 20
139.465477558937
 30
0.0
 40
3.5
 41
0.0
 71
     5
 72
     1
  1
\A1;%%c39
 73
     1
 44
1.0
  0
SOLID
  5
7AD
330
7A9
100
AcDbEntity
  8
0
 62
     0
100
AcDbTrace
 10
227.2423593334352
 20
129.1552291732959
 30
0.0
 11
227.8144833638259
 21
128.8130033146967
 31
0.0
 12
226.5017437728331
 22
127.2677441528242
 32
0.0
 13
226.5017437728331
 23
127.2677441528242
 33
0.0
  0
LINE
  5
7AE
330
7A9
100
AcDbEntity
  8
0
 62
     0
370
    -2
100
AcDbLine
 10
216.4564800344924
 20
110.6415184299374
 30
0.0
 11
216.6564800344924
 21
110.6415184299373
 31
0.0
  0
LINE
  5
7AF
330
7A9
100
AcDbEntity
  8
0
 62
     0
370
    -2
100
AcDbLine
 10
216.5564800344924
 20
110.5415184299374
 30
0.0
 11
216.5564800344924
 21
110.7415184299374
 31
0.0
  0
POINT
  5
7B0
330
7A9
100
AcDbEntity
  8
DEFPOINTS
 62
     0
100
AcDbPoint
 10
226.5017437728331
 20
127.2677441528242
 30
0.0
  0
POINT
  5
7B1
330
7A9
100
AcDbEntity
  8
DEFPOINTS
 62
     0
100
AcDbPoint
 10
206.6112162961518
 20
94.0152927070506
 30
0.0
  0
ENDBLK
  5
7B3
330
7A9
100
AcDbEntity
  8
0
100
AcDbBlockEnd
  0
BLOCK
  5
7BD
330
7B4
100
AcDbEntity
  8
0
100
AcDbBlockBegin
  2
*D4
 70
     1
 10
0.0
 20
0.0
 30
0.0
  3
*D4
  1

  0
LINE
  5
7B5
330
7B4
100
AcDbEntity
  8
0
 62
     0
370
    -2
100
AcDbLine
 10
236.5378036275747
 20
128.7225029673144
 30
0.0
 11
234.5378036275746
 21
128.7225029673144
 31
0.0
  0
LINE
  5
7B6
330
7B4
100
AcDbEntity
  8
0
 62
     0
370
    -2
100
AcDbLine
 10
234.5378036275746
 20
128.7225029673144
 30
0.0
 11
224.3131294275866
 21
118.4411588186098
 31
0.0
  0
MTEXT
  5
7B7
330
7B4
100
AcDbEntity
  8
0
 62
     0
100
AcDbMText
 10
239.2878036275746
 20
128.7225029673145
 30
0.0
 40
3.5
 41
0.0
 71
     5
 72
     1
  1
\A1;%%c18
 73
     1
 44
1.0
  0
SOLID
  5
7B8
330
7B4
100
AcDbEntity
  8
0
 62
     0
100
AcDbTrace
 10
224.0767766885359
 20
118.6762088002187
 30
0.0
 11
224.5494821666373
 21
118.2061088370009
 31
0.0
 12
222.9028295379331
 22
117.0230423843057
 32
0.0
 13
222.9028295379331
 23
117.0230423843057
 33
0.0
  0
LINE
  5
7B9
330
7B4
100
AcDbEntity
  8
0
 62
     0
370
    -2
100
AcDbLine
 10
216.4564800344924
 20
110.6415184299374
 30
0.0
 11
216.6564800344924
 21
110.6415184299374
 31
0.0
  0
LINE
  5
7BA
330
7B4
100
AcDbEntity
  8
0
 62
     0
370
    -2
100
AcDbLine
 10
216.5564800344924
 20
110.5415184299374
 30
0.0
 11
216.5564800344924
 21
110.7415184299374
 31
0.0
  0
POINT
  5
7BB
330
7B4
100
AcDbEntity
  8
DEFPOINTS
 62
     0
100
AcDbPoint
 10
222.9028295379331
 20
117.0230423843057
 30
0.0
  0
POINT
  5
7BC
330
7B4
100
AcDbEntity
  8
DEFPOINTS
 62
     0
100
AcDbPoint
 10
210.2101305310517
 20
104.2599944755691
 30
0.0
  0
ENDBLK
  5
7BE
330
7B4
100
AcDbEntity
  8
0
100
AcDbBlockEnd
  0
BLOCK
  5
7CA
330
7BF
100
AcDbEntity
  8
0
100
AcDbBlockBegin
  2
*D5
 70
     1
 10
0.0
 20
0.0
 30
0.0
  3
*D5
  1

  0
LINE
  5
7C0
330
7BF
100
AcDbEntity
  8
0
 62
     0
370
    -2
100
AcDbLine
 10
142.6000004763102
 20
119.6415184299373
 30
0.0
 11
161.999440033681
 21
119.6415184299373
 31
0.0
  0
LINE
  5
7C1
330
7BF
100
AcDbEntity
  8
0
 62
     0
370
    -2
100
AcDbLine
 10
142.6000004763102
 20
101.6415184299373
 30
0.0
 11
161.999440033681
 21
101.6415184299373
 31
0.0
  0
LINE
  5
7C2
330
7BF
100
AcDbEntity
  8
0
 62
     0
370
    -2
100
AcDbLine
 10
161.7994400336811
 20
117.6415184299373
 30
0.0
 11
161.7994400336811
 21
113.105699187434
 31
0.0
  0
LINE
  5
7C3
330
7BF
100
AcDbEntity
  8
0
 62
     0
370
    -2
100
AcDbLine
 10
161.7994400336811
 20
103.6415184299373
 30
0.0
 11
161.7994400336811
 21
109.805699187434
 31
0.0
  0
SOLID
  5
7C4
330
7BF
100
AcDbEntity
  8
0
 62
     0
100
AcDbTrace
 10
161.4661067003477
 20
117.6415184299373
 30
0.0
 11
162.1327733670144
 21
117.6415184299373
 31
0.0
 12
161.7994400336811
 22
119.6415184299373
 32
0.0
 13
161.7994400336811
 23
119.6415184299373
 33
0.0
  0
SOLID
  5
7C5
330
7BF
100
AcDbEntity
  8
0
 62
     0
100
AcDbTrace
 10
161.4661067003477
 20
103.6415184299373
 30
0.0
 11
162.1327733670144
 21
103.6415184299373
 31
0.0
 12
161.7994400336811
 22
101.6415184299373
 32
0.0
 13
161.7994400336811
 23
101.6415184299373
 33
0.0
  0
MTEXT
  5
7C6
330
7BF
100
AcDbEntity
  8
0
 62
     0
100
AcDbMText
 10
161.799440033681
 20
111.455699187434
 30
0.0
 40
3.5
 41
0.0
 71
     5
 72
     1
  1
\A1;18
 11
0.0000000000000001
 21
1.0
 31
0.0
 73
     1
 44
1.0
  0
POINT
  5
7C7
330
7BF
100
AcDbEntity
  8
DEFPOINTS
 62
     0
100
AcDbPoint
 10
142.5000004763102
 20
119.6415184299373
 30
0.0
  0
POINT
  5
7C8
330
7BF
100
AcDbEntity
  8
DEFPOINTS
 62
     0
100
AcDbPoint
 10
142.5000004763102
 20
101.6415184299373
 30
0.0
  0
POINT
  5
7C9
330
7BF
100
AcDbEntity
  8
DEFPOINTS
 62
     0
100
AcDbPoint
 10
161.7994400336811
 20
101.6415184299373
 30
0.0
  0
ENDBLK
  5
7CB
330
7BF
100
AcDbEntity
  8
0
100
AcDbBlockEnd
  0
BLOCK
  5
7D7
330
7CC
100
AcDbEntity
  8
0
100
AcDbBlockBegin
  2
*D6
 70
     1
 10
0.0
 20
0.0
 30
0.0
  3
*D6
  1

  0
LINE
  5
7CD
330
7CC
100
AcDbEntity
  8
0
 62
     0
370
    -2
100
AcDbLine
 10
122.200000476309
 20
120.6415184299373
 30
0.0
 11
107.0310809799514
 21
120.6415184299373
 31
0.0
  0
LINE
  5
7CE
330
7CC
100
AcDbEntity
  8
0
 62
     0
370
    -2
100
AcDbLine
 10
122.200000476309
 20
100.6415184299374
 30
0.0
 11
107.0310809799514
 21
100.6415184299374
 31
0.0
  0
LINE
  5
7CF
330
7CC
100
AcDbEntity
  8
0
 62
     0
370
    -2
100
AcDbLine
 10
107.2310809799514
 20
118.6415184299373
 30
0.0
 11
107.2310809799514
 21
113.0924860762901
 31
0.0
  0
LINE
  5
7D0
330
7CC
100
AcDbEntity
  8
0
 62
     0
370
    -2
100
AcDbLine
 10
107.2310809799514
 20
102.6415184299373
 30
0.0
 11
107.2310809799514
 21
107.5924860762901
 31
0.0
  0
SOLID
  5
7D1
330
7CC
100
AcDbEntity
  8
0
 62
     0
100
AcDbTrace
 10
106.8977476466181
 20
118.6415184299373
 30
0.0
 11
107.5644143132847
 21
118.6415184299373
 31
0.0
 12
107.2310809799514
 22
120.6415184299373
 32
0.0
 13
107.2310809799514
 23
120.6415184299373
 33
0.0
  0
SOLID
  5
7D2
330
7CC
100
AcDbEntity
  8
0
 62
     0
100
AcDbTrace
 10
106.8977476466181
 20
102.6415184299373
 30
0.0
 11
107.5644143132847
 21
102.6415184299373
 31
0.0
 12
107.2310809799514
 22
100.6415184299374
 32
0.0
 13
107.2310809799514
 23
100.6415184299374
 33
0.0
  0
MTEXT
  5
7D3
330
7CC
100
AcDbEntity
  8
0
 62
     0
100
AcDbMText
 10
107.2310809799514
 20
110.3424860762901
 30
0.0
 40
3.5
 41
0.0
 71
     5
 72
     1
  1
\A1;%%c20
 11
0.0000000000000001
 21
1.0
 31
0.0
 73
     1
 44
1.0
  0
POINT
  5
7D4
330
7CC
100
AcDbEntity
  8
DEFPOINTS
 62
     0
100
AcDbPoint
 10
122.300000476309
 20
120.6415184299373
 30
0.0
  0
POINT
  5
7D5
330
7CC
100
AcDbEntity
  8
DEFPOINTS
 62
     0
100
AcDbPoint
 10
122.300000476309
 20
100.6415184299374
 30
0.0
  0
POINT
  5
7D6
330
7CC
100
AcDbEntity
  8
DEFPOINTS
 62
     0
100
AcDbPoint
 10
107.2310809799514
 20
100.6415184299374
 30
0.0
  0
ENDBLK
  5
7D8
330
7CC
100
AcDbEntity
  8
0
100
AcDbBlockEnd
  0
BLOCK
  5
7E4
330
7D9
100
AcDbEntity
  8
0
100
AcDbBlockBegin
  2
*D7
 70
     1
 10
0.0
 20
0.0
 30
0.0
  3
*D7
  1

  0
LINE
  5
7DA
330
7D9
100
AcDbEntity
  8
0
 62
     0
370
    -2
100
AcDbLine
 10
216.4564800344925
 20
136.1415184299375
 30
0.0
 11
175.8674875846709
 21
136.1415184299375
 31
0.0
  0
LINE
  5
7DB
330
7D9
100
AcDbEntity
  8
0
 62
     0
370
    -2
100
AcDbLine
 10
216.4564800344925
 20
85.1415184299374
 30
0.0
 11
175.8674875846709
 21
85.1415184299374
 31
0.0
  0
LINE
  5
7DC
330
7D9
100
AcDbEntity
  8
0
 62
     0
370
    -2
100
AcDbLine
 10
176.0674875846709
 20
134.1415184299375
 30
0.0
 11
176.0674875846709
 21
114.7929207848577
 31
0.0
  0
LINE
  5
7DD
330
7D9
100
AcDbEntity
  8
0
 62
     0
370
    -2
100
AcDbLine
 10
176.0674875846709
 20
87.14151842993741
 30
0.0
 11
176.0674875846709
 21
109.2929207848577
 31
0.0
  0
SOLID
  5
7DE
330
7D9
100
AcDbEntity
  8
0
 62
     0
100
AcDbTrace
 10
175.7341542513376
 20
134.1415184299375
 30
0.0
 11
176.4008209180043
 21
134.1415184299375
 31
0.0
 12
176.0674875846709
 22
136.1415184299375
 32
0.0
 13
176.0674875846709
 23
136.1415184299375
 33
0.0
  0
SOLID
  5
7DF
330
7D9
100
AcDbEntity
  8
0
 62
     0
100
AcDbTrace
 10
175.7341542513376
 20
87.14151842993741
 30
0.0
 11
176.4008209180043
 21
87.14151842993741
 31
0.0
 12
176.0674875846709
 22
85.1415184299374
 32
0.0
 13
176.0674875846709
 23
85.1415184299374
 33
0.0
  0
MTEXT
  5
7E0
330
7D9
100
AcDbEntity
  8
0
 62
     0
100
AcDbMText
 10
176.0674875846709
 20
112.0429207848578
 30
0.0
 40
3.5
 41
0.0
 71
     5
 72
     1
  1
\A1;%%C50
 11
0.0000000000000001
 21
1.0
 31
0.0
 73
     1
 44
1.0
  0
POINT
  5
7E1
330
7D9
100
AcDbEntity
  8
DEFPOINTS
 62
     0
100
AcDbPoint
 10
216.5564800344925
 20
136.1415184299375
 30
0.0
  0
POINT
  5
7E2
330
7D9
100
AcDbEntity
  8
DEFPOINTS
 62
     0
100
AcDbPoint
 10
216.5564800344925
 20
85.1415184299374
 30
0.0
  0
POINT
  5
7E3
330
7D9
100
AcDbEntity
  8
DEFPOINTS
 62
     0
100
AcDbPoint
 10
176.0674875846709
 20
85.1415184299374
 30
0.0
  0
ENDBLK
  5
7E5
330
7D9
100
AcDbEntity
  8
0
100
AcDbBlockEnd
  0
BLOCK
  5
7F1
330
7E6
100
AcDbEntity
  8
0
100
AcDbBlockBegin
  2
*D8
 70
     1
 10
0.0
 20
0.0
 30
0.0
  3
*D8
  1

  0
LINE
  5
7E7
330
7E6
100
AcDbEntity
  8
0
 62
     0
370
    -2
100
AcDbLine
 10
141.5000004763102
 20
100.5415184299373
 30
0.0
 11
141.5000004763102
 21
81.34503927822462
 31
0.0
  0
LINE
  5
7E8
330
7E6
100
AcDbEntity
  8
0
 62
     0
370
    -2
100
AcDbLine
 10
121.500000476309
 20
101.3415184299374
 30
0.0
 11
121.500000476309
 21
81.34503927822462
 31
0.0
  0
LINE
  5
7E9
330
7E6
100
AcDbEntity
  8
0
 62
     0
370
    -2
100
AcDbLine
 10
139.5000004763102
 20
81.54503927822462
 30
0.0
 11
132.8518093373508
 21
81.54503927822462
 31
0.0
  0
LINE
  5
7EA
330
7E6
100
AcDbEntity
  8
0
 62
     0
370
    -2
100
AcDbLine
 10
123.500000476309
 20
81.54503927822462
 30
0.0
 11
129.2518093373508
 21
81.54503927822462
 31
0.0
  0
SOLID
  5
7EB
330
7E6
100
AcDbEntity
  8
0
 62
     0
100
AcDbTrace
 10
139.5000004763102
 20
81.87837261155795
 30
0.0
 11
139.5000004763102
 21
81.21170594489129
 31
0.0
 12
141.5000004763102
 22
81.54503927822462
 32
0.0
 13
141.5000004763102
 23
81.54503927822462
 33
0.0
  0
SOLID
  5
7EC
330
7E6
100
AcDbEntity
  8
0
 62
     0
100
AcDbTrace
 10
123.500000476309
 20
81.87837261155795
 30
0.0
 11
123.500000476309
 21
81.21170594489129
 31
0.0
 12
121.500000476309
 22
81.54503927822462
 32
0.0
 13
121.500000476309
 23
81.54503927822462
 33
0.0
  0
MTEXT
  5
7ED
330
7E6
100
AcDbEntity
  8
0
 62
     0
100
AcDbMText
 10
131.0518093373508
 20
81.54503927822462
 30
0.0
 40
3.5
 41
0.0
 71
     5
 72
     1
  1
\A1;20
 73
     1
 44
1.0
  0
POINT
  5
7EE
330
7E6
100
AcDbEntity
  8
DEFPOINTS
 62
     0
100
AcDbPoint
 10
141.5000004763102
 20
100.6415184299374
 30
0.0
  0
POINT
  5
7EF
330
7E6
100
AcDbEntity
  8
DEFPOINTS
 62
     0
100
AcDbPoint
 10
121.500000476309
 20
101.4415184299374
 30
0.0
  0
POINT
  5
7F0
330
7E6
100
AcDbEntity
  8
DEFPOINTS
 62
     0
100
AcDbPoint
 10
121.500000476309
 20
81.54503927822462
 30
0.0
  0
ENDBLK
  5
7F2
330
7E6
100
AcDbEntity
  8
0
100
AcDbBlockEnd
  0
BLOCK
  5
878
330
86D
100
AcDbEntity
  8
0
100
AcDbBlockBegin
  2
*D10
 70
     1
 10
0.0
 20
0.0
 30
0.0
  3
*D10
  1

  0
LINE
  5
8BD
330
86D
100
AcDbEntity
  8
0
 62
     0
370
    -2
100
AcDbLine
 10
96.12369449952176
 20
85.04134178067181
 30
0.0
 11
96.12369449952176
 21
65.84486262895902
 31
0.0
  0
LINE
  5
8BE
330
86D
100
AcDbEntity
  8
0
 62
     0
370
    -2
100
AcDbLine
 10
76.12369449952052
 20
85.84134178067181
 30
0.0
 11
76.12369449952052
 21
65.84486262895902
 31
0.0
  0
LINE
  5
8BF
330
86D
100
AcDbEntity
  8
0
 62
     0
370
    -2
100
AcDbLine
 10
94.12369449952175
 20
66.04486262895902
 30
0.0
 11
87.2755033605623
 21
66.04486262895902
 31
0.0
  0
LINE
  5
8C0
330
86D
100
AcDbEntity
  8
0
 62
     0
370
    -2
100
AcDbLine
 10
78.12369449952052
 20
66.04486262895902
 30
0.0
 11
84.07550336056232
 21
66.04486262895902
 31
0.0
  0
MTEXT
  5
8C1
330
86D
100
AcDbEntity
  8
0
 62
     0
100
AcDbMText
 10
85.67550336056232
 20
66.04486262895902
 30
0.0
 40
2.0
 41
0.0
 71
     5
 72
     1
  1
\A1;20
 73
     1
 44
1.0
  0
SOLID
  5
8C2
330
86D
100
AcDbEntity
  8
0
 62
     0
100
AcDbTrace
 10
94.12369449952175
 20
66.37819596229235
 30
0.0
 11
94.12369449952175
 21
65.71152929562569
 31
0.0
 12
96.12369449952176
 22
66.04486262895902
 32
0.0
 13
96.12369449952176
 23
66.04486262895902
 33
0.0
  0
SOLID
  5
8C3
330
86D
100
AcDbEntity
  8
0
 62
     0
100
AcDbTrace
 10
78.12369449952052
 20
66.37819596229235
 30
0.0
 11
78.12369449952052
 21
65.71152929562569
 31
0.0
 12
76.12369449952052
 22
66.04486262895902
 32
0.0
 13
76.12369449952052
 23
66.04486262895902
 33
0.0
  0
POINT
  5
8C4
330
86D
100
AcDbEntity
  8
DEFPOINTS
 62
     0
100
AcDbPoint
 10
96.12369449952176
 20
85.14134178067179
 30
0.0
  0
POINT
  5
8C5
330
86D
100
AcDbEntity
  8
DEFPOINTS
 62
     0
100
AcDbPoint
 10
76.12369449952052
 20
85.9413417806718
 30
0.0
  0
POINT
  5
8C6
330
86D
100
AcDbEntity
  8
DEFPOINTS
 62
     0
100
AcDbPoint
 10
76.12369449952052
 20
66.04486262895902
 30
0.0
  0
ENDBLK
  5
879
330
86D
100
AcDbEntity
  8
0
100
AcDbBlockEnd
  0
BLOCK
  5
885
330
87A
100
AcDbEntity
  8
0
100
AcDbBlockBegin
  2
*D11
 70
     1
 10
0.0
 20
0.0
 30
0.0
  3
*D11
  1

  0
LINE
  5
8D1
330
87A
100
AcDbEntity
  8
0
 62
     0
370
    -2
100
AcDbLine
 10
76.82369449952054
 20
105.1413417806718
 30
0.0
 11
61.65477500316296
 21
105.1413417806718
 31
0.0
  0
LINE
  5
8D2
330
87A
100
AcDbEntity
  8
0
 62
     0
370
    -2
100
AcDbLine
 10
76.82369449952054
 20
85.14134178067179
 30
0.0
 11
61.65477500316296
 21
85.14134178067179
 31
0.0
  0
LINE
  5
8D3
330
87A
100
AcDbEntity
  8
0
 62
     0
370
    -2
100
AcDbLine
 10
61.85477500316295
 20
103.1413417806718
 30
0.0
 11
61.85477500316295
 21
97.44230942702456
 31
0.0
  0
LINE
  5
8D4
330
87A
100
AcDbEntity
  8
0
 62
     0
370
    -2
100
AcDbLine
 10
61.85477500316295
 20
87.1413417806718
 30
0.0
 11
61.85477500316295
 21
92.24230942702456
 31
0.0
  0
MTEXT
  5
8D5
330
87A
100
AcDbEntity
  8
0
 62
     0
100
AcDbMText
 10
61.85477500316292
 20
94.84230942702458
 30
0.0
 40
2.0
 41
0.0
 71
     5
 72
     1
  1
\A1;%%c20
 11
0.0000000000000001
 21
1.0
 31
0.0
 73
     1
 44
1.0
  0
SOLID
  5
8D6
330
87A
100
AcDbEntity
  8
0
 62
     0
100
AcDbTrace
 10
61.52144166982962
 20
103.1413417806718
 30
0.0
 11
62.18810833649629
 21
103.1413417806718
 31
0.0
 12
61.85477500316295
 22
105.1413417806718
 32
0.0
 13
61.85477500316295
 23
105.1413417806718
 33
0.0
  0
SOLID
  5
8D7
330
87A
100
AcDbEntity
  8
0
 62
     0
100
AcDbTrace
 10
61.52144166982962
 20
87.1413417806718
 30
0.0
 11
62.18810833649629
 21
87.1413417806718
 31
0.0
 12
61.85477500316295
 22
85.14134178067179
 32
0.0
 13
61.85477500316295
 23
85.14134178067179
 33
0.0
  0
POINT
  5
8D8
330
87A
100
AcDbEntity
  8
DEFPOINTS
 62
     0
100
AcDbPoint
 10
76.92369449952053
 20
105.1413417806718
 30
0.0
  0
POINT
  5
8D9
330
87A
100
AcDbEntity
  8
DEFPOINTS
 62
     0
100
AcDbPoint
 10
76.92369449952053
 20
85.14134178067179
 30
0.0
  0
POINT
  5
8DA
330
87A
100
AcDbEntity
  8
DEFPOINTS
 62
     0
100
AcDbPoint
 10
61.85477500316295
 20
85.14134178067179
 30
0.0
  0
ENDBLK
  5
886
330
87A
100
AcDbEntity
  8
0
100
AcDbBlockEnd
  0
BLOCK
  5
892
330
887
100
AcDbEntity
  8
0
100
AcDbBlockBegin
  2
*D12
 70
     1
 10
0.0
 20
0.0
 30
0.0
  3
*D12
  1

  0
LINE
  5
8E5
330
887
100
AcDbEntity
  8
0
 62
     0
370
    -2
100
AcDbLine
 10
171.080174057704
 20
120.6413417806719
 30
0.0
 11
130.4911816078824
 21
120.6413417806719
 31
0.0
  0
LINE
  5
8E6
330
887
100
AcDbEntity
  8
0
 62
     0
370
    -2
100
AcDbLine
 10
171.080174057704
 20
69.64134178067181
 30
0.0
 11
130.4911816078824
 21
69.64134178067182
 31
0.0
  0
LINE
  5
8E7
330
887
100
AcDbEntity
  8
0
 62
     0
370
    -2
100
AcDbLine
 10
130.6911816078824
 20
118.6413417806719
 30
0.0
 11
130.6911816078824
 21
99.14274413559219
 31
0.0
  0
LINE
  5
8E8
330
887
100
AcDbEntity
  8
0
 62
     0
370
    -2
100
AcDbLine
 10
130.6911816078824
 20
71.64134178067183
 30
0.0
 11
130.6911816078824
 21
93.94274413559219
 31
0.0
  0
MTEXT
  5
8E9
330
887
100
AcDbEntity
  8
0
 62
     0
100
AcDbMText
 10
130.6911816078824
 20
96.54274413559221
 30
0.0
 40
2.0
 41
0.0
 71
     5
 72
     1
  1
\A1;%%C50
 11
0.0000000000000001
 21
1.0
 31
0.0
 73
     1
 44
1.0
  0
SOLID
  5
8EA
330
887
100
AcDbEntity
  8
0
 62
     0
100
AcDbTrace
 10
130.3578482745491
 20
118.6413417806719
 30
0.0
 11
131.0245149412158
 21
118.6413417806719
 31
0.0
 12
130.6911816078824
 22
120.6413417806719
 32
0.0
 13
130.6911816078824
 23
120.6413417806719
 33
0.0
  0
SOLID
  5
8EB
330
887
100
AcDbEntity
  8
0
 62
     0
100
AcDbTrace
 10
130.3578482745491
 20
71.64134178067183
 30
0.0
 11
131.0245149412158
 21
71.64134178067183
 31
0.0
 12
130.6911816078824
 22
69.64134178067182
 32
0.0
 13
130.6911816078824
 23
69.64134178067182
 33
0.0
  0
POINT
  5
8EC
330
887
100
AcDbEntity
  8
DEFPOINTS
 62
     0
100
AcDbPoint
 10
171.180174057704
 20
120.6413417806719
 30
0.0
  0
POINT
  5
8ED
330
887
100
AcDbEntity
  8
DEFPOINTS
 62
     0
100
AcDbPoint
 10
171.180174057704
 20
69.64134178067181
 30
0.0
  0
POINT
  5
8EE
330
887
100
AcDbEntity
  8
DEFPOINTS
 62
     0
100
AcDbPoint
 10
130.6911816078824
 20
69.64134178067182
 30
0.0
  0
ENDBLK
  5
893
330
887
100
AcDbEntity
  8
0
100
AcDbBlockEnd
  0
BLOCK
  5
89B
330
894
100
AcDbEntity
  8
0
100
AcDbBlockBegin
  2
*D13
 70
     1
 10
0.0
 20
0.0
 30
0.0
  3
*D13
  1

  0
LINE
  5
8F5
330
894
100
AcDbEntity
  8
0
 62
     0
370
    -2
100
AcDbLine
 10
162.2615878951607
 20
80.23148814895716
 30
0.0
 11
180.0987602202472
 21
110.0511954123864
 31
0.0
  0
MTEXT
  5
8F6
330
894
100
AcDbEntity
  8
0
 62
     0
100
AcDbMText
 10
193.1217224583401
 20
123.9653009096714
 30
0.0
 40
2.0
 41
0.0
 71
     5
 72
     1
  1
\A1;%%c39
 11
0.5133387878987208
 21
0.8581860455860791
 31
0.0
 73
     1
 44
1.0
  0
SOLID
  5
8F7
330
894
100
AcDbEntity
  8
0
 62
     0
100
AcDbTrace
 10
161.9755258799653
 20
80.40260107825671
 30
0.0
 11
162.547649910356
 21
80.06037521965756
 31
0.0
 12
161.2349103193632
 22
78.51511605778502
 32
0.0
 13
161.2349103193632
 23
78.51511605778502
 33
0.0
  0
SOLID
  5
8F8
330
894
100
AcDbEntity
  8
0
 62
     0
100
AcDbTrace
 10
179.8126982050518
 20
110.2223083416859
 30
0.0
 11
180.3848222354425
 21
109.8800824830868
 31
0.0
 12
181.1254377960446
 22
111.7675675035585
 32
0.0
 13
181.1254377960446
 23
111.7675675035585
 33
0.0
  0
POINT
  5
8F9
330
894
100
AcDbEntity
  8
DEFPOINTS
 62
     0
100
AcDbPoint
 10
181.1254377960446
 20
111.7675675035585
 30
0.0
  0
POINT
  5
8FA
330
894
100
AcDbEntity
  8
DEFPOINTS
 62
     0
100
AcDbPoint
 10
161.2349103193632
 20
78.51511605778502
 30
0.0
  0
ENDBLK
  5
89C
330
894
100
AcDbEntity
  8
0
100
AcDbBlockEnd
  0
BLOCK
  5
8A4
330
89D
100
AcDbEntity
  8
0
100
AcDbBlockBegin
  2
*D14
 70
     1
 10
0.0
 20
0.0
 30
0.0
  3
*D14
  1

  0
LINE
  5
901
330
89D
100
AcDbEntity
  8
0
 62
     0
370
    -2
100
AcDbLine
 10
166.2441244439166
 20
90.17793426060755
 30
0.0
 11
176.116223671491
 21
100.104749300736
 31
0.0
  0
MTEXT
  5
902
330
89D
100
AcDbEntity
  8
0
 62
     0
100
AcDbMText
 10
193.9114976507861
 20
113.2223263180489
 30
0.0
 40
2.0
 41
0.0
 71
     5
 72
     1
  1
\A1;%%c18
 11
0.7051499448267506
 21
0.709058217152041
 31
0.0
 73
     1
 44
1.0
  0
SOLID
  5
903
330
89D
100
AcDbEntity
  8
0
 62
     0
100
AcDbTrace
 10
166.0077717048659
 20
90.41298424221649
 30
0.0
 11
166.4804771829673
 21
89.94288427899864
 31
0.0
 12
164.8338245542631
 22
88.75981782630345
 32
0.0
 13
164.8338245542631
 23
88.75981782630345
 33
0.0
  0
SOLID
  5
904
330
89D
100
AcDbEntity
  8
0
 62
     0
100
AcDbTrace
 10
175.8798709324403
 20
100.3397992823449
 30
0.0
 11
176.3525764105416
 21
99.8696993191271
 31
0.0
 12
177.5265235611445
 22
101.52286573504
 32
0.0
 13
177.5265235611445
 23
101.52286573504
 33
0.0
  0
POINT
  5
905
330
89D
100
AcDbEntity
  8
DEFPOINTS
 62
     0
100
AcDbPoint
 10
177.5265235611445
 20
101.52286573504
 30
0.0
  0
POINT
  5
906
330
89D
100
AcDbEntity
  8
DEFPOINTS
 62
     0
100
AcDbPoint
 10
164.8338245542631
 20
88.75981782630345
 30
0.0
  0
ENDBLK
  5
8A5
330
89D
100
AcDbEntity
  8
0
100
AcDbBlockEnd
  0
BLOCK
  5
8B1
330
8A6
100
AcDbEntity
  8
0
100
AcDbBlockBegin
  2
*D15
 70
     1
 10
0.0
 20
0.0
 30
0.0
  3
*D15
  1

  0
LINE
  5
911
330
8A6
100
AcDbEntity
  8
0
 62
     0
370
    -2
100
AcDbLine
 10
97.22369449952175
 20
104.1413417806718
 30
0.0
 11
116.6231340568926
 21
104.1413417806718
 31
0.0
  0
LINE
  5
912
330
8A6
100
AcDbEntity
  8
0
 62
     0
370
    -2
100
AcDbLine
 10
97.22369449952175
 20
86.1413417806718
 30
0.0
 11
116.6231340568925
 21
86.1413417806718
 31
0.0
  0
LINE
  5
913
330
8A6
100
AcDbEntity
  8
0
 62
     0
370
    -2
100
AcDbLine
 10
116.4231340568926
 20
102.1413417806718
 30
0.0
 11
116.4231340568926
 21
97.38885587150177
 31
0.0
  0
LINE
  5
914
330
8A6
100
AcDbEntity
  8
0
 62
     0
370
    -2
100
AcDbLine
 10
116.4231340568925
 20
88.14134178067179
 30
0.0
 11
116.4231340568925
 21
94.52218920483508
 31
0.0
  0
MTEXT
  5
915
330
8A6
100
AcDbEntity
  8
0
 62
     0
100
AcDbMText
 10
116.4231340568925
 20
95.95552253816844
 30
0.0
 40
2.0
 41
0.0
 71
     5
 72
     1
  1
\A1;18
 11
0.0000000000000001
 21
1.0
 31
0.0
 73
     1
 44
1.0
  0
SOLID
  5
916
330
8A6
100
AcDbEntity
  8
0
 62
     0
100
AcDbTrace
 10
116.0898007235592
 20
102.1413417806718
 30
0.0
 11
116.7564673902259
 21
102.1413417806718
 31
0.0
 12
116.4231340568926
 22
104.1413417806718
 32
0.0
 13
116.4231340568926
 23
104.1413417806718
 33
0.0
  0
SOLID
  5
917
330
8A6
100
AcDbEntity
  8
0
 62
     0
100
AcDbTrace
 10
116.0898007235592
 20
88.14134178067179
 30
0.0
 11
116.7564673902259
 21
88.14134178067179
 31
0.0
 12
116.4231340568925
 22
86.1413417806718
 32
0.0
 13
116.4231340568925
 23
86.1413417806718
 33
0.0
  0
POINT
  5
918
330
8A6
100
AcDbEntity
  8
DEFPOINTS
 62
     0
100
AcDbPoint
 10
97.12369449952175
 20
104.1413417806718
 30
0.0
  0
POINT
  5
919
330
8A6
100
AcDbEntity
  8
DEFPOINTS
 62
     0
100
AcDbPoint
 10
97.12369449952175
 20
86.1413417806718
 30
0.0
  0
POINT
  5
91A
330
8A6
100
AcDbEntity
  8
DEFPOINTS
 62
     0
100
AcDbPoint
 10
116.4231340568925
 20
86.1413417806718
 30
0.0
  0
ENDBLK
  5
8B2
330
8A6
100
AcDbEntity
  8
0
100
AcDbBlockEnd
  0
ENDSEC
  0
SECTION
  2
ENTITIES
  0
LINE
  5
836
330
665
100
AcDbEntity
  8
2
100
AcDbLine
 10
86.42369449952175
 20
105.1413417806718
 30
0.0
 11
96.12369449952176
 21
105.1413417806718
 31
0.0
  0
LINE
  5
837
330
665
100
AcDbEntity
  8
2
100
AcDbLine
 10
96.12369449952176
 20
85.14134178067179
 30
0.0
 11
86.42369449952175
 21
85.14134178067179
 31
0.0
  0
LINE
  5
838
330
665
100
AcDbEntity
  8
2
100
AcDbLine
 10
98.2552266397603
 20
77.68754527697033
 30
0.0
 11
92.12369449952053
 21
76.14134178067186
 31
0.0
  0
LINE
  5
839
330
665
100
AcDbEntity
  8
2
100
AcDbLine
 10
92.12369449952053
 20
80.54224763965756
 30
0.0
 11
98.2552266397603
 21
78.9909288605014
 31
0.0
  0
LINE
  5
83A
330
665
100
AcDbEntity
  8
2
100
AcDbLine
 10
98.2552266397603
 20
112.5951382843733
 30
0.0
 11
92.12369449952053
 21
114.1413417806717
 31
0.0
  0
LINE
  5
83B
330
665
100
AcDbEntity
  8
2
100
AcDbLine
 10
92.12369449952053
 20
109.740435921686
 30
0.0
 11
98.2552266397603
 21
111.2917547008422
 31
0.0
  0
ELLIPSE
  5
83C
330
665
100
AcDbEntity
  8
3
100
AcDbEllipse
 10
98.62369449952053
 20
95.14134178067182
 30
0.0
 11
-0.0000000000000339
 21
-6.526744703292021
 31
0.0
210
0.0
220
0.0
230
1.0
 40
0.8391971532590241
 41
0.0
 42
6.283185307179586
  0
ARC
  5
83D
330
665
100
AcDbEntity
  8
3
100
AcDbCircle
 10
98.62369449952053
 20
76.14134178067185
 30
0.0
 40
6.5
100
AcDbArc
 50
180.0
 51
0.0
  0
ARC
  5
83E
330
665
100
AcDbEntity
  8
3
100
AcDbCircle
 10
98.6236944995205
 20
63.06035724329437
 30
0.0
 40
14.00000000000023
100
AcDbArc
 50
68.16468906651744
 51
111.8353109334825
  0
ARC
  5
83F
330
665
100
AcDbEntity
  8
3
100
AcDbCircle
 10
98.62369449952053
 20
76.01773963725874
 30
0.0
 40
5.489173150552952
100
AcDbArc
 50
183.780966775217
 51
356.2190332247829
  0
ARC
  5
840
330
665
100
AcDbEntity
  8
3
100
AcDbCircle
 10
98.62369449951987
 20
127.2223263180529
 30
0.0
 40
14.00000000000385
100
AcDbArc
 50
248.1646890665254
 51
291.8353109334789
  0
ARC
  5
841
330
665
100
AcDbEntity
  8
3
100
AcDbCircle
 10
98.48768237333249
 20
114.4000949601365
 30
0.0
 40
5.345983615048816
100
AcDbArc
 50
358.1416437928862
 51
177.5794008769276
  0
ARC
  5
842
330
665
100
AcDbEntity
  8
3
100
AcDbCircle
 10
98.62369449952053
 20
114.1413417806717
 30
0.0
 40
6.5
100
AcDbArc
 50
0.0000000000008142
 51
179.9999999999991
  0
LINE
  5
843
330
665
100
AcDbEntity
  8
1
100
AcDbLine
 10
110.1236944995205
 20
95.14134178067182
 30
0.0
 11
71.12369449952052
 21
95.14134178067179
 31
0.0
  0
LINE
  5
844
330
665
100
AcDbEntity
  8
3
100
AcDbLine
 10
86.42369449952175
 20
109.1413417806718
 30
0.0
 11
86.42369449952175
 21
81.14134178067176
 31
0.0
  0
LINE
  5
845
330
665
100
AcDbEntity
  8
3
100
AcDbLine
 10
92.12369449952054
 20
76.14134178067182
 30
0.0
 11
92.12369449952053
 21
114.1413417806717
 31
0.0
  0
LINE
  5
846
330
665
100
AcDbEntity
  8
3
100
AcDbLine
 10
86.42369449952175
 20
81.14134178067176
 30
0.0
 11
92.12369449952053
 21
80.54224763965754
 31
0.0
  0
LINE
  5
848
330
665
100
AcDbEntity
  8
3
100
AcDbLine
 10
76.92369449952053
 20
105.1413417806718
 30
0.0
 11
76.92369449952053
 21
85.14134178067179
 31
0.0
  0
LINE
  5
849
330
665
100
AcDbEntity
  8
3
100
AcDbLine
 10
76.12369449952052
 20
85.9413417806718
 30
0.0
 11
76.12369449952052
 21
104.3413417806717
 31
0.0
  0
LINE
  5
84A
330
665
100
AcDbEntity
  8
2
100
AcDbLine
 10
76.12369449952052
 20
98.14134178067185
 30
0.0
 11
79.12369449952052
 21
95.14134178067182
 31
0.0
  0
LINE
  5
84B
330
665
100
AcDbEntity
  8
3
100
AcDbLine
 10
86.42369449952175
 20
85.14134178067179
 30
0.0
 11
76.92369449952053
 21
85.14134178067179
 31
0.0
  0
LINE
  5
84C
330
665
100
AcDbEntity
  8
3
100
AcDbLine
 10
76.92369449952053
 20
85.14134178067179
 30
0.0
 11
76.12369449952052
 21
85.9413417806718
 31
0.0
  0
LINE
  5
84D
330
665
100
AcDbEntity
  8
2
100
AcDbLine
 10
76.12369449952052
 20
92.14134178067181
 30
0.0
 11
79.12369449952052
 21
95.14134178067182
 31
0.0
  0
LINE
  5
84E
330
665
100
AcDbEntity
  8
3
100
AcDbLine
 10
76.92369449952053
 20
105.1413417806718
 30
0.0
 11
86.42369449952175
 21
105.1413417806718
 31
0.0
  0
LINE
  5
84F
330
665
100
AcDbEntity
  8
3
100
AcDbLine
 10
76.12369449952052
 20
104.3413417806717
 30
0.0
 11
76.92369449952053
 21
105.1413417806718
 31
0.0
  0
LINE
  5
850
330
665
100
AcDbEntity
  8
3
100
AcDbLine
 10
92.12369449952053
 20
109.740435921686
 30
0.0
 11
86.42369449952175
 21
109.1413417806718
 31
0.0
  0
LINE
  5
851
330
665
100
AcDbEntity
  8
2
100
AcDbLine
 10
96.12369449952176
 20
86.1413417806718
 30
0.0
 11
105.1129440605539
 21
75.76765724175309
 31
0.0
  0
LINE
  5
854
330
665
100
AcDbEntity
  8
3
100
AcDbLine
 10
105.1236944995205
 20
114.1413417806717
 30
0.0
 11
105.1236944995205
 21
76.14134178067182
 31
0.0
  0
CIRCLE
  5
855
330
665
100
AcDbEntity
  8
3
100
AcDbCircle
 10
171.180174057704
 20
95.14134178067182
 30
0.0
 40
19.37368453891872
  0
ARC
  5
856
330
665
100
AcDbEntity
  8
3
100
AcDbCircle
 10
171.1801740577043
 20
95.14134178067216
 30
0.0
 40
25.50000000000054
100
AcDbArc
 50
194.8416591380388
 51
225.1583408619603
  0
ARC
  5
857
330
665
100
AcDbEntity
  8
3
100
AcDbCircle
 10
171.180174057703
 20
95.14134178067221
 30
0.0
 40
25.50000000000107
100
AcDbArc
 50
314.8416591380407
 51
345.1583408619604
  0
LINE
  5
858
330
665
100
AcDbEntity
  8
1
100
AcDbLine
 10
171.180174057704
 20
125.6413417806716
 30
0.0
 11
171.180174057704
 21
64.64134178067199
 31
0.0
  0
ARC
  5
859
330
665
100
AcDbEntity
  8
3
100
AcDbCircle
 10
187.9301740577043
 20
66.12949075389273
 30
0.0
 40
11.00000000000048
100
AcDbArc
 50
83.57292581987383
 51
156.4270741801263
  0
LINE
  5
85A
330
665
100
AcDbEntity
  8
2
100
AcDbLine
 10
98.2552266397603
 20
78.9909288605014
 30
0.0
 11
98.2552266397603
 21
77.68754527697033
 31
0.0
  0
ARC
  5
85B
330
665
100
AcDbEntity
  8
3
100
AcDbCircle
 10
154.4301740577039
 20
66.1294907538932
 30
0.0
 40
10.99999999999999
100
AcDbArc
 50
23.57292581987276
 51
96.42707418012697
  0
ARC
  5
85C
330
665
100
AcDbEntity
  8
3
100
AcDbCircle
 10
171.180174057704
 20
95.14134178067321
 30
0.0
 40
25.5000000000014
100
AcDbArc
 50
254.8416591380404
 51
285.1583408619587
  0
ARC
  5
85E
330
665
100
AcDbEntity
  8
3
100
AcDbCircle
 10
187.9301740577047
 20
124.1531928074512
 30
0.0
 40
11.00000000000081
100
AcDbArc
 50
203.5729258198745
 51
276.4270741801237
  0
LINE
  5
85F
330
665
100
AcDbEntity
  8
1
100
AcDbLine
 10
201.680174057704
 20
95.14134178067179
 30
0.0
 11
140.680174057704
 21
95.14134178067182
 31
0.0
  0
LINE
  5
860
330
665
100
AcDbEntity
  8
2
100
AcDbLine
 10
96.12369449952176
 20
104.1413417806718
 30
0.0
 11
105.1236944995205
 21
114.1413417806717
 31
0.0
  0
LINE
  5
861
330
665
100
AcDbEntity
  8
2
100
AcDbLine
 10
98.2552266397603
 20
111.2917547008422
 30
0.0
 11
98.2552266397603
 21
112.5951382843733
 31
0.0
  0
LINE
  5
863
330
665
100
AcDbEntity
  8
2
100
AcDbLine
 10
96.12369449952176
 20
105.1413417806718
 30
0.0
 11
96.12369449952176
 21
85.14134178067179
 31
0.0
  0
LINE
  5
864
330
665
100
AcDbEntity
  8
2
100
AcDbLine
 10
96.12369449952176
 20
85.14134178067179
 30
0.0
 11
96.12369449952176
 21
86.1413417806718
 31
0.0
  0
LINE
  5
865
330
665
100
AcDbEntity
  8
2
100
AcDbLine
 10
96.12369449952176
 20
105.1413417806718
 30
0.0
 11
96.12369449952176
 21
104.1413417806718
 31
0.0
  0
ARC
  5
866
330
665
100
AcDbEntity
  8
3
100
AcDbCircle
 10
154.4301740577041
 20
124.1531928074504
 30
0.0
 40
10.99999999999989
100
AcDbArc
 50
263.5729258198729
 51
336.4270741801272
  0
ARC
  5
867
330
665
100
AcDbEntity
  8
3
100
AcDbCircle
 10
171.1801740577037
 20
95.14134178067196
 30
0.0
 40
25.49999999999974
100
AcDbArc
 50
134.8416591380396
 51
165.1583408619611
  0
ARC
  5
868
330
665
100
AcDbEntity
  8
3
100
AcDbCircle
 10
137.6801740577048
 20
95.14134178067216
 30
0.0
 40
10.99999999999918
100
AcDbArc
 50
323.5729258198704
 51
36.42707418012772
  0
CIRCLE
  5
869
330
665
100
AcDbEntity
  8
3
100
AcDbCircle
 10
171.180174057704
 20
95.14134178067182
 30
0.0
 40
8.999999999999914
  0
ARC
  5
86A
330
665
100
AcDbEntity
  8
3
100
AcDbCircle
 10
171.1801740577041
 20
95.14134178067173
 30
0.0
 40
25.50000000000018
100
AcDbArc
 50
74.84165913803957
 51
105.1583408619604
  0
ARC
  5
86B
330
665
100
AcDbEntity
  8
3
100
AcDbCircle
 10
171.1801740577053
 20
95.14134178067276
 30
0.0
 40
25.49999999999843
100
AcDbArc
 50
14.84165913803791
 51
45.15834086196034
  0
ARC
  5
86C
330
665
100
AcDbEntity
  8
3
100
AcDbCircle
 10
204.6801740577033
 20
95.14134178067205
 30
0.0
 40
10.99999999999931
100
AcDbArc
 50
143.5729258198722
 51
216.4270741801286
  0
ENDSEC
  0
SECTION
  2
OBJECTS
  0
DICTIONARY
  5
653
330
0
100
AcDbDictionary
281
     1
  3
ACAD_GROUP
350
654
  3
ACAD_LAYOUT
350
660
  3
ACAD_MLINESTYLE
350
65D
  3
ACAD_PLOTSETTINGS
350
65F
  3
ACAD_PLOTSTYLENAME
350
655
  3
AcDbVariableDictionary
350
7A3
  3
AcmDictionary
350
779
  3
AMG
350
6C1
  3
AMGSNAPSETTINGS
350
796
  3
DWGPROPS
350
7A8
  3
MAPISURF_MODULE
350
74C
  0
DICTIONARY
  5
79D
330
665
100
AcDbDictionary
280
     1
281
     1
  3
ACAD_INDEX
360
79E
  0
DICTIONARY
  5
654
102
{ACAD_REACTORS
330
653
102
}
330
653
100
AcDbDictionary
281
     1
  0
DICTIONARY
  5
660
102
{ACAD_REACTORS
330
653
102
}
330
653
100
AcDbDictionary
281
     1
  3
Model
350
668
  3
ﾚｲｱｳﾄ1
350
664
  0
DICTIONARY
  5
65D
102
{ACAD_REACTORS
330
653
102
}
330
653
100
AcDbDictionary
281
     1
  3
Standard
350
65E
  0
DICTIONARY
  5
65F
102
{ACAD_REACTORS
330
653
102
}
330
653
100
AcDbDictionary
281
     1
  0
ACDBDICTIONARYWDFLT
  5
655
102
{ACAD_REACTORS
330
653
102
}
330
653
100
AcDbDictionary
281
     1
  3
Normal
350
656
100
AcDbDictionaryWithDefault
340
656
  0
DICTIONARY
  5
7A3
102
{ACAD_REACTORS
330
653
102
}
330
653
100
AcDbDictionary
281
     1
  3
DIMASSOC
350
7A5
  3
INDEXCTL
350
7A4
  0
DICTIONARY
  5
779
102
{ACAD_REACTORS
330
653
102
}
330
653
100
AcDbDictionary
281
     1
  3
AcmBOMDATA
350
77A
  0
DICTIONARY
  5
6C1
102
{ACAD_REACTORS
330
653
102
}
330
653
100
AcDbDictionary
281
     1
  3
AcMgSettings
350
6C2
  3
AMGLAYCFG
350
786
  0
DICTIONARY
  5
796
102
{ACAD_REACTORS
330
653
102
}
330
653
100
AcDbDictionary
281
     1
  3
DIMENSION
350
79B
  3
FEA
350
79A
  3
HATCH (1)
350
797
  3
HATCH (2)
350
798
  3
SIMPLE WELD
350
79C
  3
SYMBOLS
350
799
  0
XRECORD
  5
7A8
102
{ACAD_REACTORS
330
653
102
}
330
653
100
AcDbXrecord
280
     1
  1
DWGPROPS COOKIE
  2

  3

  4

  6

  7

  8

  9

300
AmdtFileType=84
301
=
302
=
303
=
304
=
305
=
306
=
307
=
308
=
309
=
 40
0.0576652662037037
 41
2449839.785277777
 42
2456451.62142162
  1

 90
        1
  0
DICTIONARY
  5
79E
102
{ACAD_REACTORS
330
79D
102
}
330
79D
100
AcDbDictionary
281
     1
  3
*A1
350
79F
  0
LAYOUT
  5
668
102
{ACAD_REACTORS
330
660
102
}
330
660
100
AcDbPlotSettings
  1

  2
\\KONISHIDENXP\SHARP MX-2700FG
  4

  6

 40
0.0
 41
0.0
 42
0.0
 43
0.0
 44
0.0
 45
0.0
 46
0.0
 47
0.0
 48
0.0
 49
0.0
140
0.0
141
0.0
142
1.0
143
1.0
 70
  1712
 72
     0
 73
     0
 74
     0
  7

 75
     0
147
1.0
148
0.0
149
0.0
100
AcDbLayout
  1
Model
 70
     1
 71
     0
 10
0.0
 20
0.0
 11
12.0
 21
9.0
 12
0.0
 22
0.0
 32
0.0
 14
0.0
 24
0.0
 34
0.0
 15
0.0
 25
0.0
 35
0.0
146
0.0
 13
0.0
 23
0.0
 33
0.0
 16
1.0
 26
0.0
 36
0.0
 17
0.0
 27
1.0
 37
0.0
 76
     0
330
665
  0
LAYOUT
  5
664
102
{ACAD_REACTORS
330
660
102
}
330
660
100
AcDbPlotSettings
  1

  2
\\KONISHIDENXP\SHARP MX-2700FG
  4

  6

 40
0.0
 41
0.0
 42
0.0
 43
0.0
 44
0.0
 45
0.0
 46
0.0
 47
0.0
 48
0.0
 49
0.0
140
0.0
141
0.0
142
1.0
143
1.0
 70
   688
 72
     0
 73
     0
 74
     5
  7

 75
    16
147
1.0
148
0.0
149
0.0
100
AcDbLayout
  1
ﾚｲｱｳﾄ1
 70
     0
 71
     1
 10
0.0
 20
0.0
 11
12.0
 21
9.0
 12
0.0
 22
0.0
 32
0.0
 14
1.000000000000000E+20
 24
1.000000000000000E+20
 34
1.000000000000000E+20
 15
-1.000000000000000E+20
 25
-1.000000000000000E+20
 35
-1.000000000000000E+20
146
0.0
 13
0.0
 23
0.0
 33
0.0
 16
1.0
 26
0.0
 36
0.0
 17
0.0
 27
1.0
 37
0.0
 76
     0
330
661
  0
MLINESTYLE
  5
65E
102
{ACAD_REACTORS
330
65D
102
}
330
65D
100
AcDbMlineStyle
  2
STANDARD
 70
     0
  3

 62
   256
 51
90.0
 52
90.0
 71
     2
 49
0.5
 62
   256
  6
BYLAYER
 49
-0.5
 62
   256
  6
BYLAYER
  0
ACDBPLACEHOLDER
  5
656
102
{ACAD_REACTORS
330
655
102
}
330
655
  0
DICTIONARYVAR
  5
7A5
102
{ACAD_REACTORS
330
7A3
102
}
330
7A3
100
DictionaryVariables
280
     0
  1
0
  0
DICTIONARYVAR
  5
7A4
102
{ACAD_REACTORS
330
7A3
102
}
330
7A3
100
DictionaryVariables
280
     0
  1
1
  0
ACMDATADICTIONARY
  5
77A
102
{ACAD_REACTORS
330
779
102
}
330
779
100
AcDbDictionary
281
     1
  3
*A1
350
77B
100
AcmDataDictionary
  0
DICTIONARY
  5
6C2
102
{ACAD_REACTORS
330
6C1
102
}
330
6C1
100
AcDbDictionary
281
     1
  3
DWGSETTINGS
350
6C3
  0
ACAMGFILTERDAT
  5
79B
102
{ACAD_REACTORS
330
796
102
}
330
796
100
AcAmgFilterDat
 70
    15
  1
DIMENSION,AMDT_*_DIM
  2
*
  3
*
  4
*
  5
*
290
     1
  0
ACAMGFILTERDAT
  5
79A
102
{ACAD_REACTORS
330
796
102
}
330
796
100
AcAmgFilterDat
 70
    15
  1
*
  2
AM_FEA-AM_*
  3
*
  4
*
  5
*
290
     1
  0
ACAMGFILTERDAT
  5
797
102
{ACAD_REACTORS
330
796
102
}
330
796
100
AcAmgFilterDat
 70
    15
  1
HATCH
  2
*
  3
*
  4
*
  5
*
290
     1
  0
ACAMGFILTERDAT
  5
798
102
{ACAD_REACTORS
330
796
102
}
330
796
100
AcAmgFilterDat
 70
    15
  1
LINE
  2
8,8N,*-8,*-8N,AM_8,AM_8N,*-AM_8,*-AM_8N
  3
*
  4
*
  5
INSERT,STDPART2D
290
     1
  0
ACAMGFILTERDAT
  5
79C
102
{ACAD_REACTORS
330
796
102
}
330
796
100
AcAmgFilterDat
 70
    15
  1
ARC
  2
AM_5
  3
*
  4
2
  5
INSERT
290
     0
  0
ACAMGFILTERDAT
  5
799
102
{ACAD_REACTORS
330
796
102
}
330
796
100
AcAmgFilterDat
 70
    15
  1
ACMFCFRAME,ACMDATUMTARGET,ACMDATUMID,ACMWELDSYM,ACMSURFSYM,ACMFEATID,ACMPARTREF,ACMBALLOON,AMDTEDGESYM,AMGSCREWCALCTABLE
  2
*
  3
*
  4
*
  5
*
290
     1
  0
LAYER_INDEX
  5
79F
102
{ACAD_REACTORS
330
79E
102
}
330
79E
100
AcDbIndex
 40
2456451.627789884
100
AcDbLayerIndex
  8
0
360
7A0
 90
        0
  8
1
360
7A1
 90
        3
  8
2
360
7A2
 90
       15
  8
3
360
91C
 90
       32
  8
DEFPOINTS
360
91D
 90
        0
  0
ACMDATAENTRYBLOCK
  5
77B
102
{ACAD_REACTORS
330
77A
102
}
330
77A
100
AcmDataEntry
100
AcmDataEntryBlock
  0
IDBUFFER
  5
7A0
330
0
100
AcDbIdBuffer
  0
IDBUFFER
  5
7A1
330
0
100
AcDbIdBuffer
330
843
330
858
330
85F
  0
IDBUFFER
  5
7A2
330
0
100
AcDbIdBuffer
330
865
330
836
330
837
330
838
330
839
330
83A
330
83B
330
84A
330
84D
330
851
330
85A
330
860
330
861
330
863
330
864
  0
IDBUFFER
  5
91C
330
0
100
AcDbIdBuffer
330
850
330
854
330
855
330
856
330
857
330
859
330
85B
330
85C
330
85E
330
866
330
867
330
868
330
869
330
86A
330
86B
330
86C
330
83C
330
83D
330
83E
330
83F
330
840
330
841
330
842
330
844
330
845
330
846
330
848
330
849
330
84B
330
84C
330
84E
330
84F
  0
IDBUFFER
  5
91D
330
0
100
AcDbIdBuffer
  0
ENDSEC
  0
EOF
