  0
SECTION
  2
HEADER
  9
$ACADVER
  1
AC1009
  9
$INSBASE
 10
0.0
 20
0.0
 30
0.0
  9
$EXTMIN
 10
18.991470795580479
 20
8.9978030591711882
 30
-0.0015258207003583
  9
$EXTMAX
 10
171.01192516101511
 20
131.007843327252
 30
0.0000000349246037
  9
$LIMMIN
 10
0.0
 20
0.0
  9
$LIMMAX
 10
187.5
 20
135.0
  9
$ORTHOMODE
 70
     1
  9
$REGENMODE
 70
     1
  9
$FILLMODE
 70
     1
  9
$QTEXTMODE
 70
     0
  9
$MIRRTEXT
 70
     0
  9
$DRAGMODE
 70
     2
  9
$LTSCALE
 40
5.0
  9
$OSMODE
 70
   231
  9
$ATTMODE
 70
     1
  9
$TEXTSIZE
 40
5.0
  9
$TRACEWID
 40
0.05
  9
$TEXTSTYLE
  7
STANDARD
  9
$CLAYER
  8
0
  9
$CELTYPE
  6
BYLAYER
  9
$CECOLOR
 62
   256
  9
$DIMSCALE
 40
0.5
  9
$DIMASZ
 40
3.0
  9
$DIMEXO
 40
2.0
  9
$DIMDLI
 40
0.38
  9
$DIMRND
 40
0.0
  9
$DIMDLE
 40
0.0
  9
$DIMEXE
 40
2.0
  9
$DIMTP
 40
0.0
  9
$DIMTM
 40
0.0
  9
$DIMTXT
 40
3.2000000000000002
  9
$DIMCEN
 40
0.09
  9
$DIMTSZ
 40
0.0
  9
$DIMTOL
 70
     0
  9
$DIMLIM
 70
     0
  9
$DIMTIH
 70
     0
  9
$DIMTOH
 70
     0
  9
$DIMSE1
 70
     0
  9
$DIMSE2
 70
     0
  9
$DIMTAD
 70
     1
  9
$DIMZIN
 70
     0
  9
$DIMBLK
  1

  9
$DIMASO
 70
     1
  9
$DIMSHO
 70
     0
  9
$DIMPOST
  1

  9
$DIMAPOST
  1

  9
$DIMALT
 70
     0
  9
$DIMALTD
 70
     2
  9
$DIMALTF
 40
25.399999999999999
  9
$DIMLFAC
 40
1.0
  9
$DIMTOFL
 70
     0
  9
$DIMTVP
 40
1.6000000000000001
  9
$DIMTIX
 70
     1
  9
$DIMSOXD
 70
     0
  9
$DIMSAH
 70
     0
  9
$DIMBLK1
  1

  9
$DIMBLK2
  1

  9
$DIMSTYLE
  2
STANDARD
  9
$DIMCLRD
 70
     0
  9
$DIMCLRE
 70
     0
  9
$DIMCLRT
 70
     0
  9
$DIMTFAC
 40
1.0
  9
$DIMGAP
 40
0.09
  9
$LUNITS
 70
     2
  9
$LUPREC
 70
     4
  9
$SKETCHINC
 40
0.1
  9
$FILLETRAD
 40
0.3
  9
$AUNITS
 70
     0
  9
$AUPREC
 70
     0
  9
$MENU
  1
E:\r13\win\SUPPORT\ACAD
  9
$ELEVATION
 40
0.0
  9
$PELEVATION
 40
0.0
  9
$THICKNESS
 40
0.0
  9
$LIMCHECK
 70
     0
  9
$BLIPMODE
 70
     1
  9
$CHAMFERA
 40
0.0
  9
$CHAMFERB
 40
0.0
  9
$SKPOLY
 70
     0
  9
$TDCREATE
 40
2449839.7835069438
  9
$TDUPDATE
 40
2453236.8210760178
  9
$TDINDWG
 40
0.0001473958
  9
$TDUSRTIMER
 40
0.0001473958
  9
$USRTIMER
 70
     1
  9
$ANGBASE
 50
0.0
  9
$ANGDIR
 70
     0
  9
$PDMODE
 70
     0
  9
$PDSIZE
 40
0.0
  9
$PLINEWID
 40
0.0
  9
$COORDS
 70
     0
  9
$SPLFRAME
 70
     0
  9
$SPLINETYPE
 70
     6
  9
$SPLINESEGS
 70
     8
  9
$ATTDIA
 70
     0
  9
$ATTREQ
 70
     1
  9
$HANDLING
 70
-16383
  9
$HANDSEED
  5
53D
  9
$SURFTAB1
 70
     6
  9
$SURFTAB2
 70
     6
  9
$SURFTYPE
 70
     6
  9
$SURFU
 70
     6
  9
$SURFV
 70
     6
  9
$UCSNAME
  2

  9
$UCSORG
 10
0.0
 20
0.0
 30
0.0
  9
$UCSXDIR
 10
1.0
 20
0.0
 30
0.0
  9
$UCSYDIR
 10
0.0
 20
1.0
 30
0.0
  9
$PUCSNAME
  2

  9
$PUCSORG
 10
0.0
 20
0.0
 30
0.0
  9
$PUCSXDIR
 10
1.0
 20
0.0
 30
0.0
  9
$PUCSYDIR
 10
0.0
 20
1.0
 30
0.0
  9
$USERI1
 70
     0
  9
$USERI2
 70
     1
  9
$USERI3
 70
     1
  9
$USERI4
 70
     0
  9
$USERI5
 70
     0
  9
$USERR1
 40
0.0
  9
$USERR2
 40
0.0
  9
$USERR3
 40
0.0
  9
$USERR4
 40
0.0
  9
$USERR5
 40
0.0
  9
$WORLDVIEW
 70
     1
  9
$SHADEDGE
 70
     3
  9
$SHADEDIF
 70
    70
  9
$TILEMODE
 70
     1
  9
$MAXACTVP
 70
    16
  9
$PLIMCHECK
 70
     0
  9
$PEXTMIN
 10
1.0000000000000000E+020
 20
1.0000000000000000E+020
 30
1.0000000000000000E+020
  9
$PEXTMAX
 10
-1.0000000000000000E+020
 20
-1.0000000000000000E+020
 30
-1.0000000000000000E+020
  9
$PLIMMIN
 10
0.0
 20
0.0
  9
$PLIMMAX
 10
12.0
 20
9.0
  9
$UNITMODE
 70
     0
  9
$VISRETAIN
 70
     0
  9
$PLINEGEN
 70
     0
  9
$PSLTSCALE
 70
     0
  0
ENDSEC
  0
SECTION
  2
TABLES
  0
TABLE
  2
VPORT
 70
     3
  0
VPORT
  2
*ACTIVE
 70
     0
 10
0.0
 20
0.0
 11
1.0
 21
1.0
 12
95.001697978297827
 22
70.002823193211611
 13
0.0
 23
0.0
 14
5.0
 24
5.0
 15
5.0
 25
5.0
 16
0.0
 26
0.0
 36
1.0
 17
0.0
 27
0.0
 37
0.0
 40
181.06420559303891
 41
0.9407114624505929
 42
50.0
 43
0.0
 44
0.0
 50
0.0
 51
0.0
 71
     0
 72
   500
 73
     1
 74
     0
 75
     0
 76
     0
 77
     0
 78
     2
  0
ENDTAB
  0
TABLE
  2
LTYPE
 70
     3
  0
LTYPE
  2
CONTINUOUS
 70
     0
  3
Solid Line
 72
    65
 73
     0
 40
0.0
  0
LTYPE
  2
CENTER
 70
     0
  3
____ _ ____ _ ____ _ ____ _ ____ _ ____ _ ____
 72
    65
 73
     4
 40
2.0
 49
1.25
 49
-0.25
 49
0.25
 49
-0.25
  0
LTYPE
  2
HIDDEN
 70
     0
  3
_ _ _ _ _ _ _ _ _ _ _ _ _ _ _ _ _ _ _ _ _ _ _
 72
    65
 73
     2
 40
0.375
 49
0.25
 49
-0.125
  0
ENDTAB
  0
TABLE
  2
LAYER
 70
     4
  0
LAYER
  2
0
 70
     0
 62
     7
  6
CONTINUOUS
  0
LAYER
  2
1
 70
     0
 62
     1
  6
CENTER
  0
LAYER
  2
3
 70
     0
 62
     3
  6
CONTINUOUS
  0
LAYER
  2
2
 70
     0
 62
     2
  6
HIDDEN
  0
ENDTAB
  0
TABLE
  2
STYLE
 70
     1
  0
STYLE
  2
STANDARD
 70
     0
 40
0.0
 41
1.0
 50
0.0
 71
     0
 42
5.0
  3
TXT
  4
BIGFONT
  0
ENDTAB
  0
TABLE
  2
VIEW
 70
     1
  0
VIEW
  2
ALL
 70
     0
 40
135.0
 10
110.4957983193277
 20
67.5
 41
0.0
 11
0.0
 21
0.0
 31
1.0
 12
0.0
 22
0.0
 32
0.0
 42
0.0
 43
0.0
 44
0.0
 50
0.0
 71
     0
  0
ENDTAB
  0
TABLE
  2
UCS
 70
     0
  0
ENDTAB
  0
TABLE
  2
APPID
 70
     1
  0
APPID
  2
ACAD
 70
     0
  0
ENDTAB
  0
TABLE
  2
DIMSTYLE
 70
     1
  0
DIMSTYLE
  2
STANDARD
 70
     0
  3

  4

  5

  6

  7

 40
1.0
 41
0.18
 42
0.0625
 43
0.38
 44
0.18
 45
0.0
 46
0.0
 47
0.0
 48
0.0
140
0.18
141
0.09
142
0.0
143
25.399999999999999
144
1.0
145
0.0
146
1.0
147
0.09
 71
     0
 72
     0
 73
     1
 74
     1
 75
     0
 76
     0
 77
     0
 78
     0
170
     0
171
     2
172
     0
173
     0
174
     0
175
     0
176
     0
177
     0
178
     0
  0
ENDTAB
  0
ENDSEC
  0
SECTION
  2
BLOCKS
  0
BLOCK
  8
0
  2
$MODEL_SPACE
 70
     0
 10
0.0
 20
0.0
 30
0.0
  3
$MODEL_SPACE
  1

  0
ENDBLK
  5
4E5
  8
0
  0
BLOCK
 67
     1
  8
0
  2
$PAPER_SPACE
 70
     0
 10
0.0
 20
0.0
 30
0.0
  3
$PAPER_SPACE
  1

  0
ENDBLK
  5
4E3
 67
     1
  8
0
  0
ENDSEC
  0
SECTION
  2
ENTITIES
  0
LINE
  5
36
  8
1
 10
111.0622004157824
 20
69.999999999999986
 30
0.0
 11
84.062200415782456
 21
69.999999999999986
 31
0.0
  0
LINE
  5
37
  8
1
 10
56.000000000000043
 20
69.999999999999986
 30
0.0
 11
18.99999999999995
 21
70.000000000000014
 31
0.0
  0
LINE
  5
38
  8
1
 10
37.499999999999957
 20
51.50000000000005
 30
0.0
 11
37.5
 21
88.499999999999943
 31
0.0
  0
CIRCLE
  5
39
  8
0
 10
37.499999999999993
 20
70.0
 30
0.0
 40
16.0
  0
CIRCLE
  5
3A
  8
0
 10
37.499999999999993
 20
70.0
 30
0.0
 40
15.0
  0
CIRCLE
  5
3B
  8
0
 10
37.499999999999993
 20
70.0
 30
0.0
 40
13.5
  0
CIRCLE
  5
3C
  8
0
 10
37.499999999999993
 20
70.0
 30
0.0
 40
10.5
  0
ARC
  5
3D
  8
0
 10
37.499999999999979
 20
53.074999999999122
 30
0.0
 40
1.3
 50
46.928274776697883
 51
133.07172522330211
  0
ARC
  5
3E
  8
0
 10
42.730112629796231
 20
53.903368461703678
 30
0.0
 40
1.3
 50
64.928274776697975
 51
151.07172522330211
  0
ARC
  5
3F
  8
0
 10
47.448265395050612
 20
56.307387370203301
 30
0.0
 40
1.3
 50
82.928274776697876
 51
169.07172522330211
  0
ARC
  5
40
  8
0
 10
51.192612629796677
 20
60.05173460494936
 30
0.0
 40
1.3
 50
100.9282747766979
 51
187.07172522330211
  0
ARC
  5
41
  8
0
 10
53.596631538296307
 20
64.769887370203719
 30
0.0
 40
1.3
 50
118.9282747766978
 51
205.071725223302
  0
ARC
  5
42
  8
0
 10
54.425000000000871
 20
69.999999999999972
 30
0.0
 40
1.3
 50
136.928274776698
 51
223.071725223302
  0
ARC
  5
43
  8
0
 10
53.596631538296279
 20
75.230112629796238
 30
0.0
 40
1.3
 50
154.9282747766978
 51
241.07172522330211
  0
ARC
  5
44
  8
0
 10
51.192612629796692
 20
79.948265395050612
 30
0.0
 40
1.3
 50
172.928274776698
 51
259.07172522330211
  0
ARC
  5
45
  8
0
 10
47.448265395050633
 20
83.692612629796713
 30
0.0
 40
1.3
 50
190.9282747766978
 51
277.07172522330211
  0
ARC
  5
46
  8
0
 10
42.730112629796267
 20
86.096631538296322
 30
0.0
 40
1.3
 50
208.92827477669789
 51
295.07172522330211
  0
ARC
  5
47
  8
0
 10
37.499999999999993
 20
86.925000000000892
 30
0.0
 40
1.3
 50
226.9282747766978
 51
313.07172522330211
  0
ARC
  5
48
  8
0
 10
32.26988737020374
 20
86.096631538296322
 30
0.0
 40
1.3
 50
244.928274776698
 51
331.07172522330211
  0
ARC
  5
49
  8
0
 10
27.551734604949349
 20
83.692612629796727
 30
0.0
 40
1.3
 50
262.92827477669778
 51
349.07172522330211
  0
ARC
  5
4A
  8
0
 10
23.807387370203291
 20
79.948265395050626
 30
0.0
 40
1.3
 50
280.92827477669778
 51
7.0717252233020931
  0
ARC
  5
4B
  8
0
 10
21.403368461703678
 20
75.230112629796295
 30
0.0
 40
1.3
 50
298.928274776698
 51
25.071725223302089
  0
ARC
  5
4C
  8
0
 10
20.574999999999079
 20
70.000000000000043
 30
0.0
 40
1.3
 50
316.92827477669778
 51
43.071725223302089
  0
ARC
  5
4D
  8
0
 10
21.403368461703678
 20
64.769887370203719
 30
0.0
 40
1.3
 50
334.92827477669789
 51
61.071725223302089
  0
ARC
  5
4E
  8
0
 10
23.807387370203259
 20
60.051734604949402
 30
0.0
 40
1.3
 50
352.92827477669778
 51
79.071725223302096
  0
ARC
  5
4F
  8
0
 10
27.551734604949331
 20
56.307387370203301
 30
0.0
 40
1.3
 50
10.928274776697981
 51
97.071725223302096
  0
ARC
  5
50
  8
0
 10
32.269887370203719
 20
53.903368461703678
 30
0.0
 40
1.3
 50
28.928274776697879
 51
115.0717252233021
  0
LINE
  5
51
  8
0
 10
99.562200415782456
 20
61.499999999999972
 30
0.0
 11
107.2622004157824
 21
61.499999999999972
 31
0.0
  0
LINE
  5
52
  8
0
 10
98.562200415782485
 20
54.000000000000007
 30
0.0
 11
99.562200415782485
 21
55.0
 31
0.0
  0
LINE
  5
53
  8
0
 10
107.2622004157824
 20
61.499999999999972
 30
0.0
 11
108.2622004157824
 21
62.5
 31
0.0
  0
LINE
  5
54
  8
0
 10
107.2622004157824
 20
78.499999999999972
 30
0.0
 11
108.2622004157824
 21
77.499999999999972
 31
0.0
  0
LINE
  5
55
  8
0
 10
98.562200415782485
 20
86.0
 30
0.0
 11
99.562200415782485
 21
85.0
 31
0.0
  0
LINE
  5
56
  8
0
 10
87.187200415792645
 20
85.625000000010175
 30
0.0
 11
86.562200415782485
 21
85.0
 31
0.0
  0
LINE
  5
57
  8
0
 10
108.2622004157824
 20
74.999999999999986
 30
0.0
 11
108.5622004157824
 21
74.999999999999986
 31
0.0
  0
LINE
  5
58
  8
0
 10
108.2622004157824
 20
77.499999999999972
 30
0.0
 11
108.2622004157824
 21
62.5
 31
0.0
  0
LINE
  5
59
  8
0
 10
99.562200415782485
 20
78.5
 30
0.0
 11
107.2622004157824
 21
78.499999999999972
 31
0.0
  0
LINE
  5
5A
  8
0
 10
99.562200415782485
 20
85.0
 30
0.0
 11
99.562200415782485
 21
55.0
 31
0.0
  0
LINE
  5
5B
  8
0
 10
97.687200415782371
 20
86.0
 30
0.0
 11
98.562200415782485
 21
86.0
 31
0.0
  0
LINE
  5
5C
  8
0
 10
107.2622004157824
 20
78.499999999999972
 30
0.0
 11
107.2622004157824
 21
61.500000000000021
 31
0.0
  0
LINE
  5
5D
  8
0
 10
98.562200415782485
 20
86.0
 30
0.0
 11
98.562200415782485
 21
54.000000000000007
 31
0.0
  0
LINE
  5
5E
  8
2
 10
93.562200415782428
 20
72.999999999999915
 30
0.0
 11
93.562200415782485
 21
66.999999999999986
 31
0.0
  0
LINE
  5
5F
  8
0
 10
108.5622004157824
 20
64.999999999999986
 30
0.0
 11
108.2622004157824
 21
64.999999999999972
 31
0.0
  0
LINE
  5
60
  8
2
 10
95.562200415782485
 20
64.999999999999986
 30
0.0
 11
93.562200415782485
 21
66.999999999999986
 31
0.0
  0
LINE
  5
61
  8
2
 10
91.962200415782462
 20
80.499999999999972
 30
0.0
 11
91.962200415782462
 21
59.5
 31
0.0
  0
LINE
  5
62
  8
2
 10
91.962200415782462
 20
59.5
 30
0.0
 11
91.462200415782462
 21
59.5
 31
0.0
  0
LINE
  5
63
  8
2
 10
91.462200415782462
 20
59.5
 30
0.0
 11
91.462200415782462
 21
80.499999999999972
 31
0.0
  0
LINE
  5
64
  8
2
 10
86.562200415782456
 20
56.500000000000007
 30
0.0
 11
91.462200415782462
 21
59.5
 31
0.0
  0
LINE
  5
65
  8
0
 10
86.562200415782456
 20
54.999999999999979
 30
0.0
 11
86.562200415782485
 21
85.0
 31
0.0
  0
LINE
  5
66
  8
0
 10
108.5622004157824
 20
64.999999999999972
 30
0.0
 11
108.5622004157824
 21
75.0
 31
0.0
  0
LINE
  5
67
  8
0
 10
87.562200415782499
 20
70.887787373476087
 30
0.0
 11
97.312200415782485
 21
70.887787373476073
 31
0.0
  0
LINE
  5
68
  8
0
 10
87.562200415782499
 20
74.092318925506532
 30
0.0
 11
97.346494712238567
 21
74.092318925506532
 31
0.0
  0
LINE
  5
69
  8
0
 10
87.562200415782499
 20
75.780990858764639
 30
0.0
 11
97.312201369456744
 21
75.780990858764639
 31
0.0
  0
LINE
  5
6A
  8
0
 10
87.562200415782499
 20
78.6718405351981
 30
0.0
 11
97.349641698915235
 21
78.6718405351981
 31
0.0
  0
LINE
  5
6B
  8
0
 10
87.562200415782499
 20
80.108310680265561
 30
0.0
 11
97.312202548263059
 21
80.108310680265561
 31
0.0
  0
LINE
  5
6C
  8
0
 10
87.562200415782499
 20
82.402501973038738
 30
0.0
 11
97.362659288599275
 21
82.402501973038738
 31
0.0
  0
LINE
  5
6D
  8
0
 10
87.562200415782499
 20
83.446158623640216
 30
0.0
 11
97.312201369456787
 21
83.446158623640216
 31
0.0
  0
LINE
  5
6E
  8
0
 10
87.562200415782499
 20
84.919120104445824
 30
0.0
 11
97.312200415782414
 21
84.919120104445824
 31
0.0
  0
LINE
  5
6F
  8
0
 10
87.562200415782499
 20
85.467802876037084
 30
0.0
 11
97.312200415782456
 21
85.467802876037084
 31
0.0
  0
LINE
  5
70
  8
2
 10
108.0387004157824
 20
65.999999999999986
 30
0.0
 11
98.56220041578247
 21
65.999999999999986
 31
0.0
  0
LINE
  5
71
  8
2
 10
107.3622004157825
 20
66.676499999999876
 30
0.0
 11
96.562200415782456
 21
66.676499999999876
 31
0.0
  0
LINE
  5
72
  8
2
 10
96.562200415782456
 20
66.67649999999982
 30
0.0
 11
94.565240148444246
 21
69.999999999999986
 31
0.0
  0
LINE
  5
73
  8
2
 10
98.56220041578247
 20
65.999999999999986
 30
0.0
 11
98.56220041578247
 21
73.999999999999929
 31
0.0
  0
LINE
  5
74
  8
2
 10
96.562200415782456
 20
66.676499999999876
 30
0.0
 11
96.562200415782456
 21
73.323500000000138
 31
0.0
  0
LINE
  5
75
  8
2
 10
98.56220041578247
 20
66.000000000000043
 30
0.0
 11
97.390468044462267
 21
66.676499999999962
 31
0.0
  0
LINE
  5
76
  8
2
 10
107.3622004157824
 20
73.323499999999967
 30
0.0
 11
107.3622004157825
 21
66.676499999999905
 31
0.0
  0
LINE
  5
77
  8
2
 10
107.3622004157824
 20
66.676499999999962
 30
0.0
 11
108.5622004157824
 21
65.476499999999945
 31
0.0
  0
LINE
  5
78
  8
2
 10
95.562200415782485
 20
64.999999999999986
 30
0.0
 11
108.2622004157824
 21
64.999999999999986
 31
0.0
  0
LINE
  5
79
  8
2
 10
86.562200415782456
 20
83.499999999999972
 30
0.0
 11
91.462200415782462
 21
80.499999999999972
 31
0.0
  0
LINE
  5
7A
  8
2
 10
91.962200415782462
 20
80.499999999999972
 30
0.0
 11
91.462200415782462
 21
80.499999999999972
 31
0.0
  0
LINE
  5
7B
  8
2
 10
95.562200415782485
 20
74.999999999999986
 30
0.0
 11
93.562200415782485
 21
72.999999999999986
 31
0.0
  0
LINE
  5
7C
  8
2
 10
95.562200415782485
 20
74.999999999999986
 30
0.0
 11
108.2622004157824
 21
74.999999999999986
 31
0.0
  0
LINE
  5
7D
  8
2
 10
96.562200415782456
 20
73.323500000000152
 30
0.0
 11
94.565240148444246
 21
69.999999999999986
 31
0.0
  0
LINE
  5
7E
  8
2
 10
107.3622004157825
 20
73.323500000000095
 30
0.0
 11
96.562200415782456
 21
73.323500000000095
 31
0.0
  0
LINE
  5
7F
  8
2
 10
98.56220041578247
 20
73.999999999999929
 30
0.0
 11
97.390468044462267
 21
73.32350000000001
 31
0.0
  0
LINE
  5
80
  8
2
 10
108.0387004157824
 20
73.999999999999986
 30
0.0
 11
98.56220041578247
 21
73.999999999999986
 31
0.0
  0
LINE
  5
81
  8
2
 10
107.3622004157824
 20
73.32350000000001
 30
0.0
 11
108.5622004157824
 21
74.523500000000027
 31
0.0
  0
LINE
  5
82
  8
0
 10
87.562200415782499
 20
85.975350812407726
 30
0.0
 11
87.562200415782499
 21
85.467802876037041
 31
0.0
  0
LINE
  5
83
  8
0
 10
87.562200415782499
 20
85.975350812407726
 30
0.0
 11
97.312200415782428
 21
85.975350812407726
 31
0.0
  0
POLYLINE
  5
84
  8
0
 66
     1
 10
0.0
 20
0.0
 30
0.0
  0
VERTEX
  5
85
  8
0
 10
87.562200415782485
 20
80.108310680265561
 30
0.0
 42
0.2015894264067176
 50
90.0
  0
VERTEX
  5
86
  8
0
 10
87.441133395516033
 20
80.057431369382357
 30
0.0
 42
0.0977170379735125
 50
90.0
  0
VERTEX
  5
87
  8
0
 10
87.297035372837584
 20
79.83762869265351
 30
0.0
 42
0.0547927573384048
 70
     2
 50
247.9141022391737
  0
VERTEX
  5
88
  8
0
 10
87.218634338965188
 20
79.560812112626877
 30
0.0
 42
0.0416539519670256
 50
247.9141022391737
  0
VERTEX
  5
89
  8
0
 10
87.187200415782584
 20
79.184144567070405
 30
0.0
 42
0.0416539519669881
 50
90.0
  0
SEQEND
  5
8A
  8
0
  0
POLYLINE
  5
8B
  8
0
 66
     1
 10
0.0
 20
0.0
 30
0.0
  0
VERTEX
  5
8C
  8
0
 10
87.187200415782584
 20
79.184144567070433
 30
0.0
 42
0.0737304435607645
 50
90.0
  0
VERTEX
  5
8D
  8
0
 10
87.217208743219345
 20
78.981750580429662
 30
0.0
 42
0.0845717212532976
 50
90.0
  0
VERTEX
  5
8E
  8
0
 10
87.29703537283757
 20
78.821890912104323
 30
0.0
 42
0.1063921108588694
 70
     2
 50
306.20365064702992
  0
VERTEX
  5
8F
  8
0
 10
87.434312471409086
 20
78.699794482119444
 30
0.0
 42
0.1510088585334486
 50
306.20365064702992
  0
VERTEX
  5
90
  8
0
 10
87.562200415782499
 20
78.671840535194946
 30
0.0
 42
0.1294534172461018
 50
90.0
  0
SEQEND
  5
91
  8
0
  0
POLYLINE
  5
92
  8
0
 66
     1
 10
0.0
 20
0.0
 30
0.0
  0
VERTEX
  5
93
  8
0
 10
87.187200415782584
 20
74.828390537108803
 30
0.0
 42
0.0520405140106174
 50
90.0
  0
VERTEX
  5
94
  8
0
 10
87.218242260737483
 20
74.530951344296398
 30
0.0
 42
0.0658985238271168
 50
90.0
  0
VERTEX
  5
95
  8
0
 10
87.297035372837584
 20
74.307909309105924
 30
0.0
 42
0.1046205348859841
 70
     2
 50
296.99708196701903
  0
VERTEX
  5
96
  8
0
 10
87.442572522060331
 20
74.127815089383446
 30
0.0
 42
0.1996909920929194
 50
296.99708196701903
  0
VERTEX
  5
97
  8
0
 10
87.562200415782499
 20
74.092318925506532
 30
0.0
 42
0.172337143622725
 50
90.0
  0
SEQEND
  5
98
  8
0
  0
POLYLINE
  5
99
  8
0
 66
     1
 10
0.0
 20
0.0
 30
0.0
  0
VERTEX
  5
9A
  8
0
 10
87.562200415782499
 20
75.780990858764639
 30
0.0
 42
0.2055316714992537
 50
90.0
  0
VERTEX
  5
9B
  8
0
 10
87.442003430271654
 20
75.729403046295076
 30
0.0
 42
0.0965313913509376
 50
90.0
  0
VERTEX
  5
9C
  8
0
 10
87.297035372837385
 20
75.50198068431213
 30
0.0
 42
0.0533986296957384
 70
     2
 50
248.5124580243924
  0
VERTEX
  5
9D
  8
0
 10
87.218675574447516
 20
75.216998309419964
 30
0.0
 42
0.0404311354471943
 50
248.5124580243924
  0
VERTEX
  5
9E
  8
0
 10
87.187200415782286
 20
74.828390537108803
 30
0.0
 42
0.0404311354471791
 50
90.0
  0
SEQEND
  5
9F
  8
0
  0
POLYLINE
  5
A0
  8
0
 66
     1
 10
0.0
 20
0.0
 30
0.0
  0
VERTEX
  5
A1
  8
0
 10
87.187200415782584
 20
69.999999999999986
 30
0.0
 42
0.0433295665536456
 50
90.0
  0
VERTEX
  5
A2
  8
0
 10
87.218576102108415
 20
69.638621125337352
 30
0.0
 42
0.0566743414169658
 50
90.0
  0
VERTEX
  5
A3
  8
0
 10
87.297035372837627
 20
69.372239527963259
 30
0.0
 42
0.0992025570697266
 70
     2
 50
292.89911996388048
  0
VERTEX
  5
A4
  8
0
 10
87.447448266785656
 20
69.151161297537726
 30
0.0
 42
0.2280338981645266
 50
292.89911996388048
  0
VERTEX
  5
A5
  8
0
 10
87.562200415782499
 20
69.112212626541293
 30
0.0
 42
0.1963710675046459
 50
90.0
  0
SEQEND
  5
A6
  8
0
  0
POLYLINE
  5
A7
  8
0
 66
     1
 10
0.0
 20
0.0
 30
0.0
  0
VERTEX
  5
A8
  8
0
 10
87.56220041578247
 20
70.887787373476087
 30
0.0
 42
0.1963710675046226
 50
90.0
  0
VERTEX
  5
A9
  8
0
 10
87.439979293662773
 20
70.837860738288185
 30
0.0
 42
0.0992025570696904
 50
90.0
  0
VERTEX
  5
AA
  8
0
 10
87.297035372837584
 20
70.627760472036726
 30
0.0
 42
0.0566743414169369
 70
     2
 50
247.10088003612381
  0
VERTEX
  5
AB
  8
0
 10
87.218576102108415
 20
70.361378874662762
 30
0.0
 42
0.0433295665536664
 50
247.10088003612381
  0
VERTEX
  5
AC
  8
0
 10
87.187200415782584
 20
69.999999999999986
 30
0.0
 42
0.0433295665536456
 50
90.0
  0
SEQEND
  5
AD
  8
0
  0
LINE
  5
AE
  8
0
 10
87.562200415782499
 20
78.6718405351981
 30
0.0
 11
87.562200415782485
 21
75.780990858764653
 31
0.0
  0
LINE
  5
AF
  8
0
 10
87.562200415782485
 20
74.092318925506561
 30
0.0
 11
87.562200415782499
 21
70.887787373476101
 31
0.0
  0
POLYLINE
  5
B0
  8
0
 66
     1
 10
0.0
 20
0.0
 30
0.0
  0
VERTEX
  5
B1
  8
0
 10
87.187200415782584
 20
82.640890537109271
 30
0.0
 42
0.1453834159301123
 50
90.0
  0
VERTEX
  5
B2
  8
0
 10
87.212417545080143
 20
82.555997320847936
 30
0.0
 42
0.1071699662217274
 50
90.0
  0
VERTEX
  5
B3
  8
0
 10
87.297035372837584
 20
82.472324366897695
 30
0.0
 42
0.077350332773411
 70
     2
 50
327.555763887909
  0
VERTEX
  5
B4
  8
0
 10
87.425499928365625
 20
82.416204508643375
 30
0.0
 42
0.0789475685392101
 50
327.555763887909
  0
VERTEX
  5
B5
  8
0
 10
87.562200415782499
 20
82.402501973040387
 30
0.0
 42
0.0644571111103437
 50
90.0
  0
SEQEND
  5
B6
  8
0
  0
POLYLINE
  5
B7
  8
0
 66
     1
 10
0.0
 20
0.0
 30
0.0
  0
VERTEX
  5
B8
  8
0
 10
87.562200415782499
 20
83.446158623640216
 30
0.0
 42
0.1837701506072527
 50
90.0
  0
VERTEX
  5
B9
  8
0
 10
87.437183252591225
 20
83.398603780964123
 30
0.0
 42
0.1023570990015804
 50
90.0
  0
VERTEX
  5
BA
  8
0
 10
87.297035372834216
 20
83.210301061768405
 30
0.0
 42
0.06139380527182
 70
     2
 50
245.0293849661897
  0
VERTEX
  5
BB
  8
0
 10
87.218415989340571
 20
82.96753157146577
 30
0.0
 42
0.0476740870733025
 50
245.0293849661897
  0
VERTEX
  5
BC
  8
0
 10
87.187200415777795
 20
82.640890537109271
 30
0.0
 42
0.0476740870732675
 50
90.0
  0
SEQEND
  5
BD
  8
0
  0
LINE
  5
BE
  8
0
 10
87.562200415782499
 20
82.402501973038738
 30
0.0
 11
87.562200415782499
 21
80.108310680265561
 31
0.0
  0
POLYLINE
  5
BF
  8
0
 66
     1
 10
0.0
 20
0.0
 30
0.0
  0
VERTEX
  5
C0
  8
0
 10
87.562200415782499
 20
85.467802876037041
 30
0.0
 42
0.1488470320745859
 50
90.0
  0
VERTEX
  5
C1
  8
0
 10
87.429422727996183
 20
85.427380163593554
 30
0.0
 42
0.1070939314374275
 50
90.0
  0
VERTEX
  5
C2
  8
0
 10
87.297035372837584
 20
85.289857121377764
 30
0.0
 42
0.0758177480846394
 70
     2
 50
238.3155211582224
  0
VERTEX
  5
C3
  8
0
 10
87.217769773435364
 20
85.103236764551426
 30
0.0
 42
0.0626584555913342
 50
238.3155211582224
  0
VERTEX
  5
C4
  8
0
 10
87.187200415782584
 20
84.860258067112625
 30
0.0
 42
0.0626584555913199
 50
90.0
  0
SEQEND
  5
C5
  8
0
  0
POLYLINE
  5
C6
  8
0
 66
     1
 10
0.0
 20
0.0
 30
0.0
  0
VERTEX
  5
C7
  8
0
 10
87.187200415782584
 20
84.860258067112625
 30
0.0
 42
0.0162328826952284
 50
90.0
  0
VERTEX
  5
C8
  8
0
 10
87.342138019178265
 20
84.865289560825829
 30
0.0
 42
0.0226962008047463
 50
90.0
  0
VERTEX
  5
C9
  8
0
 10
87.452365458727485
 20
84.877498358693074
 30
0.0
 42
0.0516790455059756
 70
     2
 50
8.9206691496988508
  0
VERTEX
  5
CA
  8
0
 10
87.554621472574837
 20
84.904586959765538
 30
0.0
 50
8.9206691496988508
  0
VERTEX
  5
CB
  8
0
 10
87.562200415782499
 20
84.919120104445796
 30
0.0
 50
90.0
  0
SEQEND
  5
CC
  8
0
  0
LINE
  5
CD
  8
0
 10
87.562200415782499
 20
84.919120104445796
 30
0.0
 11
87.562200415782499
 21
83.446158623640216
 31
0.0
  0
POLYLINE
  5
CE
  8
0
 66
     1
 10
0.0
 20
0.0
 30
0.0
  0
VERTEX
  5
CF
  8
0
 10
87.187200415782584
 20
85.625000000000114
 30
0.0
 42
0.092572595455409
 50
90.0
  0
VERTEX
  5
D0
  8
0
 10
87.331873568602077
 20
85.652017066257599
 30
0.0
 42
0.0958395211622397
 50
90.0
  0
VERTEX
  5
D1
  8
0
 10
87.452365458727485
 20
85.727615377160078
 30
0.0
 42
0.1008530118927434
 70
     2
 50
43.053698806586652
  0
VERTEX
  5
D2
  8
0
 10
87.540862780340603
 20
85.852012837843844
 30
0.0
 42
0.1236287328816281
 50
43.053698806586652
  0
VERTEX
  5
D3
  8
0
 10
87.562200415777866
 20
85.975350812407726
 30
0.0
 42
0.1047089114758273
 50
90.0
  0
SEQEND
  5
D4
  8
0
  0
POLYLINE
  5
D5
  8
0
 66
     1
 10
0.0
 20
0.0
 30
0.0
  0
VERTEX
  5
D6
  8
0
 10
97.687200415782357
 20
84.860258067112625
 30
0.0
 42
-0.0162328826952284
 50
90.0
  0
VERTEX
  5
D7
  8
0
 10
97.532262812386676
 20
84.865289560825829
 30
0.0
 42
-0.0226962008047463
 50
90.0
  0
VERTEX
  5
D8
  8
0
 10
97.422035372837456
 20
84.877498358693074
 30
0.0
 42
-0.0516790455059756
 70
     2
 50
171.07933085030109
  0
VERTEX
  5
D9
  8
0
 10
97.319779358990104
 20
84.904586959765538
 30
0.0
 50
90.0
  0
VERTEX
  5
DA
  8
0
 10
97.312200415782428
 20
84.919120104445796
 30
0.0
 50
90.0
  0
SEQEND
  5
DB
  8
0
  0
POLYLINE
  5
DC
  8
0
 66
     1
 10
0.0
 20
0.0
 30
0.0
  0
VERTEX
  5
DD
  8
0
 10
97.312200415782456
 20
85.467802876037041
 30
0.0
 42
-0.1488470320745859
 50
90.0
  0
VERTEX
  5
DE
  8
0
 10
97.444978103568744
 20
85.427380163593554
 30
0.0
 42
-0.1070939314374275
 50
90.0
  0
VERTEX
  5
DF
  8
0
 10
97.577365458727343
 20
85.289857121377764
 30
0.0
 42
-0.0758177480846394
 70
     2
 50
301.68447884177749
  0
VERTEX
  5
E0
  8
0
 10
97.656631058129562
 20
85.103236764551426
 30
0.0
 42
-0.0626584555913342
 50
90.0
  0
VERTEX
  5
E1
  8
0
 10
97.687200415782357
 20
84.860258067112625
 30
0.0
 42
-0.0626584555913199
 50
90.0
  0
SEQEND
  5
E2
  8
0
  0
POLYLINE
  5
E3
  8
0
 66
     1
 10
0.0
 20
0.0
 30
0.0
  0
VERTEX
  5
E4
  8
0
 10
97.312200415782456
 20
83.446158623640216
 30
0.0
 42
-0.1837701506072527
 50
90.0
  0
VERTEX
  5
E5
  8
0
 10
97.437217578973744
 20
83.398603780964123
 30
0.0
 42
-0.1023570990015804
 50
90.0
  0
VERTEX
  5
E6
  8
0
 10
97.577365458730725
 20
83.210301061768405
 30
0.0
 42
-0.06139380527182
 70
     2
 50
294.9706150338103
  0
VERTEX
  5
E7
  8
0
 10
97.65598484222437
 20
82.96753157146577
 30
0.0
 42
-0.0476740870733025
 50
90.0
  0
VERTEX
  5
E8
  8
0
 10
97.687200415787146
 20
82.640890537109271
 30
0.0
 42
-0.0476740870732675
 50
90.0
  0
SEQEND
  5
E9
  8
0
  0
POLYLINE
  5
EA
  8
0
 66
     1
 10
0.0
 20
0.0
 30
0.0
  0
VERTEX
  5
EB
  8
0
 10
97.687200415782357
 20
82.640890537109271
 30
0.0
 42
-0.1453834159301123
 50
90.0
  0
VERTEX
  5
EC
  8
0
 10
97.661983286484798
 20
82.555997320847936
 30
0.0
 42
-0.1071699662217274
 50
90.0
  0
VERTEX
  5
ED
  8
0
 10
97.577365458727343
 20
82.472324366897695
 30
0.0
 42
-0.077350332773411
 70
     2
 50
212.44423611209089
  0
VERTEX
  5
EE
  8
0
 10
97.448900903199302
 20
82.416204508643375
 30
0.0
 42
-0.0789475685392101
 50
90.0
  0
VERTEX
  5
EF
  8
0
 10
97.312200415782428
 20
82.402501973040387
 30
0.0
 42
-0.0644571111103437
 50
90.0
  0
SEQEND
  5
F0
  8
0
  0
POLYLINE
  5
F1
  8
0
 66
     1
 10
0.0
 20
0.0
 30
0.0
  0
VERTEX
  5
F2
  8
0
 10
97.31220041578247
 20
70.887787373476087
 30
0.0
 42
-0.1963710675046226
 50
90.0
  0
VERTEX
  5
F3
  8
0
 10
97.434421537902153
 20
70.837860738288185
 30
0.0
 42
-0.0992025570696904
 50
90.0
  0
VERTEX
  5
F4
  8
0
 10
97.577365458727357
 20
70.627760472036726
 30
0.0
 42
-0.0566743414169369
 70
     2
 50
292.89911996387622
  0
VERTEX
  5
F5
  8
0
 10
97.655824729456526
 20
70.361378874662762
 30
0.0
 42
-0.0433295665536664
 50
90.0
  0
VERTEX
  5
F6
  8
0
 10
97.687200415782357
 20
69.999999999999986
 30
0.0
 42
-0.0433295665536456
 50
90.0
  0
SEQEND
  5
F7
  8
0
  0
POLYLINE
  5
F8
  8
0
 66
     1
 10
0.0
 20
0.0
 30
0.0
  0
VERTEX
  5
F9
  8
0
 10
97.687200415782357
 20
69.999999999999986
 30
0.0
 42
-0.0433295665536456
 50
90.0
  0
VERTEX
  5
FA
  8
0
 10
97.655824729456526
 20
69.638621125337352
 30
0.0
 42
-0.0566743414169658
 50
90.0
  0
VERTEX
  5
FB
  8
0
 10
97.577365458727314
 20
69.372239527963259
 30
0.0
 42
-0.0992025570697266
 70
     2
 50
247.10088003611941
  0
VERTEX
  5
FC
  8
0
 10
97.426952564779285
 20
69.151161297537726
 30
0.0
 42
-0.2280338981645266
 50
90.0
  0
VERTEX
  5
FD
  8
0
 10
97.312200415782456
 20
69.112212626541293
 30
0.0
 42
-0.1963710675046459
 50
90.0
  0
SEQEND
  5
FE
  8
0
  0
POLYLINE
  5
FF
  8
0
 66
     1
 10
0.0
 20
0.0
 30
0.0
  0
VERTEX
  5
100
  8
0
 10
97.312200415782456
 20
75.780990858764639
 30
0.0
 42
-0.2055316714992537
 50
90.0
  0
VERTEX
  5
101
  8
0
 10
97.432397401293287
 20
75.729403046295076
 30
0.0
 42
-0.0965313913509376
 50
90.0
  0
VERTEX
  5
102
  8
0
 10
97.577365458727542
 20
75.50198068431213
 30
0.0
 42
-0.0533986296957384
 70
     2
 50
291.48754197560748
  0
VERTEX
  5
103
  8
0
 10
97.655725257117439
 20
75.216998309419964
 30
0.0
 42
-0.0404311354471943
 50
90.0
  0
VERTEX
  5
104
  8
0
 10
97.687200415782655
 20
74.828390537108803
 30
0.0
 42
-0.0404311354471791
 50
90.0
  0
SEQEND
  5
105
  8
0
  0
POLYLINE
  5
106
  8
0
 66
     1
 10
0.0
 20
0.0
 30
0.0
  0
VERTEX
  5
107
  8
0
 10
97.687200415782357
 20
74.828390537108803
 30
0.0
 42
-0.0520405140106174
 50
90.0
  0
VERTEX
  5
108
  8
0
 10
97.656158570827444
 20
74.530951344296398
 30
0.0
 42
-0.0658985238271168
 50
90.0
  0
VERTEX
  5
109
  8
0
 10
97.577365458727343
 20
74.307909309105924
 30
0.0
 42
-0.1046205348859841
 70
     2
 50
243.00291803298089
  0
VERTEX
  5
10A
  8
0
 10
97.43182830950461
 20
74.127815089383446
 30
0.0
 42
-0.1996909920929194
 50
90.0
  0
VERTEX
  5
10B
  8
0
 10
97.312200415782456
 20
74.092318925506532
 30
0.0
 42
-0.172337143622725
 50
90.0
  0
SEQEND
  5
10C
  8
0
  0
POLYLINE
  5
10D
  8
0
 66
     1
 10
0.0
 20
0.0
 30
0.0
  0
VERTEX
  5
10E
  8
0
 10
97.687200415782357
 20
79.184144567070433
 30
0.0
 42
-0.0737304435607645
 50
90.0
  0
VERTEX
  5
10F
  8
0
 10
97.65719208834561
 20
78.981750580429662
 30
0.0
 42
-0.0845717212532976
 50
90.0
  0
VERTEX
  5
110
  8
0
 10
97.577365458727385
 20
78.821890912104323
 30
0.0
 42
-0.1063921108588694
 70
     2
 50
233.79634935297
  0
VERTEX
  5
111
  8
0
 10
97.440088360155855
 20
78.699794482119444
 30
0.0
 42
-0.1510088585334486
 50
90.0
  0
VERTEX
  5
112
  8
0
 10
97.312200415782456
 20
78.671840535194946
 30
0.0
 42
-0.1294534172461018
 50
90.0
  0
SEQEND
  5
113
  8
0
  0
POLYLINE
  5
114
  8
0
 66
     1
 10
0.0
 20
0.0
 30
0.0
  0
VERTEX
  5
115
  8
0
 10
97.31220041578247
 20
80.108310680265561
 30
0.0
 42
-0.2015894264067176
 50
90.0
  0
VERTEX
  5
116
  8
0
 10
97.433267436048908
 20
80.057431369382357
 30
0.0
 42
-0.0977170379735125
 50
90.0
  0
VERTEX
  5
117
  8
0
 10
97.577365458727343
 20
79.83762869265351
 30
0.0
 42
-0.0547927573384048
 70
     2
 50
292.08589776082619
  0
VERTEX
  5
118
  8
0
 10
97.655766492599767
 20
79.560812112626877
 30
0.0
 42
-0.0416539519670256
 50
90.0
  0
VERTEX
  5
119
  8
0
 10
97.687200415782357
 20
79.184144567070405
 30
0.0
 42
-0.0416539519669881
 50
90.0
  0
SEQEND
  5
11A
  8
0
  0
POLYLINE
  5
11B
  8
0
 66
     1
 10
0.0
 20
0.0
 30
0.0
  0
VERTEX
  5
11C
  8
0
 10
97.312200415782456
 20
85.975350812407726
 30
0.0
 42
0.0068051090718327
 50
90.0
  0
VERTEX
  5
11D
  8
0
 10
97.467461123994326
 20
85.977464042378273
 30
0.0
 42
0.0096044777403865
 50
90.0
  0
VERTEX
  5
11E
  8
0
 10
97.577365458727343
 20
85.982570392302762
 30
0.0
 42
0.0229390352869734
 70
     2
 50
3.7607085175068882
  0
VERTEX
  5
11F
  8
0
 10
97.683980381601714
 20
85.994508196520144
 30
0.0
 50
3.7607085175068882
  0
VERTEX
  5
120
  8
0
 10
97.687200415782371
 20
86.0
 30
0.0
 50
90.0
  0
SEQEND
  5
121
  8
0
  0
POLYLINE
  5
122
  8
0
 66
     1
 10
0.0
 20
0.0
 30
0.0
  0
VERTEX
  5
123
  8
0
 10
97.312200415782456
 20
54.024649187592253
 30
0.0
 42
-0.0068051090718327
 50
90.0
  0
VERTEX
  5
124
  8
0
 10
97.467461123994326
 20
54.022535957621713
 30
0.0
 42
-0.0096044777403865
 50
90.0
  0
VERTEX
  5
125
  8
0
 10
97.577365458727343
 20
54.017429607697217
 30
0.0
 42
-0.0229390352869734
 70
     2
 50
356.23929148249312
  0
VERTEX
  5
126
  8
0
 10
97.683980381601714
 20
54.005491803479828
 30
0.0
 50
90.0
  0
VERTEX
  5
127
  8
0
 10
97.687200415782371
 20
53.999999999999979
 30
0.0
 50
90.0
  0
SEQEND
  5
128
  8
0
  0
POLYLINE
  5
129
  8
0
 66
     1
 10
0.0
 20
0.0
 30
0.0
  0
VERTEX
  5
12A
  8
0
 10
97.31220041578247
 20
59.891689319734411
 30
0.0
 42
0.2015894264067176
 50
90.0
  0
VERTEX
  5
12B
  8
0
 10
97.433267436048908
 20
59.942568630617608
 30
0.0
 42
0.0977170379735125
 50
90.0
  0
VERTEX
  5
12C
  8
0
 10
97.577365458727343
 20
60.162371307346461
 30
0.0
 42
0.0547927573384048
 70
     2
 50
67.914102239173715
  0
VERTEX
  5
12D
  8
0
 10
97.655766492599767
 20
60.439187887373087
 30
0.0
 42
0.0416539519670256
 50
90.0
  0
VERTEX
  5
12E
  8
0
 10
97.687200415782357
 20
60.81585543292956
 30
0.0
 42
0.0416539519669881
 50
90.0
  0
SEQEND
  5
12F
  8
0
  0
POLYLINE
  5
130
  8
0
 66
     1
 10
0.0
 20
0.0
 30
0.0
  0
VERTEX
  5
131
  8
0
 10
97.687200415782357
 20
60.815855432929538
 30
0.0
 42
0.0737304435607645
 50
90.0
  0
VERTEX
  5
132
  8
0
 10
97.65719208834561
 20
61.01824941957031
 30
0.0
 42
0.0845717212532976
 50
90.0
  0
VERTEX
  5
133
  8
0
 10
97.577365458727385
 20
61.178109087895642
 30
0.0
 42
0.1063921108588694
 70
     2
 50
126.2036506470299
  0
VERTEX
  5
134
  8
0
 10
97.440088360155855
 20
61.300205517880528
 30
0.0
 42
0.1510088585334486
 50
90.0
  0
VERTEX
  5
135
  8
0
 10
97.312200415782456
 20
61.328159464805019
 30
0.0
 42
0.1294534172461018
 50
90.0
  0
SEQEND
  5
136
  8
0
  0
POLYLINE
  5
137
  8
0
 66
     1
 10
0.0
 20
0.0
 30
0.0
  0
VERTEX
  5
138
  8
0
 10
97.687200415782357
 20
65.171609462891155
 30
0.0
 42
0.0520405140106174
 50
90.0
  0
VERTEX
  5
139
  8
0
 10
97.656158570827444
 20
65.469048655703574
 30
0.0
 42
0.0658985238271168
 50
90.0
  0
VERTEX
  5
13A
  8
0
 10
97.577365458727343
 20
65.692090690894048
 30
0.0
 42
0.1046205348859841
 70
     2
 50
116.9970819670191
  0
VERTEX
  5
13B
  8
0
 10
97.43182830950461
 20
65.872184910616525
 30
0.0
 42
0.1996909920929194
 50
90.0
  0
VERTEX
  5
13C
  8
0
 10
97.312200415782456
 20
65.907681074493439
 30
0.0
 42
0.172337143622725
 50
90.0
  0
SEQEND
  5
13D
  8
0
  0
POLYLINE
  5
13E
  8
0
 66
     1
 10
0.0
 20
0.0
 30
0.0
  0
VERTEX
  5
13F
  8
0
 10
97.312200415782456
 20
64.219009141235333
 30
0.0
 42
0.2055316714992537
 50
90.0
  0
VERTEX
  5
140
  8
0
 10
97.432397401293287
 20
64.270596953704896
 30
0.0
 42
0.0965313913509376
 50
90.0
  0
VERTEX
  5
141
  8
0
 10
97.577365458727542
 20
64.498019315687841
 30
0.0
 42
0.0533986296957384
 70
     2
 50
68.512458024392416
  0
VERTEX
  5
142
  8
0
 10
97.655725257117439
 20
64.783001690579994
 30
0.0
 42
0.0404311354471943
 50
90.0
  0
VERTEX
  5
143
  8
0
 10
97.687200415782655
 20
65.171609462891155
 30
0.0
 42
0.0404311354471791
 50
90.0
  0
SEQEND
  5
144
  8
0
  0
POLYLINE
  5
145
  8
0
 66
     1
 10
0.0
 20
0.0
 30
0.0
  0
VERTEX
  5
146
  8
0
 10
97.687200415782357
 20
57.3591094628907
 30
0.0
 42
0.1453834159301123
 50
90.0
  0
VERTEX
  5
147
  8
0
 10
97.661983286484798
 20
57.444002679152028
 30
0.0
 42
0.1071699662217274
 50
90.0
  0
VERTEX
  5
148
  8
0
 10
97.577365458727343
 20
57.527675633102291
 30
0.0
 42
0.077350332773411
 70
     2
 50
147.555763887909
  0
VERTEX
  5
149
  8
0
 10
97.448900903199302
 20
57.583795491356611
 30
0.0
 42
0.0789475685392101
 50
90.0
  0
VERTEX
  5
14A
  8
0
 10
97.312200415782428
 20
57.597498026959592
 30
0.0
 42
0.0644571111103437
 50
90.0
  0
SEQEND
  5
14B
  8
0
  0
POLYLINE
  5
14C
  8
0
 66
     1
 10
0.0
 20
0.0
 30
0.0
  0
VERTEX
  5
14D
  8
0
 10
97.312200415782456
 20
56.55384137635977
 30
0.0
 42
0.1837701506072527
 50
90.0
  0
VERTEX
  5
14E
  8
0
 10
97.437217578973744
 20
56.601396219035848
 30
0.0
 42
0.1023570990015804
 50
90.0
  0
VERTEX
  5
14F
  8
0
 10
97.577365458730725
 20
56.789698938231581
 30
0.0
 42
0.06139380527182
 70
     2
 50
65.029384966189681
  0
VERTEX
  5
150
  8
0
 10
97.65598484222437
 20
57.032468428534202
 30
0.0
 42
0.0476740870733025
 50
90.0
  0
VERTEX
  5
151
  8
0
 10
97.687200415787146
 20
57.3591094628907
 30
0.0
 42
0.0476740870732675
 50
90.0
  0
SEQEND
  5
152
  8
0
  0
POLYLINE
  5
153
  8
0
 66
     1
 10
0.0
 20
0.0
 30
0.0
  0
VERTEX
  5
154
  8
0
 10
97.312200415782456
 20
54.532197123962931
 30
0.0
 42
0.1488470320745859
 50
90.0
  0
VERTEX
  5
155
  8
0
 10
97.444978103568744
 20
54.57261983640641
 30
0.0
 42
0.1070939314374275
 50
90.0
  0
VERTEX
  5
156
  8
0
 10
97.577365458727343
 20
54.710142878622207
 30
0.0
 42
0.0758177480846394
 70
     2
 50
58.315521158222467
  0
VERTEX
  5
157
  8
0
 10
97.656631058129562
 20
54.89676323544856
 30
0.0
 42
0.0626584555913342
 50
90.0
  0
VERTEX
  5
158
  8
0
 10
97.687200415782357
 20
55.139741932887347
 30
0.0
 42
0.0626584555913199
 50
90.0
  0
SEQEND
  5
159
  8
0
  0
POLYLINE
  5
15A
  8
0
 66
     1
 10
0.0
 20
0.0
 30
0.0
  0
VERTEX
  5
15B
  8
0
 10
97.687200415782357
 20
55.139741932887347
 30
0.0
 42
0.0162328826952284
 50
90.0
  0
VERTEX
  5
15C
  8
0
 10
97.532262812386676
 20
55.13471043917415
 30
0.0
 42
0.0226962008047463
 50
90.0
  0
VERTEX
  5
15D
  8
0
 10
97.422035372837456
 20
55.122501641306918
 30
0.0
 42
0.0516790455059756
 70
     2
 50
188.9206691496988
  0
VERTEX
  5
15E
  8
0
 10
97.319779358990104
 20
55.09541304023444
 30
0.0
 50
90.0
  0
VERTEX
  5
15F
  8
0
 10
97.312200415782428
 20
55.080879895554183
 30
0.0
 50
90.0
  0
SEQEND
  5
160
  8
0
  0
POLYLINE
  5
161
  8
0
 66
     1
 10
0.0
 20
0.0
 30
0.0
  0
VERTEX
  5
162
  8
0
 10
87.187200415782584
 20
54.374999999999858
 30
0.0
 42
-0.092572595455409
 50
90.0
  0
VERTEX
  5
163
  8
0
 10
87.331873568602077
 20
54.347982933742379
 30
0.0
 42
-0.0958395211622397
 50
90.0
  0
VERTEX
  5
164
  8
0
 10
87.452365458727485
 20
54.272384622839901
 30
0.0
 42
-0.1008530118927434
 70
     2
 50
316.94630119341338
  0
VERTEX
  5
165
  8
0
 10
87.540862780340603
 20
54.14798716215612
 30
0.0
 42
-0.1236287328816281
 50
90.0
  0
VERTEX
  5
166
  8
0
 10
87.562200415777866
 20
54.024649187592253
 30
0.0
 42
-0.1047089114758273
 50
90.0
  0
SEQEND
  5
167
  8
0
  0
LINE
  5
168
  8
0
 10
87.562200415782499
 20
55.080879895554183
 30
0.0
 11
87.562200415782499
 21
56.55384137635977
 31
0.0
  0
POLYLINE
  5
169
  8
0
 66
     1
 10
0.0
 20
0.0
 30
0.0
  0
VERTEX
  5
16A
  8
0
 10
87.187200415782584
 20
55.139741932887347
 30
0.0
 42
-0.0162328826952284
 50
90.0
  0
VERTEX
  5
16B
  8
0
 10
87.342138019178265
 20
55.13471043917415
 30
0.0
 42
-0.0226962008047463
 50
90.0
  0
VERTEX
  5
16C
  8
0
 10
87.452365458727485
 20
55.122501641306918
 30
0.0
 42
-0.0516790455059756
 70
     2
 50
351.07933085030112
  0
VERTEX
  5
16D
  8
0
 10
87.554621472574837
 20
55.09541304023444
 30
0.0
 50
90.0
  0
VERTEX
  5
16E
  8
0
 10
87.562200415782499
 20
55.080879895554183
 30
0.0
 50
90.0
  0
SEQEND
  5
16F
  8
0
  0
POLYLINE
  5
170
  8
0
 66
     1
 10
0.0
 20
0.0
 30
0.0
  0
VERTEX
  5
171
  8
0
 10
87.562200415782499
 20
54.532197123962931
 30
0.0
 42
-0.1488470320745859
 50
90.0
  0
VERTEX
  5
172
  8
0
 10
87.429422727996183
 20
54.57261983640641
 30
0.0
 42
-0.1070939314374275
 50
90.0
  0
VERTEX
  5
173
  8
0
 10
87.297035372837584
 20
54.710142878622207
 30
0.0
 42
-0.0758177480846394
 70
     2
 50
121.6844788417775
  0
VERTEX
  5
174
  8
0
 10
87.217769773435364
 20
54.89676323544856
 30
0.0
 42
-0.0626584555913342
 50
90.0
  0
VERTEX
  5
175
  8
0
 10
87.187200415782584
 20
55.139741932887347
 30
0.0
 42
-0.0626584555913199
 50
90.0
  0
SEQEND
  5
176
  8
0
  0
LINE
  5
177
  8
0
 10
87.562200415782499
 20
57.59749802696124
 30
0.0
 11
87.562200415782499
 21
59.891689319734411
 31
0.0
  0
POLYLINE
  5
178
  8
0
 66
     1
 10
0.0
 20
0.0
 30
0.0
  0
VERTEX
  5
179
  8
0
 10
87.562200415782499
 20
56.55384137635977
 30
0.0
 42
-0.1837701506072527
 50
90.0
  0
VERTEX
  5
17A
  8
0
 10
87.437183252591225
 20
56.601396219035848
 30
0.0
 42
-0.1023570990015804
 50
90.0
  0
VERTEX
  5
17B
  8
0
 10
87.297035372834216
 20
56.789698938231581
 30
0.0
 42
-0.06139380527182
 70
     2
 50
114.9706150338103
  0
VERTEX
  5
17C
  8
0
 10
87.218415989340571
 20
57.032468428534202
 30
0.0
 42
-0.0476740870733025
 50
90.0
  0
VERTEX
  5
17D
  8
0
 10
87.187200415777795
 20
57.3591094628907
 30
0.0
 42
-0.0476740870732675
 50
90.0
  0
SEQEND
  5
17E
  8
0
  0
POLYLINE
  5
17F
  8
0
 66
     1
 10
0.0
 20
0.0
 30
0.0
  0
VERTEX
  5
180
  8
0
 10
87.187200415782584
 20
57.3591094628907
 30
0.0
 42
-0.1453834159301123
 50
90.0
  0
VERTEX
  5
181
  8
0
 10
87.212417545080143
 20
57.444002679152028
 30
0.0
 42
-0.1071699662217274
 50
90.0
  0
VERTEX
  5
182
  8
0
 10
87.297035372837584
 20
57.527675633102291
 30
0.0
 42
-0.077350332773411
 70
     2
 50
32.444236112090998
  0
VERTEX
  5
183
  8
0
 10
87.425499928365625
 20
57.583795491356611
 30
0.0
 42
-0.0789475685392101
 50
90.0
  0
VERTEX
  5
184
  8
0
 10
87.562200415782499
 20
57.597498026959592
 30
0.0
 42
-0.0644571111103437
 50
90.0
  0
SEQEND
  5
185
  8
0
  0
LINE
  5
186
  8
0
 10
87.562200415782485
 20
65.907681074493411
 30
0.0
 11
87.562200415782499
 21
69.112212626523871
 31
0.0
  0
LINE
  5
187
  8
0
 10
87.562200415782499
 20
61.328159464801871
 30
0.0
 11
87.562200415782485
 21
64.219009141235318
 31
0.0
  0
POLYLINE
  5
188
  8
0
 66
     1
 10
0.0
 20
0.0
 30
0.0
  0
VERTEX
  5
189
  8
0
 10
87.562200415782499
 20
64.219009141235333
 30
0.0
 42
-0.2055316714992537
 50
90.0
  0
VERTEX
  5
18A
  8
0
 10
87.442003430271654
 20
64.270596953704896
 30
0.0
 42
-0.0965313913509376
 50
90.0
  0
VERTEX
  5
18B
  8
0
 10
87.297035372837385
 20
64.498019315687841
 30
0.0
 42
-0.0533986296957384
 70
     2
 50
111.4875419756076
  0
VERTEX
  5
18C
  8
0
 10
87.218675574447516
 20
64.783001690579994
 30
0.0
 42
-0.0404311354471943
 50
90.0
  0
VERTEX
  5
18D
  8
0
 10
87.187200415782286
 20
65.171609462891155
 30
0.0
 42
-0.0404311354471791
 50
90.0
  0
SEQEND
  5
18E
  8
0
  0
POLYLINE
  5
18F
  8
0
 66
     1
 10
0.0
 20
0.0
 30
0.0
  0
VERTEX
  5
190
  8
0
 10
87.187200415782584
 20
65.171609462891155
 30
0.0
 42
-0.0520405140106174
 50
90.0
  0
VERTEX
  5
191
  8
0
 10
87.218242260737483
 20
65.469048655703574
 30
0.0
 42
-0.0658985238271168
 50
90.0
  0
VERTEX
  5
192
  8
0
 10
87.297035372837584
 20
65.692090690894048
 30
0.0
 42
-0.1046205348859841
 70
     2
 50
63.002918032980951
  0
VERTEX
  5
193
  8
0
 10
87.442572522060331
 20
65.872184910616525
 30
0.0
 42
-0.1996909920929194
 50
90.0
  0
VERTEX
  5
194
  8
0
 10
87.562200415782499
 20
65.907681074493439
 30
0.0
 42
-0.172337143622725
 50
90.0
  0
SEQEND
  5
195
  8
0
  0
POLYLINE
  5
196
  8
0
 66
     1
 10
0.0
 20
0.0
 30
0.0
  0
VERTEX
  5
197
  8
0
 10
87.187200415782584
 20
60.815855432929538
 30
0.0
 42
-0.0737304435607645
 50
90.0
  0
VERTEX
  5
198
  8
0
 10
87.217208743219345
 20
61.01824941957031
 30
0.0
 42
-0.0845717212532976
 50
90.0
  0
VERTEX
  5
199
  8
0
 10
87.29703537283757
 20
61.178109087895642
 30
0.0
 42
-0.1063921108588694
 70
     2
 50
53.796349352970111
  0
VERTEX
  5
19A
  8
0
 10
87.434312471409086
 20
61.300205517880528
 30
0.0
 42
-0.1510088585334486
 50
90.0
  0
VERTEX
  5
19B
  8
0
 10
87.562200415782499
 20
61.328159464805019
 30
0.0
 42
-0.1294534172461018
 50
90.0
  0
SEQEND
  5
19C
  8
0
  0
POLYLINE
  5
19D
  8
0
 66
     1
 10
0.0
 20
0.0
 30
0.0
  0
VERTEX
  5
19E
  8
0
 10
87.562200415782485
 20
59.891689319734411
 30
0.0
 42
-0.2015894264067176
 50
90.0
  0
VERTEX
  5
19F
  8
0
 10
87.441133395516033
 20
59.942568630617608
 30
0.0
 42
-0.0977170379735125
 50
90.0
  0
VERTEX
  5
1A0
  8
0
 10
87.297035372837584
 20
60.162371307346461
 30
0.0
 42
-0.0547927573384048
 70
     2
 50
112.0858977608263
  0
VERTEX
  5
1A1
  8
0
 10
87.218634338965188
 20
60.439187887373087
 30
0.0
 42
-0.0416539519670256
 50
90.0
  0
VERTEX
  5
1A2
  8
0
 10
87.187200415782584
 20
60.81585543292956
 30
0.0
 42
-0.0416539519669881
 50
90.0
  0
SEQEND
  5
1A3
  8
0
  0
LINE
  5
1A4
  8
0
 10
87.562200415782499
 20
54.024649187592253
 30
0.0
 11
97.312200415782428
 21
54.024649187592253
 31
0.0
  0
LINE
  5
1A5
  8
0
 10
87.562200415782499
 20
54.024649187592253
 30
0.0
 11
87.562200415782499
 21
54.532197123962931
 31
0.0
  0
LINE
  5
1A6
  8
0
 10
87.562200415782499
 20
54.532197123962909
 30
0.0
 11
97.312200415782456
 21
54.532197123962909
 31
0.0
  0
LINE
  5
1A7
  8
0
 10
87.562200415782499
 20
55.080879895554162
 30
0.0
 11
97.312200415782414
 21
55.080879895554162
 31
0.0
  0
LINE
  5
1A8
  8
0
 10
87.562200415782499
 20
56.55384137635977
 30
0.0
 11
97.312201369456787
 21
56.55384137635977
 31
0.0
  0
LINE
  5
1A9
  8
0
 10
87.562200415782499
 20
57.59749802696124
 30
0.0
 11
97.362659288599275
 21
57.59749802696124
 31
0.0
  0
LINE
  5
1AA
  8
0
 10
87.562200415782499
 20
59.891689319734411
 30
0.0
 11
97.312202548263059
 21
59.891689319734411
 31
0.0
  0
LINE
  5
1AB
  8
0
 10
87.562200415782499
 20
61.328159464801871
 30
0.0
 11
97.349641698915235
 21
61.328159464801871
 31
0.0
  0
LINE
  5
1AC
  8
0
 10
87.562200415782499
 20
64.219009141235333
 30
0.0
 11
97.312201369456744
 21
64.219009141235333
 31
0.0
  0
LINE
  5
1AD
  8
0
 10
87.562200415782499
 20
65.907681074493439
 30
0.0
 11
97.346494712238567
 21
65.907681074493439
 31
0.0
  0
LINE
  5
1AE
  8
0
 10
87.562200415782499
 20
69.112212626523885
 30
0.0
 11
97.312200415782485
 21
69.112212626523885
 31
0.0
  0
LINE
  5
1AF
  8
0
 10
97.687200415782371
 20
53.999999999999979
 30
0.0
 11
98.562200415782485
 21
53.999999999999979
 31
0.0
  0
LINE
  5
1B0
  8
0
 10
87.187200415792645
 20
54.374999999989797
 30
0.0
 11
86.562200415782485
 21
54.999999999999979
 31
0.0
  0
LINE
  5
1BA
  8
0
 10
87.187200415792674
 20
99.374999999989797
 30
0.0
 11
86.562200415782485
 21
99.999999999999986
 31
0.0
  0
LINE
  5
1BB
  8
0
 10
97.687200415782385
 20
98.999999999999986
 30
0.0
 11
98.562200415782499
 21
98.999999999999986
 31
0.0
  0
LINE
  5
1BC
  8
0
 10
87.562200415782513
 20
114.1122126265239
 30
0.0
 11
97.312200415782499
 21
114.1122126265239
 31
0.0
  0
LINE
  5
1BD
  8
0
 10
87.562200415782499
 20
110.9076810744934
 30
0.0
 11
97.346494712238595
 21
110.9076810744934
 31
0.0
  0
LINE
  5
1BE
  8
0
 10
87.562200415782499
 20
109.2190091412353
 30
0.0
 11
97.312201369456758
 21
109.2190091412353
 31
0.0
  0
LINE
  5
1BF
  8
0
 10
87.562200415782499
 20
106.3281594648018
 30
0.0
 11
97.349641698915264
 21
106.3281594648018
 31
0.0
  0
LINE
  5
1C0
  8
0
 10
87.562200415782499
 20
104.8916893197344
 30
0.0
 11
97.312202548263073
 21
104.8916893197344
 31
0.0
  0
LINE
  5
1C1
  8
0
 10
87.562200415782513
 20
102.5974980269612
 30
0.0
 11
97.362659288599275
 21
102.5974980269612
 31
0.0
  0
LINE
  5
1C2
  8
0
 10
87.562200415782499
 20
101.5538413763597
 30
0.0
 11
97.312201369456801
 21
101.5538413763597
 31
0.0
  0
LINE
  5
1C3
  8
0
 10
87.562200415782499
 20
100.08087989555411
 30
0.0
 11
97.312200415782428
 21
100.08087989555411
 31
0.0
  0
LINE
  5
1C4
  8
0
 10
87.562200415782513
 20
99.532197123962902
 30
0.0
 11
97.31220041578247
 21
99.532197123962902
 31
0.0
  0
LINE
  5
1C5
  8
0
 10
87.562200415782499
 20
99.024649187592246
 30
0.0
 11
87.562200415782513
 21
99.532197123962931
 31
0.0
  0
LINE
  5
1C6
  8
0
 10
87.562200415782499
 20
99.024649187592246
 30
0.0
 11
97.312200415782456
 21
99.024649187592246
 31
0.0
  0
POLYLINE
  5
1C7
  8
0
 66
     1
 10
0.0
 20
0.0
 30
0.0
  0
VERTEX
  5
1C8
  8
0
 10
87.562200415782499
 20
104.8916893197344
 30
0.0
 42
-0.2015894264067176
 50
90.0
  0
VERTEX
  5
1C9
  8
0
 10
87.441133395516047
 20
104.9425686306176
 30
0.0
 42
-0.0977170379735125
 50
90.0
  0
VERTEX
  5
1CA
  8
0
 10
87.297035372837612
 20
105.1623713073464
 30
0.0
 42
-0.0547927573384048
 70
     2
 50
112.0858977608263
  0
VERTEX
  5
1CB
  8
0
 10
87.218634338965217
 20
105.439187887373
 30
0.0
 42
-0.0416539519670256
 50
90.0
  0
VERTEX
  5
1CC
  8
0
 10
87.187200415782598
 20
105.8158554329295
 30
0.0
 42
-0.0416539519669881
 50
90.0
  0
SEQEND
  5
1CD
  8
0
  0
POLYLINE
  5
1CE
  8
0
 66
     1
 10
0.0
 20
0.0
 30
0.0
  0
VERTEX
  5
1CF
  8
0
 10
87.187200415782598
 20
105.8158554329295
 30
0.0
 42
-0.0737304435607645
 50
90.0
  0
VERTEX
  5
1D0
  8
0
 10
87.217208743219359
 20
106.0182494195703
 30
0.0
 42
-0.0845717212532976
 50
90.0
  0
VERTEX
  5
1D1
  8
0
 10
87.297035372837584
 20
106.17810908789561
 30
0.0
 42
-0.1063921108588694
 70
     2
 50
53.796349352970111
  0
VERTEX
  5
1D2
  8
0
 10
87.434312471409086
 20
106.3002055178805
 30
0.0
 42
-0.1510088585334486
 50
90.0
  0
VERTEX
  5
1D3
  8
0
 10
87.562200415782499
 20
106.328159464805
 30
0.0
 42
-0.1294534172461018
 50
90.0
  0
SEQEND
  5
1D4
  8
0
  0
POLYLINE
  5
1D5
  8
0
 66
     1
 10
0.0
 20
0.0
 30
0.0
  0
VERTEX
  5
1D6
  8
0
 10
87.187200415782598
 20
110.1716094628911
 30
0.0
 42
-0.0520405140106174
 50
90.0
  0
VERTEX
  5
1D7
  8
0
 10
87.218242260737512
 20
110.4690486557035
 30
0.0
 42
-0.0658985238271168
 50
90.0
  0
VERTEX
  5
1D8
  8
0
 10
87.297035372837612
 20
110.69209069089401
 30
0.0
 42
-0.1046205348859841
 70
     2
 50
63.002918032980951
  0
VERTEX
  5
1D9
  8
0
 10
87.442572522060345
 20
110.8721849106165
 30
0.0
 42
-0.1996909920929194
 50
90.0
  0
VERTEX
  5
1DA
  8
0
 10
87.562200415782499
 20
110.9076810744934
 30
0.0
 42
-0.172337143622725
 50
90.0
  0
SEQEND
  5
1DB
  8
0
  0
POLYLINE
  5
1DC
  8
0
 66
     1
 10
0.0
 20
0.0
 30
0.0
  0
VERTEX
  5
1DD
  8
0
 10
87.562200415782499
 20
109.2190091412353
 30
0.0
 42
-0.2055316714992537
 50
90.0
  0
VERTEX
  5
1DE
  8
0
 10
87.442003430271654
 20
109.2705969537049
 30
0.0
 42
-0.0965313913509376
 50
90.0
  0
VERTEX
  5
1DF
  8
0
 10
87.297035372837414
 20
109.4980193156878
 30
0.0
 42
-0.0533986296957384
 70
     2
 50
111.4875419756076
  0
VERTEX
  5
1E0
  8
0
 10
87.218675574447516
 20
109.78300169057989
 30
0.0
 42
-0.0404311354471943
 50
90.0
  0
VERTEX
  5
1E1
  8
0
 10
87.187200415782286
 20
110.1716094628911
 30
0.0
 42
-0.0404311354471791
 50
90.0
  0
SEQEND
  5
1E2
  8
0
  0
LINE
  5
1E3
  8
0
 10
87.562200415782499
 20
106.3281594648018
 30
0.0
 11
87.562200415782499
 21
109.2190091412353
 31
0.0
  0
LINE
  5
1E4
  8
0
 10
87.562200415782499
 20
110.9076810744934
 30
0.0
 11
87.562200415782499
 21
114.1122126265238
 31
0.0
  0
POLYLINE
  5
1E5
  8
0
 66
     1
 10
0.0
 20
0.0
 30
0.0
  0
VERTEX
  5
1E6
  8
0
 10
87.187200415782598
 20
102.3591094628907
 30
0.0
 42
-0.1453834159301123
 50
90.0
  0
VERTEX
  5
1E7
  8
0
 10
87.212417545080157
 20
102.44400267915201
 30
0.0
 42
-0.1071699662217274
 50
90.0
  0
VERTEX
  5
1E8
  8
0
 10
87.297035372837612
 20
102.52767563310221
 30
0.0
 42
-0.077350332773411
 70
     2
 50
32.444236112090998
  0
VERTEX
  5
1E9
  8
0
 10
87.425499928365653
 20
102.5837954913565
 30
0.0
 42
-0.0789475685392101
 50
90.0
  0
VERTEX
  5
1EA
  8
0
 10
87.562200415782513
 20
102.5974980269595
 30
0.0
 42
-0.0644571111103437
 50
90.0
  0
SEQEND
  5
1EB
  8
0
  0
POLYLINE
  5
1EC
  8
0
 66
     1
 10
0.0
 20
0.0
 30
0.0
  0
VERTEX
  5
1ED
  8
0
 10
87.562200415782499
 20
101.5538413763597
 30
0.0
 42
-0.1837701506072527
 50
90.0
  0
VERTEX
  5
1EE
  8
0
 10
87.437183252591225
 20
101.60139621903581
 30
0.0
 42
-0.1023570990015804
 50
90.0
  0
VERTEX
  5
1EF
  8
0
 10
87.29703537283423
 20
101.7896989382315
 30
0.0
 42
-0.06139380527182
 70
     2
 50
114.9706150338103
  0
VERTEX
  5
1F0
  8
0
 10
87.218415989340585
 20
102.0324684285341
 30
0.0
 42
-0.0476740870733025
 50
90.0
  0
VERTEX
  5
1F1
  8
0
 10
87.187200415777795
 20
102.3591094628907
 30
0.0
 42
-0.0476740870732675
 50
90.0
  0
SEQEND
  5
1F2
  8
0
  0
LINE
  5
1F3
  8
0
 10
87.562200415782499
 20
102.5974980269612
 30
0.0
 11
87.562200415782499
 21
104.8916893197344
 31
0.0
  0
POLYLINE
  5
1F4
  8
0
 66
     1
 10
0.0
 20
0.0
 30
0.0
  0
VERTEX
  5
1F5
  8
0
 10
87.562200415782499
 20
99.532197123962931
 30
0.0
 42
-0.1488470320745859
 50
90.0
  0
VERTEX
  5
1F6
  8
0
 10
87.429422727996197
 20
99.572619836406403
 30
0.0
 42
-0.1070939314374275
 50
90.0
  0
VERTEX
  5
1F7
  8
0
 10
87.297035372837612
 20
99.710142878622207
 30
0.0
 42
-0.0758177480846394
 70
     2
 50
121.6844788417775
  0
VERTEX
  5
1F8
  8
0
 10
87.217769773435393
 20
99.89676323544856
 30
0.0
 42
-0.0626584555913342
 50
90.0
  0
VERTEX
  5
1F9
  8
0
 10
87.187200415782598
 20
100.1397419328873
 30
0.0
 42
-0.0626584555913199
 50
90.0
  0
SEQEND
  5
1FA
  8
0
  0
POLYLINE
  5
1FB
  8
0
 66
     1
 10
0.0
 20
0.0
 30
0.0
  0
VERTEX
  5
1FC
  8
0
 10
87.187200415782598
 20
100.1397419328873
 30
0.0
 42
-0.0162328826952284
 50
90.0
  0
VERTEX
  5
1FD
  8
0
 10
87.342138019178279
 20
100.1347104391741
 30
0.0
 42
-0.0226962008047463
 50
90.0
  0
VERTEX
  5
1FE
  8
0
 10
87.452365458727485
 20
100.1225016413069
 30
0.0
 42
-0.0516790455059756
 70
     2
 50
351.07933085030112
  0
VERTEX
  5
1FF
  8
0
 10
87.554621472574851
 20
100.0954130402344
 30
0.0
 50
90.0
  0
VERTEX
  5
200
  8
0
 10
87.562200415782513
 20
100.08087989555411
 30
0.0
 50
90.0
  0
SEQEND
  5
201
  8
0
  0
LINE
  5
202
  8
0
 10
87.562200415782499
 20
100.08087989555411
 30
0.0
 11
87.562200415782499
 21
101.5538413763597
 31
0.0
  0
POLYLINE
  5
203
  8
0
 66
     1
 10
0.0
 20
0.0
 30
0.0
  0
VERTEX
  5
204
  8
0
 10
87.187200415782598
 20
99.374999999999844
 30
0.0
 42
-0.092572595455409
 50
90.0
  0
VERTEX
  5
205
  8
0
 10
87.331873568602091
 20
99.347982933742372
 30
0.0
 42
-0.0958395211622397
 50
90.0
  0
VERTEX
  5
206
  8
0
 10
87.452365458727485
 20
99.272384622839894
 30
0.0
 42
-0.1008530118927434
 70
     2
 50
316.94630119341338
  0
VERTEX
  5
207
  8
0
 10
87.540862780340618
 20
99.147987162156113
 30
0.0
 42
-0.1236287328816281
 50
90.0
  0
VERTEX
  5
208
  8
0
 10
87.562200415777895
 20
99.024649187592246
 30
0.0
 42
-0.1047089114758273
 50
90.0
  0
SEQEND
  5
209
  8
0
  0
POLYLINE
  5
20A
  8
0
 66
     1
 10
0.0
 20
0.0
 30
0.0
  0
VERTEX
  5
20B
  8
0
 10
97.687200415782371
 20
100.1397419328873
 30
0.0
 42
0.0162328826952284
 50
90.0
  0
VERTEX
  5
20C
  8
0
 10
97.532262812386691
 20
100.1347104391741
 30
0.0
 42
0.0226962008047463
 50
90.0
  0
VERTEX
  5
20D
  8
0
 10
97.422035372837485
 20
100.1225016413069
 30
0.0
 42
0.0516790455059756
 70
     2
 50
188.9206691496988
  0
VERTEX
  5
20E
  8
0
 10
97.319779358990118
 20
100.0954130402344
 30
0.0
 50
90.0
  0
VERTEX
  5
20F
  8
0
 10
97.312200415782456
 20
100.08087989555411
 30
0.0
 50
90.0
  0
SEQEND
  5
210
  8
0
  0
POLYLINE
  5
211
  8
0
 66
     1
 10
0.0
 20
0.0
 30
0.0
  0
VERTEX
  5
212
  8
0
 10
97.31220041578247
 20
99.532197123962931
 30
0.0
 42
0.1488470320745859
 50
90.0
  0
VERTEX
  5
213
  8
0
 10
97.444978103568772
 20
99.572619836406403
 30
0.0
 42
0.1070939314374275
 50
90.0
  0
VERTEX
  5
214
  8
0
 10
97.577365458727357
 20
99.710142878622207
 30
0.0
 42
0.0758177480846394
 70
     2
 50
58.315521158222467
  0
VERTEX
  5
215
  8
0
 10
97.656631058129577
 20
99.89676323544856
 30
0.0
 42
0.0626584555913342
 50
90.0
  0
VERTEX
  5
216
  8
0
 10
97.687200415782371
 20
100.1397419328873
 30
0.0
 42
0.0626584555913199
 50
90.0
  0
SEQEND
  5
217
  8
0
  0
POLYLINE
  5
218
  8
0
 66
     1
 10
0.0
 20
0.0
 30
0.0
  0
VERTEX
  5
219
  8
0
 10
97.31220041578247
 20
101.5538413763597
 30
0.0
 42
0.1837701506072527
 50
90.0
  0
VERTEX
  5
21A
  8
0
 10
97.437217578973744
 20
101.60139621903581
 30
0.0
 42
0.1023570990015804
 50
90.0
  0
VERTEX
  5
21B
  8
0
 10
97.577365458730739
 20
101.7896989382315
 30
0.0
 42
0.06139380527182
 70
     2
 50
65.029384966189681
  0
VERTEX
  5
21C
  8
0
 10
97.655984842224385
 20
102.0324684285341
 30
0.0
 42
0.0476740870733025
 50
90.0
  0
VERTEX
  5
21D
  8
0
 10
97.687200415787174
 20
102.3591094628907
 30
0.0
 42
0.0476740870732675
 50
90.0
  0
SEQEND
  5
21E
  8
0
  0
POLYLINE
  5
21F
  8
0
 66
     1
 10
0.0
 20
0.0
 30
0.0
  0
VERTEX
  5
220
  8
0
 10
97.687200415782371
 20
102.3591094628907
 30
0.0
 42
0.1453834159301123
 50
90.0
  0
VERTEX
  5
221
  8
0
 10
97.661983286484812
 20
102.44400267915201
 30
0.0
 42
0.1071699662217274
 50
90.0
  0
VERTEX
  5
222
  8
0
 10
97.577365458727357
 20
102.52767563310221
 30
0.0
 42
0.077350332773411
 70
     2
 50
147.555763887909
  0
VERTEX
  5
223
  8
0
 10
97.448900903199316
 20
102.5837954913565
 30
0.0
 42
0.0789475685392101
 50
90.0
  0
VERTEX
  5
224
  8
0
 10
97.312200415782456
 20
102.5974980269595
 30
0.0
 42
0.0644571111103437
 50
90.0
  0
SEQEND
  5
225
  8
0
  0
POLYLINE
  5
226
  8
0
 66
     1
 10
0.0
 20
0.0
 30
0.0
  0
VERTEX
  5
227
  8
0
 10
97.31220041578247
 20
109.2190091412353
 30
0.0
 42
0.2055316714992537
 50
90.0
  0
VERTEX
  5
228
  8
0
 10
97.432397401293315
 20
109.2705969537049
 30
0.0
 42
0.0965313913509376
 50
90.0
  0
VERTEX
  5
229
  8
0
 10
97.577365458727556
 20
109.4980193156878
 30
0.0
 42
0.0533986296957384
 70
     2
 50
68.512458024392416
  0
VERTEX
  5
22A
  8
0
 10
97.655725257117453
 20
109.78300169057989
 30
0.0
 42
0.0404311354471943
 50
90.0
  0
VERTEX
  5
22B
  8
0
 10
97.687200415782684
 20
110.1716094628911
 30
0.0
 42
0.0404311354471791
 50
90.0
  0
SEQEND
  5
22C
  8
0
  0
POLYLINE
  5
22D
  8
0
 66
     1
 10
0.0
 20
0.0
 30
0.0
  0
VERTEX
  5
22E
  8
0
 10
97.687200415782371
 20
110.1716094628911
 30
0.0
 42
0.0520405140106174
 50
90.0
  0
VERTEX
  5
22F
  8
0
 10
97.656158570827458
 20
110.4690486557035
 30
0.0
 42
0.0658985238271168
 50
90.0
  0
VERTEX
  5
230
  8
0
 10
97.577365458727357
 20
110.69209069089401
 30
0.0
 42
0.1046205348859841
 70
     2
 50
116.9970819670191
  0
VERTEX
  5
231
  8
0
 10
97.431828309504624
 20
110.8721849106165
 30
0.0
 42
0.1996909920929194
 50
90.0
  0
VERTEX
  5
232
  8
0
 10
97.31220041578247
 20
110.9076810744934
 30
0.0
 42
0.172337143622725
 50
90.0
  0
SEQEND
  5
233
  8
0
  0
POLYLINE
  5
234
  8
0
 66
     1
 10
0.0
 20
0.0
 30
0.0
  0
VERTEX
  5
235
  8
0
 10
97.687200415782371
 20
105.8158554329295
 30
0.0
 42
0.0737304435607645
 50
90.0
  0
VERTEX
  5
236
  8
0
 10
97.65719208834561
 20
106.0182494195703
 30
0.0
 42
0.0845717212532976
 50
90.0
  0
VERTEX
  5
237
  8
0
 10
97.577365458727385
 20
106.17810908789561
 30
0.0
 42
0.1063921108588694
 70
     2
 50
126.2036506470299
  0
VERTEX
  5
238
  8
0
 10
97.440088360155883
 20
106.3002055178805
 30
0.0
 42
0.1510088585334486
 50
90.0
  0
VERTEX
  5
239
  8
0
 10
97.31220041578247
 20
106.328159464805
 30
0.0
 42
0.1294534172461018
 50
90.0
  0
SEQEND
  5
23A
  8
0
  0
POLYLINE
  5
23B
  8
0
 66
     1
 10
0.0
 20
0.0
 30
0.0
  0
VERTEX
  5
23C
  8
0
 10
97.31220041578247
 20
104.8916893197344
 30
0.0
 42
0.2015894264067176
 50
90.0
  0
VERTEX
  5
23D
  8
0
 10
97.433267436048922
 20
104.9425686306176
 30
0.0
 42
0.0977170379735125
 50
90.0
  0
VERTEX
  5
23E
  8
0
 10
97.577365458727357
 20
105.1623713073464
 30
0.0
 42
0.0547927573384048
 70
     2
 50
67.914102239173715
  0
VERTEX
  5
23F
  8
0
 10
97.655766492599767
 20
105.439187887373
 30
0.0
 42
0.0416539519670256
 50
90.0
  0
VERTEX
  5
240
  8
0
 10
97.687200415782371
 20
105.8158554329295
 30
0.0
 42
0.0416539519669881
 50
90.0
  0
SEQEND
  5
241
  8
0
  0
POLYLINE
  5
242
  8
0
 66
     1
 10
0.0
 20
0.0
 30
0.0
  0
VERTEX
  5
243
  8
0
 10
97.31220041578247
 20
99.024649187592246
 30
0.0
 42
-0.0068051090718327
 50
90.0
  0
VERTEX
  5
244
  8
0
 10
97.467461123994354
 20
99.022535957621699
 30
0.0
 42
-0.0096044777403865
 50
90.0
  0
VERTEX
  5
245
  8
0
 10
97.577365458727357
 20
99.017429607697224
 30
0.0
 42
-0.0229390352869734
 70
     2
 50
356.23929148249312
  0
VERTEX
  5
246
  8
0
 10
97.683980381601714
 20
99.005491803479828
 30
0.0
 50
90.0
  0
VERTEX
  5
247
  8
0
 10
97.687200415782385
 20
98.999999999999986
 30
0.0
 50
90.0
  0
SEQEND
  5
248
  8
0
  0
POLYLINE
  5
249
  8
0
 66
     1
 10
0.0
 20
0.0
 30
0.0
  0
VERTEX
  5
24A
  8
0
 10
97.31220041578247
 20
130.9753508124077
 30
0.0
 42
0.0068051090718327
 50
90.0
  0
VERTEX
  5
24B
  8
0
 10
97.467461123994354
 20
130.97746404237819
 30
0.0
 42
0.0096044777403865
 50
90.0
  0
VERTEX
  5
24C
  8
0
 10
97.577365458727357
 20
130.9825703923027
 30
0.0
 42
0.0229390352869734
 70
     2
 50
3.7607085175068882
  0
VERTEX
  5
24D
  8
0
 10
97.683980381601714
 20
130.99450819652009
 30
0.0
 50
3.7607085175068882
  0
VERTEX
  5
24E
  8
0
 10
97.687200415782385
 20
131.0
 30
0.0
 50
90.0
  0
SEQEND
  5
24F
  8
0
  0
POLYLINE
  5
250
  8
0
 66
     1
 10
0.0
 20
0.0
 30
0.0
  0
VERTEX
  5
251
  8
0
 10
97.31220041578247
 20
125.1083106802655
 30
0.0
 42
-0.2015894264067176
 50
90.0
  0
VERTEX
  5
252
  8
0
 10
97.433267436048922
 20
125.0574313693823
 30
0.0
 42
-0.0977170379735125
 50
90.0
  0
VERTEX
  5
253
  8
0
 10
97.577365458727357
 20
124.8376286926535
 30
0.0
 42
-0.0547927573384048
 70
     2
 50
292.08589776082619
  0
VERTEX
  5
254
  8
0
 10
97.655766492599767
 20
124.56081211262681
 30
0.0
 42
-0.0416539519670256
 50
90.0
  0
VERTEX
  5
255
  8
0
 10
97.687200415782371
 20
124.1841445670704
 30
0.0
 42
-0.0416539519669881
 50
90.0
  0
SEQEND
  5
256
  8
0
  0
POLYLINE
  5
257
  8
0
 66
     1
 10
0.0
 20
0.0
 30
0.0
  0
VERTEX
  5
258
  8
0
 10
97.687200415782371
 20
124.1841445670704
 30
0.0
 42
-0.0737304435607645
 50
90.0
  0
VERTEX
  5
259
  8
0
 10
97.65719208834561
 20
123.9817505804296
 30
0.0
 42
-0.0845717212532976
 50
90.0
  0
VERTEX
  5
25A
  8
0
 10
97.577365458727385
 20
123.82189091210429
 30
0.0
 42
-0.1063921108588694
 70
     2
 50
233.79634935297
  0
VERTEX
  5
25B
  8
0
 10
97.440088360155883
 20
123.6997944821194
 30
0.0
 42
-0.1510088585334486
 50
90.0
  0
VERTEX
  5
25C
  8
0
 10
97.31220041578247
 20
123.6718405351949
 30
0.0
 42
-0.1294534172461018
 50
90.0
  0
SEQEND
  5
25D
  8
0
  0
POLYLINE
  5
25E
  8
0
 66
     1
 10
0.0
 20
0.0
 30
0.0
  0
VERTEX
  5
25F
  8
0
 10
97.687200415782371
 20
119.8283905371088
 30
0.0
 42
-0.0520405140106174
 50
90.0
  0
VERTEX
  5
260
  8
0
 10
97.656158570827458
 20
119.5309513442964
 30
0.0
 42
-0.0658985238271168
 50
90.0
  0
VERTEX
  5
261
  8
0
 10
97.577365458727357
 20
119.3079093091059
 30
0.0
 42
-0.1046205348859841
 70
     2
 50
243.00291803298089
  0
VERTEX
  5
262
  8
0
 10
97.431828309504624
 20
119.1278150893834
 30
0.0
 42
-0.1996909920929194
 50
90.0
  0
VERTEX
  5
263
  8
0
 10
97.31220041578247
 20
119.0923189255065
 30
0.0
 42
-0.172337143622725
 50
90.0
  0
SEQEND
  5
264
  8
0
  0
POLYLINE
  5
265
  8
0
 66
     1
 10
0.0
 20
0.0
 30
0.0
  0
VERTEX
  5
266
  8
0
 10
97.31220041578247
 20
120.7809908587646
 30
0.0
 42
-0.2055316714992537
 50
90.0
  0
VERTEX
  5
267
  8
0
 10
97.432397401293315
 20
120.729403046295
 30
0.0
 42
-0.0965313913509376
 50
90.0
  0
VERTEX
  5
268
  8
0
 10
97.577365458727556
 20
120.5019806843121
 30
0.0
 42
-0.0533986296957384
 70
     2
 50
291.48754197560748
  0
VERTEX
  5
269
  8
0
 10
97.655725257117453
 20
120.21699830941991
 30
0.0
 42
-0.0404311354471943
 50
90.0
  0
VERTEX
  5
26A
  8
0
 10
97.687200415782684
 20
119.8283905371088
 30
0.0
 42
-0.0404311354471791
 50
90.0
  0
SEQEND
  5
26B
  8
0
  0
POLYLINE
  5
26C
  8
0
 66
     1
 10
0.0
 20
0.0
 30
0.0
  0
VERTEX
  5
26D
  8
0
 10
97.687200415782371
 20
115.0
 30
0.0
 42
-0.0433295665536456
 50
90.0
  0
VERTEX
  5
26E
  8
0
 10
97.65582472945654
 20
114.63862112533729
 30
0.0
 42
-0.0566743414169658
 50
90.0
  0
VERTEX
  5
26F
  8
0
 10
97.577365458727328
 20
114.3722395279632
 30
0.0
 42
-0.0992025570697266
 70
     2
 50
247.10088003611941
  0
VERTEX
  5
270
  8
0
 10
97.426952564779285
 20
114.1511612975377
 30
0.0
 42
-0.2280338981645266
 50
90.0
  0
VERTEX
  5
271
  8
0
 10
97.31220041578247
 20
114.11221262654119
 30
0.0
 42
-0.1963710675046459
 50
90.0
  0
SEQEND
  5
272
  8
0
  0
POLYLINE
  5
273
  8
0
 66
     1
 10
0.0
 20
0.0
 30
0.0
  0
VERTEX
  5
274
  8
0
 10
97.312200415782485
 20
115.8877873734761
 30
0.0
 42
-0.1963710675046226
 50
90.0
  0
VERTEX
  5
275
  8
0
 10
97.434421537902168
 20
115.8378607382881
 30
0.0
 42
-0.0992025570696904
 50
90.0
  0
VERTEX
  5
276
  8
0
 10
97.577365458727385
 20
115.6277604720367
 30
0.0
 42
-0.0566743414169369
 70
     2
 50
292.89911996387622
  0
VERTEX
  5
277
  8
0
 10
97.65582472945654
 20
115.36137887466271
 30
0.0
 42
-0.0433295665536664
 50
90.0
  0
VERTEX
  5
278
  8
0
 10
97.687200415782371
 20
115.0
 30
0.0
 42
-0.0433295665536456
 50
90.0
  0
SEQEND
  5
279
  8
0
  0
POLYLINE
  5
27A
  8
0
 66
     1
 10
0.0
 20
0.0
 30
0.0
  0
VERTEX
  5
27B
  8
0
 10
97.687200415782371
 20
127.6408905371092
 30
0.0
 42
-0.1453834159301123
 50
90.0
  0
VERTEX
  5
27C
  8
0
 10
97.661983286484812
 20
127.55599732084789
 30
0.0
 42
-0.1071699662217274
 50
90.0
  0
VERTEX
  5
27D
  8
0
 10
97.577365458727357
 20
127.4723243668976
 30
0.0
 42
-0.077350332773411
 70
     2
 50
212.44423611209089
  0
VERTEX
  5
27E
  8
0
 10
97.448900903199316
 20
127.4162045086433
 30
0.0
 42
-0.0789475685392101
 50
90.0
  0
VERTEX
  5
27F
  8
0
 10
97.312200415782456
 20
127.4025019730403
 30
0.0
 42
-0.0644571111103437
 50
90.0
  0
SEQEND
  5
280
  8
0
  0
POLYLINE
  5
281
  8
0
 66
     1
 10
0.0
 20
0.0
 30
0.0
  0
VERTEX
  5
282
  8
0
 10
97.31220041578247
 20
128.44615862364009
 30
0.0
 42
-0.1837701506072527
 50
90.0
  0
VERTEX
  5
283
  8
0
 10
97.437217578973744
 20
128.39860378096409
 30
0.0
 42
-0.1023570990015804
 50
90.0
  0
VERTEX
  5
284
  8
0
 10
97.577365458730739
 20
128.2103010617684
 30
0.0
 42
-0.06139380527182
 70
     2
 50
294.9706150338103
  0
VERTEX
  5
285
  8
0
 10
97.655984842224385
 20
127.9675315714657
 30
0.0
 42
-0.0476740870733025
 50
90.0
  0
VERTEX
  5
286
  8
0
 10
97.687200415787174
 20
127.6408905371092
 30
0.0
 42
-0.0476740870732675
 50
90.0
  0
SEQEND
  5
287
  8
0
  0
POLYLINE
  5
288
  8
0
 66
     1
 10
0.0
 20
0.0
 30
0.0
  0
VERTEX
  5
289
  8
0
 10
97.31220041578247
 20
130.46780287603701
 30
0.0
 42
-0.1488470320745859
 50
90.0
  0
VERTEX
  5
28A
  8
0
 10
97.444978103568772
 20
130.42738016359351
 30
0.0
 42
-0.1070939314374275
 50
90.0
  0
VERTEX
  5
28B
  8
0
 10
97.577365458727357
 20
130.28985712137771
 30
0.0
 42
-0.0758177480846394
 70
     2
 50
301.68447884177749
  0
VERTEX
  5
28C
  8
0
 10
97.656631058129577
 20
130.10323676455141
 30
0.0
 42
-0.0626584555913342
 50
90.0
  0
VERTEX
  5
28D
  8
0
 10
97.687200415782371
 20
129.8602580671126
 30
0.0
 42
-0.0626584555913199
 50
90.0
  0
SEQEND
  5
28E
  8
0
  0
POLYLINE
  5
28F
  8
0
 66
     1
 10
0.0
 20
0.0
 30
0.0
  0
VERTEX
  5
290
  8
0
 10
97.687200415782371
 20
129.8602580671126
 30
0.0
 42
-0.0162328826952284
 50
90.0
  0
VERTEX
  5
291
  8
0
 10
97.532262812386691
 20
129.8652895608258
 30
0.0
 42
-0.0226962008047463
 50
90.0
  0
VERTEX
  5
292
  8
0
 10
97.422035372837485
 20
129.877498358693
 30
0.0
 42
-0.0516790455059756
 70
     2
 50
171.07933085030109
  0
VERTEX
  5
293
  8
0
 10
97.319779358990118
 20
129.90458695976551
 30
0.0
 50
90.0
  0
VERTEX
  5
294
  8
0
 10
97.312200415782456
 20
129.91912010444571
 30
0.0
 50
90.0
  0
SEQEND
  5
295
  8
0
  0
POLYLINE
  5
296
  8
0
 66
     1
 10
0.0
 20
0.0
 30
0.0
  0
VERTEX
  5
297
  8
0
 10
87.187200415782598
 20
130.62500000000011
 30
0.0
 42
0.092572595455409
 50
90.0
  0
VERTEX
  5
298
  8
0
 10
87.331873568602091
 20
130.65201706625751
 30
0.0
 42
0.0958395211622397
 50
90.0
  0
VERTEX
  5
299
  8
0
 10
87.452365458727485
 20
130.72761537715999
 30
0.0
 42
0.1008530118927434
 70
     2
 50
43.053698806586652
  0
VERTEX
  5
29A
  8
0
 10
87.540862780340618
 20
130.8520128378438
 30
0.0
 42
0.1236287328816281
 50
43.053698806586652
  0
VERTEX
  5
29B
  8
0
 10
87.562200415777895
 20
130.9753508124077
 30
0.0
 42
0.1047089114758273
 50
90.0
  0
SEQEND
  5
29C
  8
0
  0
LINE
  5
29D
  8
0
 10
87.562200415782499
 20
129.91912010444571
 30
0.0
 11
87.562200415782499
 21
128.44615862364009
 31
0.0
  0
POLYLINE
  5
29E
  8
0
 66
     1
 10
0.0
 20
0.0
 30
0.0
  0
VERTEX
  5
29F
  8
0
 10
87.187200415782598
 20
129.8602580671126
 30
0.0
 42
0.0162328826952284
 50
90.0
  0
VERTEX
  5
2A0
  8
0
 10
87.342138019178279
 20
129.8652895608258
 30
0.0
 42
0.0226962008047463
 50
90.0
  0
VERTEX
  5
2A1
  8
0
 10
87.452365458727485
 20
129.877498358693
 30
0.0
 42
0.0516790455059756
 70
     2
 50
8.9206691496988508
  0
VERTEX
  5
2A2
  8
0
 10
87.554621472574851
 20
129.90458695976551
 30
0.0
 50
8.9206691496988508
  0
VERTEX
  5
2A3
  8
0
 10
87.562200415782513
 20
129.91912010444571
 30
0.0
 50
90.0
  0
SEQEND
  5
2A4
  8
0
  0
POLYLINE
  5
2A5
  8
0
 66
     1
 10
0.0
 20
0.0
 30
0.0
  0
VERTEX
  5
2A6
  8
0
 10
87.562200415782499
 20
130.46780287603701
 30
0.0
 42
0.1488470320745859
 50
90.0
  0
VERTEX
  5
2A7
  8
0
 10
87.429422727996197
 20
130.42738016359351
 30
0.0
 42
0.1070939314374275
 50
90.0
  0
VERTEX
  5
2A8
  8
0
 10
87.297035372837612
 20
130.28985712137771
 30
0.0
 42
0.0758177480846394
 70
     2
 50
238.3155211582224
  0
VERTEX
  5
2A9
  8
0
 10
87.217769773435393
 20
130.10323676455141
 30
0.0
 42
0.0626584555913342
 50
238.3155211582224
  0
VERTEX
  5
2AA
  8
0
 10
87.187200415782598
 20
129.8602580671126
 30
0.0
 42
0.0626584555913199
 50
90.0
  0
SEQEND
  5
2AB
  8
0
  0
LINE
  5
2AC
  8
0
 10
87.562200415782499
 20
127.4025019730387
 30
0.0
 11
87.562200415782499
 21
125.1083106802655
 31
0.0
  0
POLYLINE
  5
2AD
  8
0
 66
     1
 10
0.0
 20
0.0
 30
0.0
  0
VERTEX
  5
2AE
  8
0
 10
87.562200415782499
 20
128.44615862364009
 30
0.0
 42
0.1837701506072527
 50
90.0
  0
VERTEX
  5
2AF
  8
0
 10
87.437183252591225
 20
128.39860378096409
 30
0.0
 42
0.1023570990015804
 50
90.0
  0
VERTEX
  5
2B0
  8
0
 10
87.29703537283423
 20
128.2103010617684
 30
0.0
 42
0.06139380527182
 70
     2
 50
245.0293849661897
  0
VERTEX
  5
2B1
  8
0
 10
87.218415989340585
 20
127.9675315714657
 30
0.0
 42
0.0476740870733025
 50
245.0293849661897
  0
VERTEX
  5
2B2
  8
0
 10
87.187200415777795
 20
127.6408905371092
 30
0.0
 42
0.0476740870732675
 50
90.0
  0
SEQEND
  5
2B3
  8
0
  0
POLYLINE
  5
2B4
  8
0
 66
     1
 10
0.0
 20
0.0
 30
0.0
  0
VERTEX
  5
2B5
  8
0
 10
87.187200415782598
 20
127.6408905371092
 30
0.0
 42
0.1453834159301123
 50
90.0
  0
VERTEX
  5
2B6
  8
0
 10
87.212417545080157
 20
127.55599732084789
 30
0.0
 42
0.1071699662217274
 50
90.0
  0
VERTEX
  5
2B7
  8
0
 10
87.297035372837612
 20
127.4723243668976
 30
0.0
 42
0.077350332773411
 70
     2
 50
327.555763887909
  0
VERTEX
  5
2B8
  8
0
 10
87.425499928365653
 20
127.4162045086433
 30
0.0
 42
0.0789475685392101
 50
327.555763887909
  0
VERTEX
  5
2B9
  8
0
 10
87.562200415782513
 20
127.4025019730403
 30
0.0
 42
0.0644571111103437
 50
90.0
  0
SEQEND
  5
2BA
  8
0
  0
LINE
  5
2BB
  8
0
 10
87.562200415782499
 20
119.0923189255065
 30
0.0
 11
87.562200415782499
 21
115.8877873734761
 31
0.0
  0
LINE
  5
2BC
  8
0
 10
87.562200415782499
 20
123.6718405351981
 30
0.0
 11
87.562200415782499
 21
120.7809908587646
 31
0.0
  0
POLYLINE
  5
2BD
  8
0
 66
     1
 10
0.0
 20
0.0
 30
0.0
  0
VERTEX
  5
2BE
  8
0
 10
87.562200415782485
 20
115.8877873734761
 30
0.0
 42
0.1963710675046226
 50
90.0
  0
VERTEX
  5
2BF
  8
0
 10
87.439979293662802
 20
115.8378607382881
 30
0.0
 42
0.0992025570696904
 50
90.0
  0
VERTEX
  5
2C0
  8
0
 10
87.297035372837584
 20
115.6277604720367
 30
0.0
 42
0.0566743414169369
 70
     2
 50
247.10088003612381
  0
VERTEX
  5
2C1
  8
0
 10
87.218576102108429
 20
115.36137887466271
 30
0.0
 42
0.0433295665536664
 50
247.10088003612381
  0
VERTEX
  5
2C2
  8
0
 10
87.187200415782598
 20
115.0
 30
0.0
 42
0.0433295665536456
 50
90.0
  0
SEQEND
  5
2C3
  8
0
  0
POLYLINE
  5
2C4
  8
0
 66
     1
 10
0.0
 20
0.0
 30
0.0
  0
VERTEX
  5
2C5
  8
0
 10
87.187200415782598
 20
115.0
 30
0.0
 42
0.0433295665536456
 50
90.0
  0
VERTEX
  5
2C6
  8
0
 10
87.218576102108429
 20
114.63862112533729
 30
0.0
 42
0.0566743414169658
 50
90.0
  0
VERTEX
  5
2C7
  8
0
 10
87.297035372837641
 20
114.3722395279632
 30
0.0
 42
0.0992025570697266
 70
     2
 50
292.89911996388048
  0
VERTEX
  5
2C8
  8
0
 10
87.447448266785685
 20
114.1511612975377
 30
0.0
 42
0.2280338981645266
 50
292.89911996388048
  0
VERTEX
  5
2C9
  8
0
 10
87.562200415782499
 20
114.11221262654119
 30
0.0
 42
0.1963710675046459
 50
90.0
  0
SEQEND
  5
2CA
  8
0
  0
POLYLINE
  5
2CB
  8
0
 66
     1
 10
0.0
 20
0.0
 30
0.0
  0
VERTEX
  5
2CC
  8
0
 10
87.562200415782499
 20
120.7809908587646
 30
0.0
 42
0.2055316714992537
 50
90.0
  0
VERTEX
  5
2CD
  8
0
 10
87.442003430271654
 20
120.729403046295
 30
0.0
 42
0.0965313913509376
 50
90.0
  0
VERTEX
  5
2CE
  8
0
 10
87.297035372837414
 20
120.5019806843121
 30
0.0
 42
0.0533986296957384
 70
     2
 50
248.5124580243924
  0
VERTEX
  5
2CF
  8
0
 10
87.218675574447516
 20
120.21699830941991
 30
0.0
 42
0.0404311354471943
 50
248.5124580243924
  0
VERTEX
  5
2D0
  8
0
 10
87.187200415782286
 20
119.8283905371088
 30
0.0
 42
0.0404311354471791
 50
90.0
  0
SEQEND
  5
2D1
  8
0
  0
POLYLINE
  5
2D2
  8
0
 66
     1
 10
0.0
 20
0.0
 30
0.0
  0
VERTEX
  5
2D3
  8
0
 10
87.187200415782598
 20
119.8283905371088
 30
0.0
 42
0.0520405140106174
 50
90.0
  0
VERTEX
  5
2D4
  8
0
 10
87.218242260737512
 20
119.5309513442964
 30
0.0
 42
0.0658985238271168
 50
90.0
  0
VERTEX
  5
2D5
  8
0
 10
87.297035372837612
 20
119.3079093091059
 30
0.0
 42
0.1046205348859841
 70
     2
 50
296.99708196701903
  0
VERTEX
  5
2D6
  8
0
 10
87.442572522060345
 20
119.1278150893834
 30
0.0
 42
0.1996909920929194
 50
296.99708196701903
  0
VERTEX
  5
2D7
  8
0
 10
87.562200415782499
 20
119.0923189255065
 30
0.0
 42
0.172337143622725
 50
90.0
  0
SEQEND
  5
2D8
  8
0
  0
POLYLINE
  5
2D9
  8
0
 66
     1
 10
0.0
 20
0.0
 30
0.0
  0
VERTEX
  5
2DA
  8
0
 10
87.187200415782598
 20
124.1841445670704
 30
0.0
 42
0.0737304435607645
 50
90.0
  0
VERTEX
  5
2DB
  8
0
 10
87.217208743219359
 20
123.9817505804296
 30
0.0
 42
0.0845717212532976
 50
90.0
  0
VERTEX
  5
2DC
  8
0
 10
87.297035372837584
 20
123.82189091210429
 30
0.0
 42
0.1063921108588694
 70
     2
 50
306.20365064702992
  0
VERTEX
  5
2DD
  8
0
 10
87.434312471409086
 20
123.6997944821194
 30
0.0
 42
0.1510088585334486
 50
306.20365064702992
  0
VERTEX
  5
2DE
  8
0
 10
87.562200415782499
 20
123.6718405351949
 30
0.0
 42
0.1294534172461018
 50
90.0
  0
SEQEND
  5
2DF
  8
0
  0
POLYLINE
  5
2E0
  8
0
 66
     1
 10
0.0
 20
0.0
 30
0.0
  0
VERTEX
  5
2E1
  8
0
 10
87.562200415782499
 20
125.1083106802655
 30
0.0
 42
0.2015894264067176
 50
90.0
  0
VERTEX
  5
2E2
  8
0
 10
87.441133395516047
 20
125.0574313693823
 30
0.0
 42
0.0977170379735125
 50
90.0
  0
VERTEX
  5
2E3
  8
0
 10
87.297035372837612
 20
124.8376286926535
 30
0.0
 42
0.0547927573384048
 70
     2
 50
247.9141022391737
  0
VERTEX
  5
2E4
  8
0
 10
87.218634338965217
 20
124.56081211262681
 30
0.0
 42
0.0416539519670256
 50
247.9141022391737
  0
VERTEX
  5
2E5
  8
0
 10
87.187200415782598
 20
124.1841445670704
 30
0.0
 42
0.0416539519669881
 50
90.0
  0
SEQEND
  5
2E6
  8
0
  0
LINE
  5
2E7
  8
0
 10
87.562200415782499
 20
130.9753508124077
 30
0.0
 11
97.312200415782456
 21
130.9753508124077
 31
0.0
  0
LINE
  5
2E8
  8
0
 10
87.562200415782499
 20
130.9753508124077
 30
0.0
 11
87.562200415782513
 21
130.46780287603701
 31
0.0
  0
LINE
  5
2E9
  8
2
 10
107.3622004157824
 20
118.3235
 30
0.0
 11
108.5622004157825
 21
119.5235
 31
0.0
  0
LINE
  5
2EA
  8
2
 10
108.0387004157824
 20
119.0
 30
0.0
 11
98.56220041578247
 21
119.0
 31
0.0
  0
LINE
  5
2EB
  8
2
 10
98.56220041578247
 20
118.9999999999999
 30
0.0
 11
97.390468044462281
 21
118.3235
 31
0.0
  0
LINE
  5
2EC
  8
2
 10
107.3622004157825
 20
118.3235
 30
0.0
 11
96.56220041578247
 21
118.3235
 31
0.0
  0
LINE
  5
2ED
  8
2
 10
96.56220041578247
 20
118.3235000000001
 30
0.0
 11
94.565240148444261
 21
115.0
 31
0.0
  0
LINE
  5
2EE
  8
2
 10
95.562200415782485
 20
120.0
 30
0.0
 11
108.2622004157824
 21
120.0
 31
0.0
  0
LINE
  5
2EF
  8
2
 10
95.562200415782485
 20
120.0
 30
0.0
 11
93.562200415782499
 21
118.0
 31
0.0
  0
LINE
  5
2F0
  8
2
 10
91.962200415782476
 20
125.4999999999999
 30
0.0
 11
91.462200415782476
 21
125.4999999999999
 31
0.0
  0
LINE
  5
2F1
  8
2
 10
86.56220041578247
 20
128.49999999999989
 30
0.0
 11
91.462200415782476
 21
125.4999999999999
 31
0.0
  0
LINE
  5
2F2
  8
2
 10
95.562200415782485
 20
110.0
 30
0.0
 11
108.2622004157824
 21
110.0
 31
0.0
  0
LINE
  5
2F3
  8
2
 10
107.3622004157824
 20
111.6764999999999
 30
0.0
 11
108.5622004157825
 21
110.4764999999999
 31
0.0
  0
LINE
  5
2F4
  8
2
 10
107.3622004157824
 20
118.3234999999999
 30
0.0
 11
107.3622004157825
 21
111.6764999999999
 31
0.0
  0
LINE
  5
2F5
  8
2
 10
98.56220041578247
 20
111.0
 30
0.0
 11
97.390468044462281
 21
111.6764999999999
 31
0.0
  0
LINE
  5
2F6
  8
2
 10
96.56220041578247
 20
111.67649999999981
 30
0.0
 11
96.56220041578247
 21
118.3235000000001
 31
0.0
  0
LINE
  5
2F7
  8
2
 10
98.56220041578247
 20
111.0
 30
0.0
 11
98.562200415782485
 21
118.9999999999999
 31
0.0
  0
LINE
  5
2F8
  8
2
 10
96.56220041578247
 20
111.67649999999981
 30
0.0
 11
94.565240148444261
 21
115.0
 31
0.0
  0
LINE
  5
2F9
  8
2
 10
107.3622004157825
 20
111.67649999999981
 30
0.0
 11
96.56220041578247
 21
111.67649999999981
 31
0.0
  0
LINE
  5
2FA
  8
2
 10
108.0387004157824
 20
111.0
 30
0.0
 11
98.56220041578247
 21
111.0
 31
0.0
  0
LINE
  5
2FB
  8
0
 10
87.562200415782513
 20
130.46780287603701
 30
0.0
 11
97.31220041578247
 21
130.46780287603701
 31
0.0
  0
LINE
  5
2FC
  8
0
 10
87.562200415782499
 20
129.9191201044458
 30
0.0
 11
97.312200415782428
 21
129.9191201044458
 31
0.0
  0
LINE
  5
2FD
  8
0
 10
87.562200415782499
 20
128.44615862364009
 30
0.0
 11
97.312201369456801
 21
128.44615862364009
 31
0.0
  0
LINE
  5
2FE
  8
0
 10
87.562200415782513
 20
127.4025019730387
 30
0.0
 11
97.362659288599275
 21
127.4025019730387
 31
0.0
  0
LINE
  5
2FF
  8
0
 10
87.562200415782499
 20
125.1083106802655
 30
0.0
 11
97.312202548263073
 21
125.1083106802655
 31
0.0
  0
LINE
  5
300
  8
0
 10
87.562200415782499
 20
123.6718405351981
 30
0.0
 11
97.349641698915264
 21
123.6718405351981
 31
0.0
  0
LINE
  5
301
  8
0
 10
87.562200415782499
 20
120.7809908587646
 30
0.0
 11
97.312201369456758
 21
120.7809908587646
 31
0.0
  0
LINE
  5
302
  8
0
 10
87.562200415782499
 20
119.0923189255065
 30
0.0
 11
97.346494712238595
 21
119.0923189255065
 31
0.0
  0
LINE
  5
303
  8
0
 10
87.562200415782513
 20
115.8877873734761
 30
0.0
 11
97.312200415782499
 21
115.887787373476
 31
0.0
  0
LINE
  5
304
  8
0
 10
108.5622004157825
 20
109.9999999999999
 30
0.0
 11
108.5622004157825
 21
120.0
 31
0.0
  0
LINE
  5
305
  8
0
 10
86.56220041578247
 20
99.999999999999986
 30
0.0
 11
86.562200415782485
 21
130.0
 31
0.0
  0
LINE
  5
306
  8
2
 10
86.56220041578247
 20
101.5
 30
0.0
 11
91.462200415782476
 21
104.4999999999999
 31
0.0
  0
LINE
  5
307
  8
2
 10
91.462200415782476
 20
104.4999999999999
 30
0.0
 11
91.462200415782476
 21
125.4999999999999
 31
0.0
  0
LINE
  5
308
  8
2
 10
91.962200415782476
 20
104.4999999999999
 30
0.0
 11
91.462200415782476
 21
104.4999999999999
 31
0.0
  0
LINE
  5
309
  8
2
 10
91.962200415782476
 20
125.4999999999999
 30
0.0
 11
91.962200415782476
 21
104.4999999999999
 31
0.0
  0
LINE
  5
30A
  8
2
 10
95.562200415782485
 20
110.0
 30
0.0
 11
93.562200415782499
 21
112.0
 31
0.0
  0
LINE
  5
30B
  8
0
 10
108.5622004157825
 20
110.0
 30
0.0
 11
108.2622004157824
 21
109.9999999999999
 31
0.0
  0
LINE
  5
30C
  8
2
 10
93.562200415782456
 20
117.9999999999999
 30
0.0
 11
93.562200415782499
 21
112.0
 31
0.0
  0
LINE
  5
30D
  8
0
 10
98.562200415782499
 20
131.0
 30
0.0
 11
98.562200415782499
 21
99.0
 31
0.0
  0
LINE
  5
30E
  8
0
 10
107.2622004157825
 20
123.4999999999999
 30
0.0
 11
107.2622004157825
 21
106.4999999999999
 31
0.0
  0
LINE
  5
30F
  8
0
 10
97.687200415782385
 20
131.0
 30
0.0
 11
98.562200415782499
 21
131.0
 31
0.0
  0
LINE
  5
310
  8
0
 10
99.562200415782499
 20
130.0
 30
0.0
 11
99.562200415782499
 21
100.0
 31
0.0
  0
LINE
  5
311
  8
0
 10
99.562200415782499
 20
123.5
 30
0.0
 11
107.2622004157824
 21
123.4999999999999
 31
0.0
  0
LINE
  5
312
  8
0
 10
108.2622004157824
 20
122.4999999999999
 30
0.0
 11
108.2622004157824
 21
107.4999999999999
 31
0.0
  0
LINE
  5
313
  8
0
 10
108.2622004157824
 20
120.0
 30
0.0
 11
108.5622004157825
 21
120.0
 31
0.0
  0
LINE
  5
314
  8
0
 10
87.187200415792674
 20
130.62500000001009
 30
0.0
 11
86.562200415782485
 21
130.0
 31
0.0
  0
LINE
  5
315
  8
0
 10
98.562200415782499
 20
131.0
 30
0.0
 11
99.562200415782499
 21
130.0
 31
0.0
  0
LINE
  5
316
  8
0
 10
107.2622004157824
 20
123.4999999999999
 30
0.0
 11
108.2622004157824
 21
122.4999999999999
 31
0.0
  0
LINE
  5
317
  8
0
 10
107.2622004157824
 20
106.4999999999999
 30
0.0
 11
108.2622004157824
 21
107.4999999999999
 31
0.0
  0
LINE
  5
318
  8
0
 10
98.562200415782499
 20
99.0
 30
0.0
 11
99.562200415782499
 21
100.0
 31
0.0
  0
LINE
  5
319
  8
0
 10
99.562200415782485
 20
106.4999999999999
 30
0.0
 11
107.2622004157824
 21
106.4999999999999
 31
0.0
  0
LINE
  5
31A
  8
1
 10
111.0622004157824
 20
115.0
 30
0.0
 11
84.06220041578247
 21
115.0
 31
0.0
  0
LINE
  5
31B
  8
0
 10
87.187200415792645
 20
9.3749999999898002
 30
0.0
 11
86.562200415782485
 21
9.9999999999999751
 31
0.0
  0
LINE
  5
31C
  8
0
 10
97.687200415782371
 20
8.9999999999999751
 30
0.0
 11
98.562200415782485
 21
8.9999999999999751
 31
0.0
  0
LINE
  5
31D
  8
0
 10
87.562200415782499
 20
24.112212626523888
 30
0.0
 11
97.312200415782485
 21
24.112212626523899
 31
0.0
  0
LINE
  5
31E
  8
0
 10
87.562200415782499
 20
20.907681074493439
 30
0.0
 11
97.346494712238567
 21
20.907681074493439
 31
0.0
  0
LINE
  5
31F
  8
0
 10
87.562200415782499
 20
19.219009141235329
 30
0.0
 11
97.312201369456744
 21
19.219009141235329
 31
0.0
  0
LINE
  5
320
  8
0
 10
87.562200415782499
 20
16.328159464801871
 30
0.0
 11
97.349641698915235
 21
16.328159464801871
 31
0.0
  0
LINE
  5
321
  8
0
 10
87.562200415782499
 20
14.891689319734409
 30
0.0
 11
97.312202548263059
 21
14.891689319734409
 31
0.0
  0
LINE
  5
322
  8
0
 10
87.562200415782499
 20
12.59749802696123
 30
0.0
 11
97.362659288599275
 21
12.59749802696123
 31
0.0
  0
LINE
  5
323
  8
0
 10
87.562200415782499
 20
11.55384137635977
 30
0.0
 11
97.312201369456787
 21
11.55384137635977
 31
0.0
  0
LINE
  5
324
  8
0
 10
87.562200415782499
 20
10.080879895554149
 30
0.0
 11
97.312200415782414
 21
10.080879895554149
 31
0.0
  0
LINE
  5
325
  8
0
 10
87.562200415782499
 20
9.5321971239629057
 30
0.0
 11
97.312200415782456
 21
9.5321971239629057
 31
0.0
  0
LINE
  5
326
  8
0
 10
87.562200415782499
 20
9.0246491875922494
 30
0.0
 11
87.562200415782499
 21
9.5321971239629342
 31
0.0
  0
LINE
  5
327
  8
0
 10
87.562200415782499
 20
9.0246491875922494
 30
0.0
 11
97.312200415782428
 21
9.0246491875922494
 31
0.0
  0
POLYLINE
  5
328
  8
0
 66
     1
 10
0.0
 20
0.0
 30
0.0
  0
VERTEX
  5
329
  8
0
 10
87.562200415782485
 20
14.891689319734409
 30
0.0
 42
-0.2015894264067176
 50
90.0
  0
VERTEX
  5
32A
  8
0
 10
87.441133395516033
 20
14.942568630617609
 30
0.0
 42
-0.0977170379735125
 50
90.0
  0
VERTEX
  5
32B
  8
0
 10
87.297035372837584
 20
15.16237130734646
 30
0.0
 42
-0.0547927573384048
 70
     2
 50
112.0858977608263
  0
VERTEX
  5
32C
  8
0
 10
87.218634338965188
 20
15.439187887373089
 30
0.0
 42
-0.0416539519670256
 50
90.0
  0
VERTEX
  5
32D
  8
0
 10
87.187200415782584
 20
15.81585543292957
 30
0.0
 42
-0.0416539519669881
 50
90.0
  0
SEQEND
  5
32E
  8
0
  0
POLYLINE
  5
32F
  8
0
 66
     1
 10
0.0
 20
0.0
 30
0.0
  0
VERTEX
  5
330
  8
0
 10
87.187200415782584
 20
15.81585543292954
 30
0.0
 42
-0.0737304435607645
 50
90.0
  0
VERTEX
  5
331
  8
0
 10
87.217208743219345
 20
16.01824941957031
 30
0.0
 42
-0.0845717212532976
 50
90.0
  0
VERTEX
  5
332
  8
0
 10
87.29703537283757
 20
16.178109087895649
 30
0.0
 42
-0.1063921108588694
 70
     2
 50
53.796349352970111
  0
VERTEX
  5
333
  8
0
 10
87.434312471409086
 20
16.300205517880531
 30
0.0
 42
-0.1510088585334486
 50
90.0
  0
VERTEX
  5
334
  8
0
 10
87.562200415782499
 20
16.328159464805019
 30
0.0
 42
-0.1294534172461018
 50
90.0
  0
SEQEND
  5
335
  8
0
  0
POLYLINE
  5
336
  8
0
 66
     1
 10
0.0
 20
0.0
 30
0.0
  0
VERTEX
  5
337
  8
0
 10
87.187200415782584
 20
20.171609462891169
 30
0.0
 42
-0.0520405140106174
 50
90.0
  0
VERTEX
  5
338
  8
0
 10
87.218242260737483
 20
20.46904865570357
 30
0.0
 42
-0.0658985238271168
 50
90.0
  0
VERTEX
  5
339
  8
0
 10
87.297035372837584
 20
20.692090690894052
 30
0.0
 42
-0.1046205348859841
 70
     2
 50
63.002918032980951
  0
VERTEX
  5
33A
  8
0
 10
87.442572522060331
 20
20.872184910616529
 30
0.0
 42
-0.1996909920929194
 50
90.0
  0
VERTEX
  5
33B
  8
0
 10
87.562200415782499
 20
20.907681074493439
 30
0.0
 42
-0.172337143622725
 50
90.0
  0
SEQEND
  5
33C
  8
0
  0
POLYLINE
  5
33D
  8
0
 66
     1
 10
0.0
 20
0.0
 30
0.0
  0
VERTEX
  5
33E
  8
0
 10
87.562200415782499
 20
19.219009141235329
 30
0.0
 42
-0.2055316714992537
 50
90.0
  0
VERTEX
  5
33F
  8
0
 10
87.442003430271654
 20
19.270596953704889
 30
0.0
 42
-0.0965313913509376
 50
90.0
  0
VERTEX
  5
340
  8
0
 10
87.297035372837385
 20
19.498019315687841
 30
0.0
 42
-0.0533986296957384
 70
     2
 50
111.4875419756076
  0
VERTEX
  5
341
  8
0
 10
87.218675574447516
 20
19.78300169057999
 30
0.0
 42
-0.0404311354471943
 50
90.0
  0
VERTEX
  5
342
  8
0
 10
87.187200415782286
 20
20.171609462891169
 30
0.0
 42
-0.0404311354471791
 50
90.0
  0
SEQEND
  5
343
  8
0
  0
LINE
  5
344
  8
0
 10
87.562200415782499
 20
16.328159464801871
 30
0.0
 11
87.562200415782485
 21
19.219009141235318
 31
0.0
  0
LINE
  5
345
  8
0
 10
87.562200415782485
 20
20.907681074493411
 30
0.0
 11
87.562200415782499
 21
24.112212626523871
 31
0.0
  0
POLYLINE
  5
346
  8
0
 66
     1
 10
0.0
 20
0.0
 30
0.0
  0
VERTEX
  5
347
  8
0
 10
87.187200415782584
 20
12.3591094628907
 30
0.0
 42
-0.1453834159301123
 50
90.0
  0
VERTEX
  5
348
  8
0
 10
87.212417545080143
 20
12.444002679152019
 30
0.0
 42
-0.1071699662217274
 50
90.0
  0
VERTEX
  5
349
  8
0
 10
87.297035372837584
 20
12.527675633102289
 30
0.0
 42
-0.077350332773411
 70
     2
 50
32.444236112090998
  0
VERTEX
  5
34A
  8
0
 10
87.425499928365625
 20
12.5837954913566
 30
0.0
 42
-0.0789475685392101
 50
90.0
  0
VERTEX
  5
34B
  8
0
 10
87.562200415782499
 20
12.597498026959579
 30
0.0
 42
-0.0644571111103437
 50
90.0
  0
SEQEND
  5
34C
  8
0
  0
POLYLINE
  5
34D
  8
0
 66
     1
 10
0.0
 20
0.0
 30
0.0
  0
VERTEX
  5
34E
  8
0
 10
87.562200415782499
 20
11.55384137635977
 30
0.0
 42
-0.1837701506072527
 50
90.0
  0
VERTEX
  5
34F
  8
0
 10
87.437183252591225
 20
11.60139621903585
 30
0.0
 42
-0.1023570990015804
 50
90.0
  0
VERTEX
  5
350
  8
0
 10
87.297035372834216
 20
11.78969893823156
 30
0.0
 42
-0.06139380527182
 70
     2
 50
114.9706150338103
  0
VERTEX
  5
351
  8
0
 10
87.218415989340571
 20
12.0324684285342
 30
0.0
 42
-0.0476740870733025
 50
90.0
  0
VERTEX
  5
352
  8
0
 10
87.187200415777795
 20
12.3591094628907
 30
0.0
 42
-0.0476740870732675
 50
90.0
  0
SEQEND
  5
353
  8
0
  0
LINE
  5
354
  8
0
 10
87.562200415782499
 20
12.59749802696123
 30
0.0
 11
87.562200415782499
 21
14.891689319734409
 31
0.0
  0
POLYLINE
  5
355
  8
0
 66
     1
 10
0.0
 20
0.0
 30
0.0
  0
VERTEX
  5
356
  8
0
 10
87.562200415782499
 20
9.5321971239629342
 30
0.0
 42
-0.1488470320745859
 50
90.0
  0
VERTEX
  5
357
  8
0
 10
87.429422727996183
 20
9.5726198364064086
 30
0.0
 42
-0.1070939314374275
 50
90.0
  0
VERTEX
  5
358
  8
0
 10
87.297035372837584
 20
9.7101428786222126
 30
0.0
 42
-0.0758177480846394
 70
     2
 50
121.6844788417775
  0
VERTEX
  5
359
  8
0
 10
87.217769773435364
 20
9.8967632354485655
 30
0.0
 42
-0.0626584555913342
 50
90.0
  0
VERTEX
  5
35A
  8
0
 10
87.187200415782584
 20
10.13974193288735
 30
0.0
 42
-0.0626584555913199
 50
90.0
  0
SEQEND
  5
35B
  8
0
  0
POLYLINE
  5
35C
  8
0
 66
     1
 10
0.0
 20
0.0
 30
0.0
  0
VERTEX
  5
35D
  8
0
 10
87.187200415782584
 20
10.13974193288735
 30
0.0
 42
-0.0162328826952284
 50
90.0
  0
VERTEX
  5
35E
  8
0
 10
87.342138019178265
 20
10.134710439174141
 30
0.0
 42
-0.0226962008047463
 50
90.0
  0
VERTEX
  5
35F
  8
0
 10
87.452365458727485
 20
10.12250164130691
 30
0.0
 42
-0.0516790455059756
 70
     2
 50
351.07933085030112
  0
VERTEX
  5
360
  8
0
 10
87.554621472574837
 20
10.09541304023443
 30
0.0
 50
90.0
  0
VERTEX
  5
361
  8
0
 10
87.562200415782499
 20
10.08087989555418
 30
0.0
 50
90.0
  0
SEQEND
  5
362
  8
0
  0
LINE
  5
363
  8
0
 10
87.562200415782499
 20
10.08087989555418
 30
0.0
 11
87.562200415782499
 21
11.55384137635977
 31
0.0
  0
POLYLINE
  5
364
  8
0
 66
     1
 10
0.0
 20
0.0
 30
0.0
  0
VERTEX
  5
365
  8
0
 10
87.187200415782584
 20
9.3749999999998632
 30
0.0
 42
-0.092572595455409
 50
90.0
  0
VERTEX
  5
366
  8
0
 10
87.331873568602077
 20
9.3479829337423777
 30
0.0
 42
-0.0958395211622397
 50
90.0
  0
VERTEX
  5
367
  8
0
 10
87.452365458727485
 20
9.2723846228398994
 30
0.0
 42
-0.1008530118927434
 70
     2
 50
316.94630119341338
  0
VERTEX
  5
368
  8
0
 10
87.540862780340603
 20
9.1479871621561166
 30
0.0
 42
-0.1236287328816281
 50
90.0
  0
VERTEX
  5
369
  8
0
 10
87.562200415777866
 20
9.0246491875922494
 30
0.0
 42
-0.1047089114758273
 50
90.0
  0
SEQEND
  5
36A
  8
0
  0
POLYLINE
  5
36B
  8
0
 66
     1
 10
0.0
 20
0.0
 30
0.0
  0
VERTEX
  5
36C
  8
0
 10
97.687200415782357
 20
10.13974193288735
 30
0.0
 42
0.0162328826952284
 50
90.0
  0
VERTEX
  5
36D
  8
0
 10
97.532262812386676
 20
10.134710439174141
 30
0.0
 42
0.0226962008047463
 50
90.0
  0
VERTEX
  5
36E
  8
0
 10
97.422035372837456
 20
10.12250164130691
 30
0.0
 42
0.0516790455059756
 70
     2
 50
188.9206691496988
  0
VERTEX
  5
36F
  8
0
 10
97.319779358990104
 20
10.09541304023443
 30
0.0
 50
90.0
  0
VERTEX
  5
370
  8
0
 10
97.312200415782428
 20
10.08087989555418
 30
0.0
 50
90.0
  0
SEQEND
  5
371
  8
0
  0
POLYLINE
  5
372
  8
0
 66
     1
 10
0.0
 20
0.0
 30
0.0
  0
VERTEX
  5
373
  8
0
 10
97.312200415782456
 20
9.5321971239629342
 30
0.0
 42
0.1488470320745859
 50
90.0
  0
VERTEX
  5
374
  8
0
 10
97.444978103568744
 20
9.5726198364064068
 30
0.0
 42
0.1070939314374275
 50
90.0
  0
VERTEX
  5
375
  8
0
 10
97.577365458727343
 20
9.7101428786222108
 30
0.0
 42
0.0758177480846394
 70
     2
 50
58.315521158222467
  0
VERTEX
  5
376
  8
0
 10
97.656631058129562
 20
9.8967632354485637
 30
0.0
 42
0.0626584555913342
 50
90.0
  0
VERTEX
  5
377
  8
0
 10
97.687200415782357
 20
10.13974193288735
 30
0.0
 42
0.0626584555913199
 50
90.0
  0
SEQEND
  5
378
  8
0
  0
POLYLINE
  5
379
  8
0
 66
     1
 10
0.0
 20
0.0
 30
0.0
  0
VERTEX
  5
37A
  8
0
 10
97.312200415782456
 20
11.55384137635977
 30
0.0
 42
0.1837701506072527
 50
90.0
  0
VERTEX
  5
37B
  8
0
 10
97.437217578973744
 20
11.60139621903585
 30
0.0
 42
0.1023570990015804
 50
90.0
  0
VERTEX
  5
37C
  8
0
 10
97.577365458730725
 20
11.78969893823156
 30
0.0
 42
0.06139380527182
 70
     2
 50
65.029384966189681
  0
VERTEX
  5
37D
  8
0
 10
97.65598484222437
 20
12.0324684285342
 30
0.0
 42
0.0476740870733025
 50
90.0
  0
VERTEX
  5
37E
  8
0
 10
97.687200415787146
 20
12.3591094628907
 30
0.0
 42
0.0476740870732675
 50
90.0
  0
SEQEND
  5
37F
  8
0
  0
POLYLINE
  5
380
  8
0
 66
     1
 10
0.0
 20
0.0
 30
0.0
  0
VERTEX
  5
381
  8
0
 10
97.687200415782357
 20
12.3591094628907
 30
0.0
 42
0.1453834159301123
 50
90.0
  0
VERTEX
  5
382
  8
0
 10
97.661983286484798
 20
12.444002679152019
 30
0.0
 42
0.1071699662217274
 50
90.0
  0
VERTEX
  5
383
  8
0
 10
97.577365458727343
 20
12.527675633102289
 30
0.0
 42
0.077350332773411
 70
     2
 50
147.555763887909
  0
VERTEX
  5
384
  8
0
 10
97.448900903199302
 20
12.5837954913566
 30
0.0
 42
0.0789475685392101
 50
90.0
  0
VERTEX
  5
385
  8
0
 10
97.312200415782428
 20
12.597498026959579
 30
0.0
 42
0.0644571111103437
 50
90.0
  0
SEQEND
  5
386
  8
0
  0
POLYLINE
  5
387
  8
0
 66
     1
 10
0.0
 20
0.0
 30
0.0
  0
VERTEX
  5
388
  8
0
 10
97.312200415782456
 20
19.219009141235329
 30
0.0
 42
0.2055316714992537
 50
90.0
  0
VERTEX
  5
389
  8
0
 10
97.432397401293287
 20
19.270596953704889
 30
0.0
 42
0.0965313913509376
 50
90.0
  0
VERTEX
  5
38A
  8
0
 10
97.577365458727542
 20
19.498019315687841
 30
0.0
 42
0.0533986296957384
 70
     2
 50
68.512458024392416
  0
VERTEX
  5
38B
  8
0
 10
97.655725257117439
 20
19.78300169057999
 30
0.0
 42
0.0404311354471943
 50
90.0
  0
VERTEX
  5
38C
  8
0
 10
97.687200415782655
 20
20.171609462891169
 30
0.0
 42
0.0404311354471791
 50
90.0
  0
SEQEND
  5
38D
  8
0
  0
POLYLINE
  5
38E
  8
0
 66
     1
 10
0.0
 20
0.0
 30
0.0
  0
VERTEX
  5
38F
  8
0
 10
97.687200415782357
 20
20.171609462891169
 30
0.0
 42
0.0520405140106174
 50
90.0
  0
VERTEX
  5
390
  8
0
 10
97.656158570827444
 20
20.46904865570357
 30
0.0
 42
0.0658985238271168
 50
90.0
  0
VERTEX
  5
391
  8
0
 10
97.577365458727343
 20
20.692090690894052
 30
0.0
 42
0.1046205348859841
 70
     2
 50
116.9970819670191
  0
VERTEX
  5
392
  8
0
 10
97.43182830950461
 20
20.872184910616529
 30
0.0
 42
0.1996909920929194
 50
90.0
  0
VERTEX
  5
393
  8
0
 10
97.312200415782456
 20
20.907681074493439
 30
0.0
 42
0.172337143622725
 50
90.0
  0
SEQEND
  5
394
  8
0
  0
POLYLINE
  5
395
  8
0
 66
     1
 10
0.0
 20
0.0
 30
0.0
  0
VERTEX
  5
396
  8
0
 10
97.687200415782357
 20
15.81585543292954
 30
0.0
 42
0.0737304435607645
 50
90.0
  0
VERTEX
  5
397
  8
0
 10
97.65719208834561
 20
16.01824941957031
 30
0.0
 42
0.0845717212532976
 50
90.0
  0
VERTEX
  5
398
  8
0
 10
97.577365458727385
 20
16.178109087895649
 30
0.0
 42
0.1063921108588694
 70
     2
 50
126.2036506470299
  0
VERTEX
  5
399
  8
0
 10
97.440088360155855
 20
16.300205517880531
 30
0.0
 42
0.1510088585334486
 50
90.0
  0
VERTEX
  5
39A
  8
0
 10
97.312200415782456
 20
16.328159464805019
 30
0.0
 42
0.1294534172461018
 50
90.0
  0
SEQEND
  5
39B
  8
0
  0
POLYLINE
  5
39C
  8
0
 66
     1
 10
0.0
 20
0.0
 30
0.0
  0
VERTEX
  5
39D
  8
0
 10
97.31220041578247
 20
14.891689319734409
 30
0.0
 42
0.2015894264067176
 50
90.0
  0
VERTEX
  5
39E
  8
0
 10
97.433267436048908
 20
14.942568630617609
 30
0.0
 42
0.0977170379735125
 50
90.0
  0
VERTEX
  5
39F
  8
0
 10
97.577365458727343
 20
15.16237130734646
 30
0.0
 42
0.0547927573384048
 70
     2
 50
67.914102239173715
  0
VERTEX
  5
3A0
  8
0
 10
97.655766492599767
 20
15.439187887373089
 30
0.0
 42
0.0416539519670256
 50
90.0
  0
VERTEX
  5
3A1
  8
0
 10
97.687200415782357
 20
15.81585543292957
 30
0.0
 42
0.0416539519669881
 50
90.0
  0
SEQEND
  5
3A2
  8
0
  0
POLYLINE
  5
3A3
  8
0
 66
     1
 10
0.0
 20
0.0
 30
0.0
  0
VERTEX
  5
3A4
  8
0
 10
97.312200415782456
 20
9.0246491875922494
 30
0.0
 42
-0.0068051090718327
 50
90.0
  0
VERTEX
  5
3A5
  8
0
 10
97.467461123994326
 20
9.0225359576217024
 30
0.0
 42
-0.0096044777403865
 50
90.0
  0
VERTEX
  5
3A6
  8
0
 10
97.577365458727343
 20
9.0174296076972134
 30
0.0
 42
-0.0229390352869734
 70
     2
 50
356.23929148249312
  0
VERTEX
  5
3A7
  8
0
 10
97.683980381601714
 20
9.0054918034798312
 30
0.0
 50
90.0
  0
VERTEX
  5
3A8
  8
0
 10
97.687200415782371
 20
8.9999999999999751
 30
0.0
 50
90.0
  0
SEQEND
  5
3A9
  8
0
  0
POLYLINE
  5
3AA
  8
0
 66
     1
 10
0.0
 20
0.0
 30
0.0
  0
VERTEX
  5
3AB
  8
0
 10
97.312200415782456
 20
40.975350812407733
 30
0.0
 42
0.0068051090718327
 50
90.0
  0
VERTEX
  5
3AC
  8
0
 10
97.467461123994326
 20
40.977464042378273
 30
0.0
 42
0.0096044777403865
 50
90.0
  0
VERTEX
  5
3AD
  8
0
 10
97.577365458727343
 20
40.982570392302769
 30
0.0
 42
0.0229390352869734
 70
     2
 50
3.7607085175068882
  0
VERTEX
  5
3AE
  8
0
 10
97.683980381601714
 20
40.994508196520151
 30
0.0
 50
3.7607085175068882
  0
VERTEX
  5
3AF
  8
0
 10
97.687200415782371
 20
41.0
 30
0.0
 50
90.0
  0
SEQEND
  5
3B0
  8
0
  0
POLYLINE
  5
3B1
  8
0
 66
     1
 10
0.0
 20
0.0
 30
0.0
  0
VERTEX
  5
3B2
  8
0
 10
97.31220041578247
 20
35.108310680265561
 30
0.0
 42
-0.2015894264067176
 50
90.0
  0
VERTEX
  5
3B3
  8
0
 10
97.433267436048908
 20
35.057431369382357
 30
0.0
 42
-0.0977170379735125
 50
90.0
  0
VERTEX
  5
3B4
  8
0
 10
97.577365458727343
 20
34.83762869265351
 30
0.0
 42
-0.0547927573384048
 70
     2
 50
292.08589776082619
  0
VERTEX
  5
3B5
  8
0
 10
97.655766492599767
 20
34.560812112626877
 30
0.0
 42
-0.0416539519670256
 50
90.0
  0
VERTEX
  5
3B6
  8
0
 10
97.687200415782357
 20
34.184144567070412
 30
0.0
 42
-0.0416539519669881
 50
90.0
  0
SEQEND
  5
3B7
  8
0
  0
POLYLINE
  5
3B8
  8
0
 66
     1
 10
0.0
 20
0.0
 30
0.0
  0
VERTEX
  5
3B9
  8
0
 10
97.687200415782357
 20
34.18414456707044
 30
0.0
 42
-0.0737304435607645
 50
90.0
  0
VERTEX
  5
3BA
  8
0
 10
97.65719208834561
 20
33.981750580429669
 30
0.0
 42
-0.0845717212532976
 50
90.0
  0
VERTEX
  5
3BB
  8
0
 10
97.577365458727385
 20
33.82189091210433
 30
0.0
 42
-0.1063921108588694
 70
     2
 50
233.79634935297
  0
VERTEX
  5
3BC
  8
0
 10
97.440088360155855
 20
33.699794482119451
 30
0.0
 42
-0.1510088585334486
 50
90.0
  0
VERTEX
  5
3BD
  8
0
 10
97.312200415782456
 20
33.671840535194953
 30
0.0
 42
-0.1294534172461018
 50
90.0
  0
SEQEND
  5
3BE
  8
0
  0
POLYLINE
  5
3BF
  8
0
 66
     1
 10
0.0
 20
0.0
 30
0.0
  0
VERTEX
  5
3C0
  8
0
 10
97.687200415782357
 20
29.82839053710881
 30
0.0
 42
-0.0520405140106174
 50
90.0
  0
VERTEX
  5
3C1
  8
0
 10
97.656158570827444
 20
29.530951344296401
 30
0.0
 42
-0.0658985238271168
 50
90.0
  0
VERTEX
  5
3C2
  8
0
 10
97.577365458727343
 20
29.307909309105931
 30
0.0
 42
-0.1046205348859841
 70
     2
 50
243.00291803298089
  0
VERTEX
  5
3C3
  8
0
 10
97.43182830950461
 20
29.12781508938345
 30
0.0
 42
-0.1996909920929194
 50
90.0
  0
VERTEX
  5
3C4
  8
0
 10
97.312200415782456
 20
29.092318925506529
 30
0.0
 42
-0.172337143622725
 50
90.0
  0
SEQEND
  5
3C5
  8
0
  0
POLYLINE
  5
3C6
  8
0
 66
     1
 10
0.0
 20
0.0
 30
0.0
  0
VERTEX
  5
3C7
  8
0
 10
97.312200415782456
 20
30.780990858764639
 30
0.0
 42
-0.2055316714992537
 50
90.0
  0
VERTEX
  5
3C8
  8
0
 10
97.432397401293287
 20
30.729403046295079
 30
0.0
 42
-0.0965313913509376
 50
90.0
  0
VERTEX
  5
3C9
  8
0
 10
97.577365458727542
 20
30.50198068431213
 30
0.0
 42
-0.0533986296957384
 70
     2
 50
291.48754197560748
  0
VERTEX
  5
3CA
  8
0
 10
97.655725257117439
 20
30.216998309419981
 30
0.0
 42
-0.0404311354471943
 50
90.0
  0
VERTEX
  5
3CB
  8
0
 10
97.687200415782655
 20
29.82839053710881
 30
0.0
 42
-0.0404311354471791
 50
90.0
  0
SEQEND
  5
3CC
  8
0
  0
POLYLINE
  5
3CD
  8
0
 66
     1
 10
0.0
 20
0.0
 30
0.0
  0
VERTEX
  5
3CE
  8
0
 10
97.687200415782357
 20
24.999999999999989
 30
0.0
 42
-0.0433295665536456
 50
90.0
  0
VERTEX
  5
3CF
  8
0
 10
97.655824729456526
 20
24.638621125337352
 30
0.0
 42
-0.0566743414169658
 50
90.0
  0
VERTEX
  5
3D0
  8
0
 10
97.577365458727314
 20
24.372239527963259
 30
0.0
 42
-0.0992025570697266
 70
     2
 50
247.10088003611941
  0
VERTEX
  5
3D1
  8
0
 10
97.426952564779285
 20
24.15116129753773
 30
0.0
 42
-0.2280338981645266
 50
90.0
  0
VERTEX
  5
3D2
  8
0
 10
97.312200415782456
 20
24.112212626541289
 30
0.0
 42
-0.1963710675046459
 50
90.0
  0
SEQEND
  5
3D3
  8
0
  0
POLYLINE
  5
3D4
  8
0
 66
     1
 10
0.0
 20
0.0
 30
0.0
  0
VERTEX
  5
3D5
  8
0
 10
97.31220041578247
 20
25.88778737347609
 30
0.0
 42
-0.1963710675046226
 50
90.0
  0
VERTEX
  5
3D6
  8
0
 10
97.434421537902153
 20
25.837860738288182
 30
0.0
 42
-0.0992025570696904
 50
90.0
  0
VERTEX
  5
3D7
  8
0
 10
97.577365458727357
 20
25.62776047203673
 30
0.0
 42
-0.0566743414169369
 70
     2
 50
292.89911996387622
  0
VERTEX
  5
3D8
  8
0
 10
97.655824729456526
 20
25.361378874662758
 30
0.0
 42
-0.0433295665536664
 50
90.0
  0
VERTEX
  5
3D9
  8
0
 10
97.687200415782357
 20
24.999999999999989
 30
0.0
 42
-0.0433295665536456
 50
90.0
  0
SEQEND
  5
3DA
  8
0
  0
POLYLINE
  5
3DB
  8
0
 66
     1
 10
0.0
 20
0.0
 30
0.0
  0
VERTEX
  5
3DC
  8
0
 10
97.687200415782357
 20
37.640890537109271
 30
0.0
 42
-0.1453834159301123
 50
90.0
  0
VERTEX
  5
3DD
  8
0
 10
97.661983286484798
 20
37.555997320847958
 30
0.0
 42
-0.1071699662217274
 50
90.0
  0
VERTEX
  5
3DE
  8
0
 10
97.577365458727343
 20
37.472324366897688
 30
0.0
 42
-0.077350332773411
 70
     2
 50
212.44423611209089
  0
VERTEX
  5
3DF
  8
0
 10
97.448900903199302
 20
37.416204508643382
 30
0.0
 42
-0.0789475685392101
 50
90.0
  0
VERTEX
  5
3E0
  8
0
 10
97.312200415782428
 20
37.402501973040387
 30
0.0
 42
-0.0644571111103437
 50
90.0
  0
SEQEND
  5
3E1
  8
0
  0
POLYLINE
  5
3E2
  8
0
 66
     1
 10
0.0
 20
0.0
 30
0.0
  0
VERTEX
  5
3E3
  8
0
 10
97.312200415782456
 20
38.446158623640208
 30
0.0
 42
-0.1837701506072527
 50
90.0
  0
VERTEX
  5
3E4
  8
0
 10
97.437217578973744
 20
38.39860378096413
 30
0.0
 42
-0.1023570990015804
 50
90.0
  0
VERTEX
  5
3E5
  8
0
 10
97.577365458730725
 20
38.210301061768412
 30
0.0
 42
-0.06139380527182
 70
     2
 50
294.9706150338103
  0
VERTEX
  5
3E6
  8
0
 10
97.65598484222437
 20
37.96753157146577
 30
0.0
 42
-0.0476740870733025
 50
90.0
  0
VERTEX
  5
3E7
  8
0
 10
97.687200415787146
 20
37.640890537109271
 30
0.0
 42
-0.0476740870732675
 50
90.0
  0
SEQEND
  5
3E8
  8
0
  0
POLYLINE
  5
3E9
  8
0
 66
     1
 10
0.0
 20
0.0
 30
0.0
  0
VERTEX
  5
3EA
  8
0
 10
97.312200415782456
 20
40.467802876037048
 30
0.0
 42
-0.1488470320745859
 50
90.0
  0
VERTEX
  5
3EB
  8
0
 10
97.444978103568744
 20
40.427380163593568
 30
0.0
 42
-0.1070939314374275
 50
90.0
  0
VERTEX
  5
3EC
  8
0
 10
97.577365458727343
 20
40.289857121377771
 30
0.0
 42
-0.0758177480846394
 70
     2
 50
301.68447884177749
  0
VERTEX
  5
3ED
  8
0
 10
97.656631058129562
 20
40.103236764551419
 30
0.0
 42
-0.0626584555913342
 50
90.0
  0
VERTEX
  5
3EE
  8
0
 10
97.687200415782357
 20
39.860258067112632
 30
0.0
 42
-0.0626584555913199
 50
90.0
  0
SEQEND
  5
3EF
  8
0
  0
POLYLINE
  5
3F0
  8
0
 66
     1
 10
0.0
 20
0.0
 30
0.0
  0
VERTEX
  5
3F1
  8
0
 10
97.687200415782357
 20
39.860258067112632
 30
0.0
 42
-0.0162328826952284
 50
90.0
  0
VERTEX
  5
3F2
  8
0
 10
97.532262812386676
 20
39.865289560825829
 30
0.0
 42
-0.0226962008047463
 50
90.0
  0
VERTEX
  5
3F3
  8
0
 10
97.422035372837456
 20
39.877498358693067
 30
0.0
 42
-0.0516790455059756
 70
     2
 50
171.07933085030109
  0
VERTEX
  5
3F4
  8
0
 10
97.319779358990104
 20
39.904586959765538
 30
0.0
 50
90.0
  0
VERTEX
  5
3F5
  8
0
 10
97.312200415782428
 20
39.919120104445803
 30
0.0
 50
90.0
  0
SEQEND
  5
3F6
  8
0
  0
POLYLINE
  5
3F7
  8
0
 66
     1
 10
0.0
 20
0.0
 30
0.0
  0
VERTEX
  5
3F8
  8
0
 10
87.187200415782584
 20
40.625000000000121
 30
0.0
 42
0.092572595455409
 50
90.0
  0
VERTEX
  5
3F9
  8
0
 10
87.331873568602077
 20
40.652017066257599
 30
0.0
 42
0.0958395211622397
 50
90.0
  0
VERTEX
  5
3FA
  8
0
 10
87.452365458727485
 20
40.727615377160078
 30
0.0
 42
0.1008530118927434
 70
     2
 50
43.053698806586652
  0
VERTEX
  5
3FB
  8
0
 10
87.540862780340603
 20
40.852012837843859
 30
0.0
 42
0.1236287328816281
 50
43.053698806586652
  0
VERTEX
  5
3FC
  8
0
 10
87.562200415777866
 20
40.975350812407733
 30
0.0
 42
0.1047089114758273
 50
90.0
  0
SEQEND
  5
3FD
  8
0
  0
LINE
  5
3FE
  8
0
 10
87.562200415782499
 20
39.919120104445803
 30
0.0
 11
87.562200415782499
 21
38.446158623640208
 31
0.0
  0
POLYLINE
  5
3FF
  8
0
 66
     1
 10
0.0
 20
0.0
 30
0.0
  0
VERTEX
  5
400
  8
0
 10
87.187200415782584
 20
39.860258067112632
 30
0.0
 42
0.0162328826952284
 50
90.0
  0
VERTEX
  5
401
  8
0
 10
87.342138019178265
 20
39.865289560825829
 30
0.0
 42
0.0226962008047463
 50
90.0
  0
VERTEX
  5
402
  8
0
 10
87.452365458727485
 20
39.877498358693067
 30
0.0
 42
0.0516790455059756
 70
     2
 50
8.9206691496988508
  0
VERTEX
  5
403
  8
0
 10
87.554621472574837
 20
39.904586959765538
 30
0.0
 50
8.9206691496988508
  0
VERTEX
  5
404
  8
0
 10
87.562200415782499
 20
39.919120104445803
 30
0.0
 50
90.0
  0
SEQEND
  5
405
  8
0
  0
POLYLINE
  5
406
  8
0
 66
     1
 10
0.0
 20
0.0
 30
0.0
  0
VERTEX
  5
407
  8
0
 10
87.562200415782499
 20
40.467802876037048
 30
0.0
 42
0.1488470320745859
 50
90.0
  0
VERTEX
  5
408
  8
0
 10
87.429422727996183
 20
40.427380163593568
 30
0.0
 42
0.1070939314374275
 50
90.0
  0
VERTEX
  5
409
  8
0
 10
87.297035372837584
 20
40.289857121377771
 30
0.0
 42
0.0758177480846394
 70
     2
 50
238.3155211582224
  0
VERTEX
  5
40A
  8
0
 10
87.217769773435364
 20
40.103236764551419
 30
0.0
 42
0.0626584555913342
 50
238.3155211582224
  0
VERTEX
  5
40B
  8
0
 10
87.187200415782584
 20
39.860258067112632
 30
0.0
 42
0.0626584555913199
 50
90.0
  0
SEQEND
  5
40C
  8
0
  0
LINE
  5
40D
  8
0
 10
87.562200415782499
 20
37.402501973038738
 30
0.0
 11
87.562200415782499
 21
35.108310680265561
 31
0.0
  0
POLYLINE
  5
40E
  8
0
 66
     1
 10
0.0
 20
0.0
 30
0.0
  0
VERTEX
  5
40F
  8
0
 10
87.562200415782499
 20
38.446158623640208
 30
0.0
 42
0.1837701506072527
 50
90.0
  0
VERTEX
  5
410
  8
0
 10
87.437183252591225
 20
38.39860378096413
 30
0.0
 42
0.1023570990015804
 50
90.0
  0
VERTEX
  5
411
  8
0
 10
87.297035372834216
 20
38.210301061768412
 30
0.0
 42
0.06139380527182
 70
     2
 50
245.0293849661897
  0
VERTEX
  5
412
  8
0
 10
87.218415989340571
 20
37.96753157146577
 30
0.0
 42
0.0476740870733025
 50
245.0293849661897
  0
VERTEX
  5
413
  8
0
 10
87.187200415777795
 20
37.640890537109271
 30
0.0
 42
0.0476740870732675
 50
90.0
  0
SEQEND
  5
414
  8
0
  0
POLYLINE
  5
415
  8
0
 66
     1
 10
0.0
 20
0.0
 30
0.0
  0
VERTEX
  5
416
  8
0
 10
87.187200415782584
 20
37.640890537109271
 30
0.0
 42
0.1453834159301123
 50
90.0
  0
VERTEX
  5
417
  8
0
 10
87.212417545080143
 20
37.555997320847958
 30
0.0
 42
0.1071699662217274
 50
90.0
  0
VERTEX
  5
418
  8
0
 10
87.297035372837584
 20
37.472324366897688
 30
0.0
 42
0.077350332773411
 70
     2
 50
327.555763887909
  0
VERTEX
  5
419
  8
0
 10
87.425499928365625
 20
37.416204508643382
 30
0.0
 42
0.0789475685392101
 50
327.555763887909
  0
VERTEX
  5
41A
  8
0
 10
87.562200415782499
 20
37.402501973040387
 30
0.0
 42
0.0644571111103437
 50
90.0
  0
SEQEND
  5
41B
  8
0
  0
LINE
  5
41C
  8
0
 10
87.562200415782485
 20
29.092318925506572
 30
0.0
 11
87.562200415782499
 21
25.887787373476101
 31
0.0
  0
LINE
  5
41D
  8
0
 10
87.562200415782499
 20
33.6718405351981
 30
0.0
 11
87.562200415782485
 21
30.78099085876466
 31
0.0
  0
POLYLINE
  5
41E
  8
0
 66
     1
 10
0.0
 20
0.0
 30
0.0
  0
VERTEX
  5
41F
  8
0
 10
87.56220041578247
 20
25.88778737347609
 30
0.0
 42
0.1963710675046226
 50
90.0
  0
VERTEX
  5
420
  8
0
 10
87.439979293662773
 20
25.837860738288182
 30
0.0
 42
0.0992025570696904
 50
90.0
  0
VERTEX
  5
421
  8
0
 10
87.297035372837584
 20
25.62776047203673
 30
0.0
 42
0.0566743414169369
 70
     2
 50
247.10088003612381
  0
VERTEX
  5
422
  8
0
 10
87.218576102108415
 20
25.361378874662758
 30
0.0
 42
0.0433295665536664
 50
247.10088003612381
  0
VERTEX
  5
423
  8
0
 10
87.187200415782584
 20
24.999999999999989
 30
0.0
 42
0.0433295665536456
 50
90.0
  0
SEQEND
  5
424
  8
0
  0
POLYLINE
  5
425
  8
0
 66
     1
 10
0.0
 20
0.0
 30
0.0
  0
VERTEX
  5
426
  8
0
 10
87.187200415782584
 20
24.999999999999989
 30
0.0
 42
0.0433295665536456
 50
90.0
  0
VERTEX
  5
427
  8
0
 10
87.218576102108415
 20
24.638621125337352
 30
0.0
 42
0.0566743414169658
 50
90.0
  0
VERTEX
  5
428
  8
0
 10
87.297035372837627
 20
24.372239527963259
 30
0.0
 42
0.0992025570697266
 70
     2
 50
292.89911996388048
  0
VERTEX
  5
429
  8
0
 10
87.447448266785656
 20
24.15116129753773
 30
0.0
 42
0.2280338981645266
 50
292.89911996388048
  0
VERTEX
  5
42A
  8
0
 10
87.562200415782499
 20
24.112212626541289
 30
0.0
 42
0.1963710675046459
 50
90.0
  0
SEQEND
  5
42B
  8
0
  0
POLYLINE
  5
42C
  8
0
 66
     1
 10
0.0
 20
0.0
 30
0.0
  0
VERTEX
  5
42D
  8
0
 10
87.562200415782499
 20
30.780990858764639
 30
0.0
 42
0.2055316714992537
 50
90.0
  0
VERTEX
  5
42E
  8
0
 10
87.442003430271654
 20
30.729403046295079
 30
0.0
 42
0.0965313913509376
 50
90.0
  0
VERTEX
  5
42F
  8
0
 10
87.297035372837385
 20
30.50198068431213
 30
0.0
 42
0.0533986296957384
 70
     2
 50
248.5124580243924
  0
VERTEX
  5
430
  8
0
 10
87.218675574447516
 20
30.216998309419981
 30
0.0
 42
0.0404311354471943
 50
248.5124580243924
  0
VERTEX
  5
431
  8
0
 10
87.187200415782286
 20
29.82839053710881
 30
0.0
 42
0.0404311354471791
 50
90.0
  0
SEQEND
  5
432
  8
0
  0
POLYLINE
  5
433
  8
0
 66
     1
 10
0.0
 20
0.0
 30
0.0
  0
VERTEX
  5
434
  8
0
 10
87.187200415782584
 20
29.82839053710881
 30
0.0
 42
0.0520405140106174
 50
90.0
  0
VERTEX
  5
435
  8
0
 10
87.218242260737483
 20
29.530951344296401
 30
0.0
 42
0.0658985238271168
 50
90.0
  0
VERTEX
  5
436
  8
0
 10
87.297035372837584
 20
29.307909309105931
 30
0.0
 42
0.1046205348859841
 70
     2
 50
296.99708196701903
  0
VERTEX
  5
437
  8
0
 10
87.442572522060331
 20
29.12781508938345
 30
0.0
 42
0.1996909920929194
 50
296.99708196701903
  0
VERTEX
  5
438
  8
0
 10
87.562200415782499
 20
29.092318925506529
 30
0.0
 42
0.172337143622725
 50
90.0
  0
SEQEND
  5
439
  8
0
  0
POLYLINE
  5
43A
  8
0
 66
     1
 10
0.0
 20
0.0
 30
0.0
  0
VERTEX
  5
43B
  8
0
 10
87.187200415782584
 20
34.18414456707044
 30
0.0
 42
0.0737304435607645
 50
90.0
  0
VERTEX
  5
43C
  8
0
 10
87.217208743219345
 20
33.981750580429669
 30
0.0
 42
0.0845717212532976
 50
90.0
  0
VERTEX
  5
43D
  8
0
 10
87.29703537283757
 20
33.82189091210433
 30
0.0
 42
0.1063921108588694
 70
     2
 50
306.20365064702992
  0
VERTEX
  5
43E
  8
0
 10
87.434312471409086
 20
33.699794482119451
 30
0.0
 42
0.1510088585334486
 50
306.20365064702992
  0
VERTEX
  5
43F
  8
0
 10
87.562200415782499
 20
33.671840535194953
 30
0.0
 42
0.1294534172461018
 50
90.0
  0
SEQEND
  5
440
  8
0
  0
POLYLINE
  5
441
  8
0
 66
     1
 10
0.0
 20
0.0
 30
0.0
  0
VERTEX
  5
442
  8
0
 10
87.562200415782485
 20
35.108310680265561
 30
0.0
 42
0.2015894264067176
 50
90.0
  0
VERTEX
  5
443
  8
0
 10
87.441133395516033
 20
35.057431369382357
 30
0.0
 42
0.0977170379735125
 50
90.0
  0
VERTEX
  5
444
  8
0
 10
87.297035372837584
 20
34.83762869265351
 30
0.0
 42
0.0547927573384048
 70
     2
 50
247.9141022391737
  0
VERTEX
  5
445
  8
0
 10
87.218634338965188
 20
34.560812112626877
 30
0.0
 42
0.0416539519670256
 50
247.9141022391737
  0
VERTEX
  5
446
  8
0
 10
87.187200415782584
 20
34.184144567070412
 30
0.0
 42
0.0416539519669881
 50
90.0
  0
SEQEND
  5
447
  8
0
  0
LINE
  5
448
  8
0
 10
87.562200415782499
 20
40.975350812407733
 30
0.0
 11
97.312200415782428
 21
40.975350812407733
 31
0.0
  0
LINE
  5
449
  8
0
 10
87.562200415782499
 20
40.975350812407733
 30
0.0
 11
87.562200415782499
 21
40.467802876037048
 31
0.0
  0
LINE
  5
44A
  8
2
 10
107.3622004157824
 20
28.32350000000001
 30
0.0
 11
108.5622004157824
 21
29.52350000000002
 31
0.0
  0
LINE
  5
44B
  8
2
 10
108.0387004157824
 20
28.999999999999979
 30
0.0
 11
98.56220041578247
 21
28.999999999999989
 31
0.0
  0
LINE
  5
44C
  8
2
 10
98.56220041578247
 20
28.999999999999929
 30
0.0
 11
97.390468044462267
 21
28.32350000000001
 31
0.0
  0
LINE
  5
44D
  8
2
 10
107.3622004157825
 20
28.323500000000092
 30
0.0
 11
96.562200415782456
 21
28.323500000000099
 31
0.0
  0
LINE
  5
44E
  8
2
 10
96.562200415782456
 20
28.323500000000148
 30
0.0
 11
94.565240148444246
 21
24.999999999999989
 31
0.0
  0
LINE
  5
44F
  8
2
 10
95.562200415782485
 20
29.999999999999989
 30
0.0
 11
108.2622004157824
 21
29.999999999999979
 31
0.0
  0
LINE
  5
450
  8
2
 10
95.562200415782485
 20
29.999999999999989
 30
0.0
 11
93.562200415782485
 21
27.999999999999989
 31
0.0
  0
LINE
  5
451
  8
2
 10
91.962200415782462
 20
35.499999999999979
 30
0.0
 11
91.462200415782462
 21
35.499999999999979
 31
0.0
  0
LINE
  5
452
  8
2
 10
86.562200415782456
 20
38.499999999999972
 30
0.0
 11
91.462200415782462
 21
35.499999999999979
 31
0.0
  0
LINE
  5
453
  8
2
 10
95.562200415782485
 20
19.999999999999989
 30
0.0
 11
108.2622004157824
 21
19.999999999999989
 31
0.0
  0
LINE
  5
454
  8
2
 10
107.3622004157824
 20
21.676499999999962
 30
0.0
 11
108.5622004157824
 21
20.476499999999952
 31
0.0
  0
LINE
  5
455
  8
2
 10
107.3622004157824
 20
28.32349999999996
 30
0.0
 11
107.3622004157825
 21
21.676499999999901
 31
0.0
  0
LINE
  5
456
  8
2
 10
98.56220041578247
 20
21.000000000000039
 30
0.0
 11
97.390468044462267
 21
21.676499999999962
 31
0.0
  0
LINE
  5
457
  8
2
 10
96.562200415782456
 20
21.67649999999988
 30
0.0
 11
96.562200415782456
 21
28.323500000000141
 31
0.0
  0
LINE
  5
458
  8
2
 10
98.56220041578247
 20
20.999999999999989
 30
0.0
 11
98.56220041578247
 21
28.999999999999929
 31
0.0
  0
LINE
  5
459
  8
2
 10
96.562200415782456
 20
21.67649999999982
 30
0.0
 11
94.565240148444246
 21
24.999999999999989
 31
0.0
  0
LINE
  5
45A
  8
2
 10
107.3622004157825
 20
21.67649999999988
 30
0.0
 11
96.562200415782456
 21
21.67649999999988
 31
0.0
  0
LINE
  5
45B
  8
2
 10
108.0387004157824
 20
20.999999999999989
 30
0.0
 11
98.56220041578247
 21
20.999999999999989
 31
0.0
  0
LINE
  5
45C
  8
0
 10
87.562200415782499
 20
40.467802876037076
 30
0.0
 11
97.312200415782456
 21
40.467802876037076
 31
0.0
  0
LINE
  5
45D
  8
0
 10
87.562200415782499
 20
39.919120104445831
 30
0.0
 11
97.312200415782414
 21
39.919120104445831
 31
0.0
  0
LINE
  5
45E
  8
0
 10
87.562200415782499
 20
38.446158623640208
 30
0.0
 11
97.312201369456787
 21
38.446158623640208
 31
0.0
  0
LINE
  5
45F
  8
0
 10
87.562200415782499
 20
37.402501973038738
 30
0.0
 11
97.362659288599275
 21
37.402501973038738
 31
0.0
  0
LINE
  5
460
  8
0
 10
87.562200415782499
 20
35.108310680265561
 30
0.0
 11
97.312202548263059
 21
35.108310680265561
 31
0.0
  0
LINE
  5
461
  8
0
 10
87.562200415782499
 20
33.6718405351981
 30
0.0
 11
97.349641698915235
 21
33.6718405351981
 31
0.0
  0
LINE
  5
462
  8
0
 10
87.562200415782499
 20
30.780990858764639
 30
0.0
 11
97.312201369456744
 21
30.780990858764639
 31
0.0
  0
LINE
  5
463
  8
0
 10
87.562200415782499
 20
29.092318925506529
 30
0.0
 11
97.346494712238567
 21
29.092318925506529
 31
0.0
  0
LINE
  5
464
  8
0
 10
87.562200415782499
 20
25.88778737347609
 30
0.0
 11
97.312200415782485
 21
25.887787373476069
 31
0.0
  0
LINE
  5
465
  8
0
 10
108.5622004157824
 20
19.999999999999972
 30
0.0
 11
108.5622004157824
 21
30.0
 31
0.0
  0
LINE
  5
466
  8
0
 10
86.562200415782456
 20
9.9999999999999751
 30
0.0
 11
86.562200415782485
 21
40.0
 31
0.0
  0
LINE
  5
467
  8
2
 10
86.562200415782456
 20
11.5
 30
0.0
 11
91.462200415782462
 21
14.5
 31
0.0
  0
LINE
  5
468
  8
2
 10
91.462200415782462
 20
14.5
 30
0.0
 11
91.462200415782462
 21
35.499999999999979
 31
0.0
  0
LINE
  5
469
  8
2
 10
91.962200415782462
 20
14.5
 30
0.0
 11
91.462200415782462
 21
14.5
 31
0.0
  0
LINE
  5
46A
  8
2
 10
91.962200415782462
 20
35.499999999999979
 30
0.0
 11
91.962200415782462
 21
14.5
 31
0.0
  0
LINE
  5
46B
  8
2
 10
95.562200415782485
 20
19.999999999999989
 30
0.0
 11
93.562200415782485
 21
21.999999999999979
 31
0.0
  0
LINE
  5
46C
  8
0
 10
108.5622004157824
 20
19.999999999999989
 30
0.0
 11
108.2622004157824
 21
19.999999999999972
 31
0.0
  0
LINE
  5
46D
  8
2
 10
93.562200415782428
 20
27.999999999999918
 30
0.0
 11
93.562200415782485
 21
21.999999999999979
 31
0.0
  0
LINE
  5
46E
  8
0
 10
98.562200415782485
 20
41.0
 30
0.0
 11
98.562200415782485
 21
9.0000000000000036
 31
0.0
  0
LINE
  5
46F
  8
0
 10
107.2622004157824
 20
33.499999999999972
 30
0.0
 11
107.2622004157824
 21
16.500000000000011
 31
0.0
  0
LINE
  5
470
  8
0
 10
97.687200415782371
 20
41.0
 30
0.0
 11
98.562200415782485
 21
41.0
 31
0.0
  0
LINE
  5
471
  8
0
 10
99.562200415782485
 20
40.0
 30
0.0
 11
99.562200415782485
 21
9.9999999999999893
 31
0.0
  0
LINE
  5
472
  8
0
 10
99.562200415782485
 20
33.5
 30
0.0
 11
107.2622004157824
 21
33.499999999999972
 31
0.0
  0
LINE
  5
473
  8
0
 10
108.2622004157824
 20
32.499999999999972
 30
0.0
 11
108.2622004157824
 21
17.5
 31
0.0
  0
LINE
  5
474
  8
0
 10
108.2622004157824
 20
29.999999999999979
 30
0.0
 11
108.5622004157824
 21
29.999999999999979
 31
0.0
  0
LINE
  5
475
  8
0
 10
87.187200415792645
 20
40.625000000010182
 30
0.0
 11
86.562200415782485
 21
40.0
 31
0.0
  0
LINE
  5
476
  8
0
 10
98.562200415782485
 20
41.0
 30
0.0
 11
99.562200415782485
 21
40.0
 31
0.0
  0
LINE
  5
477
  8
0
 10
107.2622004157824
 20
33.499999999999972
 30
0.0
 11
108.2622004157824
 21
32.499999999999972
 31
0.0
  0
LINE
  5
478
  8
0
 10
107.2622004157824
 20
16.499999999999972
 30
0.0
 11
108.2622004157824
 21
17.5
 31
0.0
  0
LINE
  5
479
  8
0
 10
98.562200415782485
 20
9.0000000000000036
 30
0.0
 11
99.562200415782485
 21
10.0
 31
0.0
  0
LINE
  5
47A
  8
0
 10
99.562200415782456
 20
16.499999999999972
 30
0.0
 11
107.2622004157824
 21
16.499999999999972
 31
0.0
  0
LINE
  5
47B
  8
1
 10
111.0622004157824
 20
24.999999999999989
 30
0.0
 11
84.062200415782456
 21
24.999999999999989
 31
0.0
  0
CIRCLE
  5
47C
  8
0
 10
152.5
 20
70.0
 30
0.0
 40
16.0
  0
LINE
  5
47D
  8
1
 10
152.49999999999989
 20
51.5
 30
0.0
 11
152.5
 21
88.499999999999986
 31
0.0
  0
LINE
  5
47E
  8
1
 10
171.0
 20
69.999999999999986
 30
0.0
 11
134.0
 21
70.0
 31
0.0
  0
CIRCLE
  5
47F
  8
3
 10
152.5
 20
69.999999999999986
 30
0.0
 40
4.0
  0
CIRCLE
  5
480
  8
0
 10
152.5
 20
69.999999999999986
 30
0.0
 40
3.3235000000000001
  0
CIRCLE
  5
481
  8
0
 10
152.5
 20
69.999999999999986
 30
0.0
 40
15.0
  0
CIRCLE
  5
482
  8
0
 10
152.5
 20
69.999999999999986
 30
0.0
 40
8.4999999999999858
  0
CIRCLE
  5
483
  8
0
 10
152.5
 20
69.999999999999986
 30
0.0
 40
7.4999999999999707
  0
CIRCLE
  5
484
  8
0
 10
152.5
 20
69.999999999999986
 30
0.0
 40
5.0
  0
ENDSEC
  0
EOF
