  0
SECTION
  2
HEADER
  9
$ACADVER
  1
AC1009
  9
$INSBASE
 10
0.0
 20
0.0
 30
0.0
  9
$EXTMIN
 10
25.986671914563829
 20
17.495041228242989
 30
-0.0015258207003583
  9
$EXTMAX
 10
161.01264994185479
 20
122.500305475551
 30
0.0000000349246037
  9
$LIMMIN
 10
0.0
 20
0.0
  9
$LIMMAX
 10
187.5
 20
135.0
  9
$ORTHOMODE
 70
     1
  9
$REGENMODE
 70
     1
  9
$FILLMODE
 70
     1
  9
$QTEXTMODE
 70
     0
  9
$MIRRTEXT
 70
     0
  9
$DRAGMODE
 70
     2
  9
$LTSCALE
 40
5.0
  9
$OSMODE
 70
   231
  9
$ATTMODE
 70
     1
  9
$TEXTSIZE
 40
5.0
  9
$TRACEWID
 40
0.05
  9
$TEXTSTYLE
  7
STANDARD
  9
$CLAYER
  8
0
  9
$CELTYPE
  6
BYLAYER
  9
$CECOLOR
 62
   256
  9
$DIMSCALE
 40
0.5
  9
$DIMASZ
 40
3.0
  9
$DIMEXO
 40
2.0
  9
$DIMDLI
 40
0.38
  9
$DIMRND
 40
0.0
  9
$DIMDLE
 40
0.0
  9
$DIMEXE
 40
2.0
  9
$DIMTP
 40
0.0
  9
$DIMTM
 40
0.0
  9
$DIMTXT
 40
3.2000000000000002
  9
$DIMCEN
 40
0.09
  9
$DIMTSZ
 40
0.0
  9
$DIMTOL
 70
     0
  9
$DIMLIM
 70
     0
  9
$DIMTIH
 70
     0
  9
$DIMTOH
 70
     0
  9
$DIMSE1
 70
     0
  9
$DIMSE2
 70
     0
  9
$DIMTAD
 70
     1
  9
$DIMZIN
 70
     0
  9
$DIMBLK
  1

  9
$DIMASO
 70
     1
  9
$DIMSHO
 70
     0
  9
$DIMPOST
  1

  9
$DIMAPOST
  1

  9
$DIMALT
 70
     0
  9
$DIMALTD
 70
     2
  9
$DIMALTF
 40
25.399999999999999
  9
$DIMLFAC
 40
1.0
  9
$DIMTOFL
 70
     0
  9
$DIMTVP
 40
1.6000000000000001
  9
$DIMTIX
 70
     1
  9
$DIMSOXD
 70
     0
  9
$DIMSAH
 70
     0
  9
$DIMBLK1
  1

  9
$DIMBLK2
  1

  9
$DIMSTYLE
  2
STANDARD
  9
$DIMCLRD
 70
     0
  9
$DIMCLRE
 70
     0
  9
$DIMCLRT
 70
     0
  9
$DIMTFAC
 40
1.0
  9
$DIMGAP
 40
0.09
  9
$LUNITS
 70
     2
  9
$LUPREC
 70
     4
  9
$SKETCHINC
 40
0.1
  9
$FILLETRAD
 40
0.0
  9
$AUNITS
 70
     0
  9
$AUPREC
 70
     0
  9
$MENU
  1
E:\r13\win\SUPPORT\ACAD
  9
$ELEVATION
 40
0.0
  9
$PELEVATION
 40
0.0
  9
$THICKNESS
 40
0.0
  9
$LIMCHECK
 70
     0
  9
$BLIPMODE
 70
     1
  9
$CHAMFERA
 40
0.0
  9
$CHAMFERB
 40
0.0
  9
$SKPOLY
 70
     0
  9
$TDCREATE
 40
2449839.7834837958
  9
$TDUPDATE
 40
2453236.8207268049
  9
$TDINDWG
 40
0.000164213
  9
$TDUSRTIMER
 40
0.000164213
  9
$USRTIMER
 70
     1
  9
$ANGBASE
 50
0.0
  9
$ANGDIR
 70
     0
  9
$PDMODE
 70
     0
  9
$PDSIZE
 40
0.0
  9
$PLINEWID
 40
0.0
  9
$COORDS
 70
     0
  9
$SPLFRAME
 70
     0
  9
$SPLINETYPE
 70
     6
  9
$SPLINESEGS
 70
     8
  9
$ATTDIA
 70
     0
  9
$ATTREQ
 70
     1
  9
$HANDLING
 70
-16383
  9
$HANDSEED
  5
42B
  9
$SURFTAB1
 70
     6
  9
$SURFTAB2
 70
     6
  9
$SURFTYPE
 70
     6
  9
$SURFU
 70
     6
  9
$SURFV
 70
     6
  9
$UCSNAME
  2

  9
$UCSORG
 10
0.0
 20
0.0
 30
0.0
  9
$UCSXDIR
 10
1.0
 20
0.0
 30
0.0
  9
$UCSYDIR
 10
0.0
 20
1.0
 30
0.0
  9
$PUCSNAME
  2

  9
$PUCSORG
 10
0.0
 20
0.0
 30
0.0
  9
$PUCSXDIR
 10
1.0
 20
0.0
 30
0.0
  9
$PUCSYDIR
 10
0.0
 20
1.0
 30
0.0
  9
$USERI1
 70
     0
  9
$USERI2
 70
     1
  9
$USERI3
 70
     1
  9
$USERI4
 70
     0
  9
$USERI5
 70
     0
  9
$USERR1
 40
0.0
  9
$USERR2
 40
0.0
  9
$USERR3
 40
0.0
  9
$USERR4
 40
0.0
  9
$USERR5
 40
0.0
  9
$WORLDVIEW
 70
     1
  9
$SHADEDGE
 70
     3
  9
$SHADEDIF
 70
    70
  9
$TILEMODE
 70
     1
  9
$MAXACTVP
 70
    16
  9
$PLIMCHECK
 70
     0
  9
$PEXTMIN
 10
1.0000000000000000E+020
 20
1.0000000000000000E+020
 30
1.0000000000000000E+020
  9
$PEXTMAX
 10
-1.0000000000000000E+020
 20
-1.0000000000000000E+020
 30
-1.0000000000000000E+020
  9
$PLIMMIN
 10
0.0
 20
0.0
  9
$PLIMMAX
 10
12.0
 20
9.0
  9
$UNITMODE
 70
     0
  9
$VISRETAIN
 70
     0
  9
$PLINEGEN
 70
     0
  9
$PSLTSCALE
 70
     0
  0
ENDSEC
  0
SECTION
  2
TABLES
  0
TABLE
  2
VPORT
 70
     3
  0
VPORT
  2
*ACTIVE
 70
     0
 10
0.0
 20
0.0
 11
1.0
 21
1.0
 12
93.499660928209352
 22
69.997673351897006
 13
0.0
 23
0.0
 14
5.0
 24
5.0
 15
5.0
 25
5.0
 16
0.0
 26
0.0
 36
1.0
 17
0.0
 27
0.0
 37
0.0
 40
160.82290733827381
 41
0.9407114624505929
 42
50.0
 43
0.0
 44
0.0
 50
0.0
 51
0.0
 71
     0
 72
   500
 73
     1
 74
     0
 75
     0
 76
     0
 77
     0
 78
     2
  0
ENDTAB
  0
TABLE
  2
LTYPE
 70
     3
  0
LTYPE
  2
CONTINUOUS
 70
     0
  3
Solid Line
 72
    65
 73
     0
 40
0.0
  0
LTYPE
  2
CENTER
 70
     0
  3
____ _ ____ _ ____ _ ____ _ ____ _ ____ _ ____
 72
    65
 73
     4
 40
2.0
 49
1.25
 49
-0.25
 49
0.25
 49
-0.25
  0
LTYPE
  2
HIDDEN
 70
     0
  3
_ _ _ _ _ _ _ _ _ _ _ _ _ _ _ _ _ _ _ _ _ _ _
 72
    65
 73
     2
 40
0.375
 49
0.25
 49
-0.125
  0
ENDTAB
  0
TABLE
  2
LAYER
 70
     4
  0
LAYER
  2
0
 70
     0
 62
     7
  6
CONTINUOUS
  0
LAYER
  2
1
 70
     0
 62
     1
  6
CENTER
  0
LAYER
  2
3
 70
     0
 62
     3
  6
CONTINUOUS
  0
LAYER
  2
2
 70
     0
 62
     2
  6
HIDDEN
  0
ENDTAB
  0
TABLE
  2
STYLE
 70
     1
  0
STYLE
  2
STANDARD
 70
     0
 40
0.0
 41
1.0
 50
0.0
 71
     0
 42
5.0
  3
TXT
  4
BIGFONT
  0
ENDTAB
  0
TABLE
  2
VIEW
 70
     1
  0
VIEW
  2
ALL
 70
     0
 40
135.0
 10
110.4957983193277
 20
67.5
 41
0.0
 11
0.0
 21
0.0
 31
1.0
 12
0.0
 22
0.0
 32
0.0
 42
0.0
 43
0.0
 44
0.0
 50
0.0
 71
     0
  0
ENDTAB
  0
TABLE
  2
UCS
 70
     0
  0
ENDTAB
  0
TABLE
  2
APPID
 70
     1
  0
APPID
  2
ACAD
 70
     0
  0
ENDTAB
  0
TABLE
  2
DIMSTYLE
 70
     1
  0
DIMSTYLE
  2
STANDARD
 70
     0
  3

  4

  5

  6

  7

 40
1.0
 41
0.18
 42
0.0625
 43
0.38
 44
0.18
 45
0.0
 46
0.0
 47
0.0
 48
0.0
140
0.18
141
0.09
142
0.0
143
25.399999999999999
144
1.0
145
0.0
146
1.0
147
0.09
 71
     0
 72
     0
 73
     1
 74
     1
 75
     0
 76
     0
 77
     0
 78
     0
170
     0
171
     2
172
     0
173
     0
174
     0
175
     0
176
     0
177
     0
178
     0
  0
ENDTAB
  0
ENDSEC
  0
SECTION
  2
BLOCKS
  0
BLOCK
  8
0
  2
$MODEL_SPACE
 70
     0
 10
0.0
 20
0.0
 30
0.0
  3
$MODEL_SPACE
  1

  0
ENDBLK
  5
3D3
  8
0
  0
BLOCK
 67
     1
  8
0
  2
$PAPER_SPACE
 70
     0
 10
0.0
 20
0.0
 30
0.0
  3
$PAPER_SPACE
  1

  0
ENDBLK
  5
3D1
 67
     1
  8
0
  0
ENDSEC
  0
SECTION
  2
ENTITIES
  0
LINE
  5
36
  8
1
 10
104.94577054407181
 20
70.0
 30
0.0
 11
80.945770544071877
 21
70.0
 31
0.0
  0
LINE
  5
37
  8
0
 10
94.445770544071848
 20
62.0
 30
0.0
 11
101.14577054407179
 21
62.0
 31
0.0
  0
LINE
  5
38
  8
0
 10
102.14577054407179
 20
74.0
 30
0.0
 11
102.44577054407181
 21
74.0
 31
0.0
  0
LINE
  5
39
  8
0
 10
102.14577054407179
 20
77.0
 30
0.0
 11
102.14577054407179
 21
63.0
 31
0.0
  0
LINE
  5
3A
  8
0
 10
94.445770544071877
 20
78.0
 30
0.0
 11
101.14577054407179
 21
78.0
 31
0.0
  0
LINE
  5
3B
  8
0
 10
94.445770544071877
 20
81.5
 30
0.0
 11
94.445770544071877
 21
58.500000000000021
 31
0.0
  0
LINE
  5
3C
  8
0
 10
93.445770544071877
 20
57.5
 30
0.0
 11
94.445770544071877
 21
58.500000000000007
 31
0.0
  0
LINE
  5
3D
  8
0
 10
101.14577054407179
 20
62.0
 30
0.0
 11
102.14577054407179
 21
63.0
 31
0.0
  0
LINE
  5
3E
  8
0
 10
102.14577054407179
 20
77.0
 30
0.0
 11
101.14577054407179
 21
78.0
 31
0.0
  0
LINE
  5
3F
  8
0
 10
94.445770544071877
 20
81.5
 30
0.0
 11
93.445770544071877
 21
82.5
 31
0.0
  0
LINE
  5
40
  8
0
 10
83.445770544071877
 20
81.5
 30
0.0
 11
83.94497761096838
 21
81.999207066896517
 31
0.0
  0
LINE
  5
41
  8
0
 10
101.14577054407179
 20
78.0
 30
0.0
 11
101.14577054407179
 21
62.0
 31
0.0
  0
LINE
  5
42
  8
0
 10
93.445770544071877
 20
82.5
 30
0.0
 11
93.445770544071877
 21
57.5
 31
0.0
  0
LINE
  5
43
  8
0
 10
84.445770544071863
 20
82.470724907063214
 30
0.0
 11
84.445770544071905
 21
81.848640778353627
 31
0.0
  0
LINE
  5
44
  8
2
 10
87.645770544071866
 20
77.700000000000017
 30
0.0
 11
87.645770544071866
 21
62.299999999999983
 31
0.0
  0
LINE
  5
45
  8
2
 10
87.645770544071866
 20
62.299999999999983
 30
0.0
 11
87.145770544071866
 21
62.299999999999983
 31
0.0
  0
LINE
  5
46
  8
2
 10
87.145770544071866
 20
62.299999999999983
 30
0.0
 11
87.145770544071866
 21
77.700000000000017
 31
0.0
  0
LINE
  5
47
  8
2
 10
83.445770544071877
 20
59.75
 30
0.0
 11
87.145770544071866
 21
62.299999999999983
 31
0.0
  0
LINE
  5
48
  8
2
 10
90.445770544071905
 20
73.000000000000085
 30
0.0
 11
90.445770544071834
 21
66.999999999999972
 31
0.0
  0
LINE
  5
49
  8
0
 10
102.44577054407181
 20
66.0
 30
0.0
 11
102.14577054407179
 21
66.0
 31
0.0
  0
LINE
  5
4A
  8
2
 10
91.445770544071834
 20
65.999999999999972
 30
0.0
 11
90.445770544071834
 21
66.999999999999972
 31
0.0
  0
LINE
  5
4B
  8
0
 10
83.445770544071848
 20
58.500000000000007
 30
0.0
 11
83.445770544071877
 21
81.5
 31
0.0
  0
LINE
  5
4C
  8
0
 10
102.44577054407181
 20
66.0
 30
0.0
 11
102.44577054407181
 21
74.0
 31
0.0
  0
ARC
  5
4D
  8
0
 10
41.000000000000043
 20
56.549999999999848
 30
0.0
 40
1.3
 50
48.876049441103881
 51
131.12395055889601
  0
CIRCLE
  5
4E
  8
0
 10
41.000000000000043
 20
70.0
 30
0.0
 40
7.7000000000000002
  0
CIRCLE
  5
4F
  8
0
 10
41.000000000000043
 20
70.0
 30
0.0
 40
10.749999999999989
  0
CIRCLE
  5
50
  8
0
 10
41.000000000000043
 20
70.0
 30
0.0
 40
11.5
  0
CIRCLE
  5
51
  8
0
 10
41.000000000000043
 20
70.0
 30
0.0
 40
12.5
  0
LINE
  5
52
  8
1
 10
41.000000000000043
 20
55.0
 30
0.0
 11
41.000000000000043
 21
85.0
 31
0.0
  0
LINE
  5
53
  8
1
 10
56.0
 20
70.0
 30
0.0
 11
26.000000000000121
 21
70.000000000000014
 31
0.0
  0
ARC
  5
54
  8
0
 10
46.147092165310539
 20
57.573820287723052
 30
0.0
 40
1.3
 50
71.376049441103802
 51
153.6239505588961
  0
ARC
  5
55
  8
0
 10
50.510586206959211
 20
60.489413793040818
 30
0.0
 40
1.3
 50
93.876049441103845
 51
176.1239505588961
  0
ARC
  5
56
  8
0
 10
53.426179712277012
 20
64.852907834689489
 30
0.0
 40
1.3
 50
116.3760494411038
 51
198.6239505588961
  0
ARC
  5
57
  8
0
 10
54.45000000000023
 20
69.999999999999972
 30
0.0
 40
1.3
 50
138.87604944110379
 51
221.1239505588961
  0
ARC
  5
58
  8
0
 10
53.426179712277012
 20
75.147092165310539
 30
0.0
 40
1.3
 50
161.3760494411039
 51
243.6239505588961
  0
ARC
  5
59
  8
0
 10
50.510586206959218
 20
79.510586206959204
 30
0.0
 40
1.3
 50
183.87604944110379
 51
266.12395055889613
  0
ARC
  5
5A
  8
0
 10
46.147092165310561
 20
82.426179712276962
 30
0.0
 40
1.3
 50
206.37604944110379
 51
288.62395055889618
  0
ARC
  5
5B
  8
0
 10
41.000000000000043
 20
83.450000000000159
 30
0.0
 40
1.3
 50
228.87604944110379
 51
311.12395055889618
  0
ARC
  5
5C
  8
0
 10
35.852907834689539
 20
82.426179712276962
 30
0.0
 40
1.3
 50
251.37604944110379
 51
333.62395055889613
  0
ARC
  5
5D
  8
0
 10
31.489413793040871
 20
79.510586206959161
 30
0.0
 40
1.3
 50
273.87604944110382
 51
356.12395055889613
  0
ARC
  5
5E
  8
0
 10
28.573820287723109
 20
75.147092165310525
 30
0.0
 40
1.3
 50
296.37604944110382
 51
18.623950558896169
  0
ARC
  5
5F
  8
0
 10
27.549999999999891
 20
70.000000000000014
 30
0.0
 40
1.3
 50
318.87604944110382
 51
41.123950558896091
  0
ARC
  5
60
  8
0
 10
28.573820287723109
 20
64.852907834689503
 30
0.0
 40
1.3
 50
341.37604944110387
 51
63.623950558896219
  0
ARC
  5
61
  8
0
 10
31.489413793040889
 20
60.489413793040811
 30
0.0
 40
1.3
 50
3.8760494411039268
 51
86.123950558896141
  0
ARC
  5
62
  8
0
 10
35.852907834689518
 20
57.573820287723052
 30
0.0
 40
1.3
 50
26.376049441103952
 51
108.6239505588962
  0
LINE
  5
63
  8
0
 10
84.445770544071877
 20
81.848640778353627
 30
0.0
 11
92.945770544070456
 21
81.848640778353627
 31
0.0
  0
LINE
  5
64
  8
0
 10
84.445770544071877
 20
81.194254216075137
 30
0.0
 11
92.945770544070456
 21
81.194254216075166
 31
0.0
  0
LINE
  5
65
  8
0
 10
84.445770544071877
 20
79.422708499335869
 30
0.0
 11
92.945770544070456
 21
79.422708499335869
 31
0.0
  0
LINE
  5
66
  8
0
 10
84.445770544071877
 20
78.213559796856885
 30
0.0
 11
92.945770544070456
 21
78.213559796856885
 31
0.0
  0
LINE
  5
67
  8
0
 10
84.445770544071877
 20
75.562254268359453
 30
0.0
 11
92.945770544070456
 21
75.562254268359425
 31
0.0
  0
LINE
  5
68
  8
0
 10
84.445770544071877
 20
73.982425354672046
 30
0.0
 11
92.945770544070456
 21
73.982425354672046
 31
0.0
  0
LINE
  5
69
  8
0
 10
84.445770544071877
 20
70.854997246985761
 30
0.0
 11
92.945770544070456
 21
70.854997246985732
 31
0.0
  0
ARC
  5
6A
  8
0
 10
92.464750251719892
 20
69.999999999999844
 30
0.0
 40
0.9810202923517865
 50
299.36204681106381
 51
60.637953189071311
  0
POLYLINE
  5
6B
  8
0
 66
     1
 10
0.0
 20
0.0
 30
0.0
  0
VERTEX
  5
6C
  8
0
 10
92.945770544070456
 20
73.982425354672046
 30
0.0
 42
0.126904853429963
 50
180.0
  0
VERTEX
  5
6D
  8
0
 10
93.129206483146959
 20
74.02974525612467
 30
0.0
 42
0.1060810122797594
 50
180.0
  0
VERTEX
  5
6E
  8
0
 10
93.299323934664727
 20
74.177837368705582
 30
0.0
 42
0.085744797149215
 70
     2
 50
53.151200382941283
  0
VERTEX
  5
6F
  8
0
 10
93.416880881615086
 20
74.408087317007244
 30
0.0
 42
0.0912209683726037
 50
53.151200382941283
  0
VERTEX
  5
70
  8
0
 10
93.445770544070854
 20
74.649603703235897
 30
0.0
 42
0.0753899821444356
 50
180.0
  0
SEQEND
  5
71
  8
0
  0
POLYLINE
  5
72
  8
0
 66
     1
 10
0.0
 20
0.0
 30
0.0
  0
VERTEX
  5
73
  8
0
 10
93.445770544068665
 20
74.649603703235925
 30
0.0
 42
0.0558453538950165
 50
180.0
  0
VERTEX
  5
74
  8
0
 10
93.404596625045798
 20
75.017096313744943
 30
0.0
 42
0.0696234494827605
 50
180.0
  0
VERTEX
  5
75
  8
0
 10
93.299323934662453
 20
75.294945106688488
 30
0.0
 42
0.1059514344510999
 70
     2
 50
118.71634323813591
  0
VERTEX
  5
76
  8
0
 10
93.118541538424694
 20
75.504292240525274
 30
0.0
 42
0.1632707906765774
 50
118.71634323813591
  0
VERTEX
  5
77
  8
0
 10
92.945770544070456
 20
75.562254268359425
 30
0.0
 42
0.1632707906765776
 50
180.0
  0
SEQEND
  5
78
  8
0
  0
POLYLINE
  5
79
  8
0
 66
     1
 10
0.0
 20
0.0
 30
0.0
  0
VERTEX
  5
7A
  8
0
 10
92.945770544070456
 20
78.213559796856885
 30
0.0
 42
0.0759738029860677
 50
180.0
  0
VERTEX
  5
7B
  8
0
 10
93.142781392067249
 20
78.243668913948625
 30
0.0
 42
0.0861489681664724
 50
180.0
  0
VERTEX
  5
7C
  8
0
 10
93.299323934664727
 20
78.324211221455272
 30
0.0
 42
0.1059611842089019
 70
     2
 50
37.073789426068082
  0
VERTEX
  5
7D
  8
0
 10
93.418290896099137
 20
78.461894371846284
 30
0.0
 42
0.1471982240755334
 50
37.073789426068082
  0
VERTEX
  5
7E
  8
0
 10
93.445770544071706
 20
78.591347391416662
 30
0.0
 42
0.1260278403512851
 50
180.0
  0
SEQEND
  5
7F
  8
0
  0
POLYLINE
  5
80
  8
0
 66
     1
 10
0.0
 20
0.0
 30
0.0
  0
VERTEX
  5
81
  8
0
 10
93.445770544071877
 20
78.59134739141669
 30
0.0
 42
0.061112938037691
 50
180.0
  0
VERTEX
  5
82
  8
0
 10
93.404914114028074
 20
78.924368852301939
 30
0.0
 42
0.0744665224447995
 50
180.0
  0
VERTEX
  5
83
  8
0
 10
93.299323934664727
 20
79.179208468441104
 30
0.0
 42
0.1069586370034828
 70
     2
 50
121.0236844281015
  0
VERTEX
  5
84
  8
0
 10
93.12189737544017
 20
79.367925207107646
 30
0.0
 42
0.1519322921768495
 50
121.0236844281015
  0
VERTEX
  5
85
  8
0
 10
92.945770544070456
 20
79.422708499335869
 30
0.0
 42
0.1519322921768134
 50
180.0
  0
SEQEND
  5
86
  8
0
  0
POLYLINE
  5
87
  8
0
 66
     1
 10
0.0
 20
0.0
 30
0.0
  0
VERTEX
  5
88
  8
0
 10
92.945770544070456
 20
81.194254216075166
 30
0.0
 42
0.0063945854363995
 50
180.0
  0
VERTEX
  5
89
  8
0
 10
93.152795633843652
 20
81.196902003593095
 30
0.0
 42
0.0090272087772587
 50
180.0
  0
VERTEX
  5
8A
  8
0
 10
93.299323934664727
 20
81.203299374900865
 30
0.0
 42
0.021587231382142
 70
     2
 50
3.5343387134001181
  0
VERTEX
  5
8B
  8
0
 10
93.441738141537854
 20
81.218286984252131
 30
0.0
 50
3.5343387134001181
  0
VERTEX
  5
8C
  8
0
 10
93.445770544071664
 20
81.22513632001224
 30
0.0
 50
180.0
  0
SEQEND
  5
8D
  8
0
  0
POLYLINE
  5
8E
  8
0
 66
     1
 10
0.0
 20
0.0
 30
0.0
  0
VERTEX
  5
8F
  8
0
 10
93.445770544071877
 20
81.225136320012268
 30
0.0
 42
0.0803470550416908
 50
180.0
  0
VERTEX
  5
90
  8
0
 10
93.406245990988779
 20
81.469509909131943
 30
0.0
 42
0.0890368192332178
 50
180.0
  0
VERTEX
  5
91
  8
0
 10
93.299323934664756
 20
81.666020550605495
 30
0.0
 42
0.1049083465716828
 70
     2
 50
128.7267845612262
  0
VERTEX
  5
92
  8
0
 10
93.131246569201181
 20
81.803567834781305
 30
0.0
 42
0.1197633248391211
 50
128.7267845612262
  0
VERTEX
  5
93
  8
0
 10
92.945770544070456
 20
81.848640778353627
 30
0.0
 42
0.119763324839129
 50
180.0
  0
SEQEND
  5
94
  8
0
  0
POLYLINE
  5
95
  8
0
 66
     1
 10
0.0
 20
0.0
 30
0.0
  0
VERTEX
  5
96
  8
0
 10
83.945770544070456
 20
81.225136320012268
 30
0.0
 42
-0.0803470550416908
 50
180.0
  0
VERTEX
  5
97
  8
0
 10
83.985295097153539
 20
81.469509909131943
 30
0.0
 42
-0.0890368192332178
 50
180.0
  0
VERTEX
  5
98
  8
0
 10
84.092217153477606
 20
81.666020550605495
 30
0.0
 42
-0.1049083465716828
 70
     2
 50
51.273215438773867
  0
VERTEX
  5
99
  8
0
 10
84.260294518941137
 20
81.803567834781305
 30
0.0
 42
-0.1197633248391211
 50
180.0
  0
VERTEX
  5
9A
  8
0
 10
84.445770544071877
 20
81.848640778353627
 30
0.0
 42
-0.119763324839129
 50
180.0
  0
SEQEND
  5
9B
  8
0
  0
POLYLINE
  5
9C
  8
0
 66
     1
 10
0.0
 20
0.0
 30
0.0
  0
VERTEX
  5
9D
  8
0
 10
84.445770544071905
 20
81.194254216075166
 30
0.0
 42
-0.0063945854363995
 50
180.0
  0
VERTEX
  5
9E
  8
0
 10
84.23874545429868
 20
81.196902003593095
 30
0.0
 42
-0.0090272087772587
 50
180.0
  0
VERTEX
  5
9F
  8
0
 10
84.092217153477634
 20
81.203299374900865
 30
0.0
 42
-0.021587231382142
 70
     2
 50
176.4656612865999
  0
VERTEX
  5
A0
  8
0
 10
83.949802946604464
 20
81.218286984252131
 30
0.0
 50
180.0
  0
VERTEX
  5
A1
  8
0
 10
83.945770544070683
 20
81.22513632001224
 30
0.0
 50
180.0
  0
SEQEND
  5
A2
  8
0
  0
POLYLINE
  5
A3
  8
0
 66
     1
 10
0.0
 20
0.0
 30
0.0
  0
VERTEX
  5
A4
  8
0
 10
83.945770544070456
 20
78.59134739141669
 30
0.0
 42
-0.061112938037691
 50
180.0
  0
VERTEX
  5
A5
  8
0
 10
83.986626974114273
 20
78.924368852301939
 30
0.0
 42
-0.0744665224447995
 50
180.0
  0
VERTEX
  5
A6
  8
0
 10
84.092217153477606
 20
79.179208468441104
 30
0.0
 42
-0.1069586370034828
 70
     2
 50
58.976315571898532
  0
VERTEX
  5
A7
  8
0
 10
84.269643712702162
 20
79.367925207107646
 30
0.0
 42
-0.1519322921768495
 50
180.0
  0
VERTEX
  5
A8
  8
0
 10
84.445770544071905
 20
79.422708499335869
 30
0.0
 42
-0.1519322921768134
 50
180.0
  0
SEQEND
  5
A9
  8
0
  0
POLYLINE
  5
AA
  8
0
 66
     1
 10
0.0
 20
0.0
 30
0.0
  0
VERTEX
  5
AB
  8
0
 10
84.445770544071905
 20
78.213559796856885
 30
0.0
 42
-0.0759738029860677
 50
180.0
  0
VERTEX
  5
AC
  8
0
 10
84.248759696075069
 20
78.243668913948625
 30
0.0
 42
-0.0861489681664724
 50
180.0
  0
VERTEX
  5
AD
  8
0
 10
84.092217153477634
 20
78.324211221455272
 30
0.0
 42
-0.1059611842089019
 70
     2
 50
142.92621057393191
  0
VERTEX
  5
AE
  8
0
 10
83.973250192043224
 20
78.461894371846284
 30
0.0
 42
-0.1471982240755334
 50
180.0
  0
VERTEX
  5
AF
  8
0
 10
83.945770544070655
 20
78.591347391416662
 30
0.0
 42
-0.1260278403512851
 50
180.0
  0
SEQEND
  5
B0
  8
0
  0
POLYLINE
  5
B1
  8
0
 66
     1
 10
0.0
 20
0.0
 30
0.0
  0
VERTEX
  5
B2
  8
0
 10
83.945770544073696
 20
74.649603703235925
 30
0.0
 42
-0.0558453538950165
 50
180.0
  0
VERTEX
  5
B3
  8
0
 10
83.986944463096535
 20
75.017096313744943
 30
0.0
 42
-0.0696234494827605
 50
180.0
  0
VERTEX
  5
B4
  8
0
 10
84.092217153479865
 20
75.294945106688488
 30
0.0
 42
-0.1059514344510999
 70
     2
 50
61.283656761864009
  0
VERTEX
  5
B5
  8
0
 10
84.272999549717625
 20
75.504292240525274
 30
0.0
 42
-0.1632707906765774
 50
180.0
  0
VERTEX
  5
B6
  8
0
 10
84.445770544071905
 20
75.562254268359425
 30
0.0
 42
-0.1632707906765776
 50
180.0
  0
SEQEND
  5
B7
  8
0
  0
POLYLINE
  5
B8
  8
0
 66
     1
 10
0.0
 20
0.0
 30
0.0
  0
VERTEX
  5
B9
  8
0
 10
84.445770544071877
 20
73.982425354672046
 30
0.0
 42
-0.126904853429963
 50
180.0
  0
VERTEX
  5
BA
  8
0
 10
84.262334604995402
 20
74.02974525612467
 30
0.0
 42
-0.1060810122797594
 50
180.0
  0
VERTEX
  5
BB
  8
0
 10
84.092217153477606
 20
74.177837368705582
 30
0.0
 42
-0.085744797149215
 70
     2
 50
126.8487996170587
  0
VERTEX
  5
BC
  8
0
 10
83.974660206527233
 20
74.408087317007244
 30
0.0
 42
-0.0912209683726037
 50
180.0
  0
VERTEX
  5
BD
  8
0
 10
83.945770544071479
 20
74.649603703235897
 30
0.0
 42
-0.0753899821444356
 50
180.0
  0
SEQEND
  5
BE
  8
0
  0
ARC
  5
BF
  8
0
 10
84.926790836422441
 20
69.999999999999844
 30
0.0
 40
0.9810202923517865
 50
119.3620468109286
 51
240.63795318908811
  0
LINE
  5
C0
  8
0
 10
84.445770544071905
 20
73.982425354672046
 30
0.0
 11
84.445770544071877
 21
70.854997246985732
 31
0.0
  0
LINE
  5
C1
  8
0
 10
84.445770544071877
 20
78.213559796856885
 30
0.0
 11
84.445770544071877
 21
75.562254268359425
 31
0.0
  0
LINE
  5
C2
  8
0
 10
84.445770544071905
 20
81.194254216075166
 30
0.0
 11
84.445770544071877
 21
79.422708499335869
 31
0.0
  0
LINE
  5
C3
  8
2
 10
101.98727054407181
 20
66.999999999999972
 30
0.0
 11
94.445770544071905
 21
66.999999999999972
 31
0.0
  0
LINE
  5
C4
  8
2
 10
101.44577054407191
 20
67.5414999999999
 30
0.0
 11
92.445770544071905
 21
67.5414999999999
 31
0.0
  0
LINE
  5
C5
  8
2
 10
94.445770544071905
 20
66.999999999999972
 30
0.0
 11
94.445770544071848
 21
73.000000000000028
 31
0.0
  0
LINE
  5
C6
  8
2
 10
92.445770544071905
 20
67.5414999999999
 30
0.0
 11
92.445770544071905
 21
72.458499999999987
 31
0.0
  0
LINE
  5
C7
  8
2
 10
92.445770544071934
 20
67.541499999999957
 30
0.0
 11
90.968554712192599
 21
70.000000000000028
 31
0.0
  0
LINE
  5
C8
  8
2
 10
94.445770544071905
 20
67.000000000000085
 30
0.0
 11
93.507865031773505
 21
67.541500000000013
 31
0.0
  0
LINE
  5
C9
  8
2
 10
102.44577054407191
 20
66.541499999999871
 30
0.0
 11
101.44577054407181
 21
67.541499999999914
 31
0.0
  0
LINE
  5
CA
  8
2
 10
101.44577054407191
 20
67.5414999999999
 30
0.0
 11
101.44577054407191
 21
72.4585000000001
 31
0.0
  0
LINE
  5
CB
  8
2
 10
91.445770544071834
 20
65.999999999999972
 30
0.0
 11
102.14577054407179
 21
66.0
 31
0.0
  0
LINE
  5
CC
  8
2
 10
83.445770544071877
 20
80.25
 30
0.0
 11
87.145770544071866
 21
77.700000000000017
 31
0.0
  0
LINE
  5
CD
  8
2
 10
87.645770544071866
 20
77.700000000000017
 30
0.0
 11
87.145770544071866
 21
77.700000000000017
 31
0.0
  0
LINE
  5
CE
  8
2
 10
91.445770544071834
 20
74.000000000000028
 30
0.0
 11
90.445770544071834
 21
73.000000000000028
 31
0.0
  0
LINE
  5
CF
  8
2
 10
91.445770544071834
 20
74.000000000000028
 30
0.0
 11
102.14577054407179
 21
74.0
 31
0.0
  0
LINE
  5
D0
  8
2
 10
94.445770544071905
 20
72.999999999999915
 30
0.0
 11
93.507865031773505
 21
72.458499999999987
 31
0.0
  0
LINE
  5
D1
  8
2
 10
92.445770544071934
 20
72.458500000000043
 30
0.0
 11
90.968554712192599
 21
69.999999999999972
 31
0.0
  0
LINE
  5
D2
  8
2
 10
101.98727054407181
 20
73.000000000000028
 30
0.0
 11
94.445770544071905
 21
73.000000000000028
 31
0.0
  0
LINE
  5
D3
  8
2
 10
102.44577054407191
 20
73.458500000000114
 30
0.0
 11
101.44577054407181
 21
72.458500000000072
 31
0.0
  0
LINE
  5
D4
  8
2
 10
101.44577054407191
 20
72.458499999999816
 30
0.0
 11
92.445770544071905
 21
72.458499999999816
 31
0.0
  0
LINE
  5
D5
  8
0
 10
84.445770544071877
 20
82.470724907063214
 30
0.0
 11
92.945770544066534
 21
82.470724907063214
 31
0.0
  0
POLYLINE
  5
D6
  8
0
 66
     1
 10
0.0
 20
0.0
 30
0.0
  0
VERTEX
  5
D7
  8
0
 10
83.944977610964287
 20
81.99920706689241
 30
0.0
 42
0.0932326856578775
 50
90.0
  0
VERTEX
  5
D8
  8
0
 10
84.138009302564399
 20
82.035516405831899
 30
0.0
 42
0.0961553825390117
 50
90.0
  0
VERTEX
  5
D9
  8
0
 10
84.299091689934954
 20
82.137311444828015
 30
0.0
 42
0.1005995558164784
 70
     2
 50
43.275414883748788
  0
VERTEX
  5
DA
  8
0
 10
84.408126909430379
 20
82.291676273240654
 30
0.0
 42
0.1039846014298173
 50
43.275414883748788
  0
VERTEX
  5
DB
  8
0
 10
84.445770544071877
 20
82.470724907063214
 30
0.0
 42
0.1039846014297789
 50
90.0
  0
SEQEND
  5
DC
  8
0
  0
POLYLINE
  5
DD
  8
0
 66
     1
 10
0.0
 20
0.0
 30
0.0
  0
VERTEX
  5
DE
  8
0
 10
92.945770544070484
 20
82.470724907063214
 30
0.0
 42
0.0060619562265407
 50
90.0
  0
VERTEX
  5
DF
  8
0
 10
93.152803903355576
 20
82.473235053627292
 30
0.0
 42
0.008559181375748
 50
90.0
  0
VERTEX
  5
E0
  8
0
 10
93.299323934664741
 20
82.479299383264689
 30
0.0
 42
0.0204875976357465
 70
     2
 50
3.3508529875824729
  0
VERTEX
  5
E1
  8
0
 10
93.441949680875283
 20
82.493530876254653
 30
0.0
 50
3.3508529875824729
  0
VERTEX
  5
E2
  8
0
 10
93.445770544072076
 20
82.5
 30
0.0
 50
90.0
  0
SEQEND
  5
E3
  8
0
  0
POLYLINE
  5
E4
  8
0
 66
     1
 10
0.0
 20
0.0
 30
0.0
  0
VERTEX
  5
E5
  8
0
 10
92.945770544070484
 20
57.529275092936793
 30
0.0
 42
-0.0060619562265407
 50
90.0
  0
VERTEX
  5
E6
  8
0
 10
93.152803903355576
 20
57.526764946372708
 30
0.0
 42
-0.008559181375748
 50
90.0
  0
VERTEX
  5
E7
  8
0
 10
93.299323934664741
 20
57.520700616735297
 30
0.0
 42
-0.0204875976357465
 70
     2
 50
356.64914701241759
  0
VERTEX
  5
E8
  8
0
 10
93.441949680875283
 20
57.506469123745347
 30
0.0
 50
90.0
  0
VERTEX
  5
E9
  8
0
 10
93.445770544072076
 20
57.5
 30
0.0
 50
90.0
  0
SEQEND
  5
EA
  8
0
  0
POLYLINE
  5
EB
  8
0
 66
     1
 10
0.0
 20
0.0
 30
0.0
  0
VERTEX
  5
EC
  8
0
 10
83.944977610964287
 20
58.00079293310759
 30
0.0
 42
-0.0932326856578775
 50
90.0
  0
VERTEX
  5
ED
  8
0
 10
84.138009302564399
 20
57.964483594168087
 30
0.0
 42
-0.0961553825390117
 50
90.0
  0
VERTEX
  5
EE
  8
0
 10
84.299091689934954
 20
57.862688555171992
 30
0.0
 42
-0.1005995558164784
 70
     2
 50
316.72458511625121
  0
VERTEX
  5
EF
  8
0
 10
84.408126909430379
 20
57.708323726759353
 30
0.0
 42
-0.1039846014298173
 50
90.0
  0
VERTEX
  5
F0
  8
0
 10
84.445770544071877
 20
57.529275092936793
 30
0.0
 42
-0.1039846014297789
 50
90.0
  0
SEQEND
  5
F1
  8
0
  0
LINE
  5
F2
  8
0
 10
84.445770544071877
 20
57.529275092936793
 30
0.0
 11
92.945770544066534
 21
57.529275092936793
 31
0.0
  0
LINE
  5
F3
  8
0
 10
84.445770544071905
 20
58.805745783924841
 30
0.0
 11
84.445770544071877
 21
60.577291500664131
 31
0.0
  0
LINE
  5
F4
  8
0
 10
84.445770544071877
 20
61.786440203143123
 30
0.0
 11
84.445770544071877
 21
64.437745731640575
 31
0.0
  0
LINE
  5
F5
  8
0
 10
84.445770544071905
 20
66.017574645327954
 30
0.0
 11
84.445770544071877
 21
69.145002753014268
 31
0.0
  0
POLYLINE
  5
F6
  8
0
 66
     1
 10
0.0
 20
0.0
 30
0.0
  0
VERTEX
  5
F7
  8
0
 10
84.445770544071877
 20
66.017574645327954
 30
0.0
 42
0.126904853429963
 50
90.0
  0
VERTEX
  5
F8
  8
0
 10
84.262334604995402
 20
65.97025474387533
 30
0.0
 42
0.1060810122797594
 50
90.0
  0
VERTEX
  5
F9
  8
0
 10
84.092217153477606
 20
65.822162631294418
 30
0.0
 42
0.085744797149215
 70
     2
 50
233.15120038294131
  0
VERTEX
  5
FA
  8
0
 10
83.974660206527233
 20
65.591912682992756
 30
0.0
 42
0.0912209683726037
 50
90.0
  0
VERTEX
  5
FB
  8
0
 10
83.945770544071479
 20
65.350396296764103
 30
0.0
 42
0.0753899821444356
 50
90.0
  0
SEQEND
  5
FC
  8
0
  0
POLYLINE
  5
FD
  8
0
 66
     1
 10
0.0
 20
0.0
 30
0.0
  0
VERTEX
  5
FE
  8
0
 10
83.945770544073696
 20
65.350396296764075
 30
0.0
 42
0.0558453538950165
 50
90.0
  0
VERTEX
  5
FF
  8
0
 10
83.986944463096535
 20
64.982903686255042
 30
0.0
 42
0.0696234494827605
 50
90.0
  0
VERTEX
  5
100
  8
0
 10
84.092217153479865
 20
64.705054893311512
 30
0.0
 42
0.1059514344510999
 70
     2
 50
298.71634323813601
  0
VERTEX
  5
101
  8
0
 10
84.272999549717625
 20
64.495707759474726
 30
0.0
 42
0.1632707906765774
 50
90.0
  0
VERTEX
  5
102
  8
0
 10
84.445770544071905
 20
64.437745731640575
 30
0.0
 42
0.1632707906765776
 50
90.0
  0
SEQEND
  5
103
  8
0
  0
POLYLINE
  5
104
  8
0
 66
     1
 10
0.0
 20
0.0
 30
0.0
  0
VERTEX
  5
105
  8
0
 10
84.445770544071905
 20
61.786440203143123
 30
0.0
 42
0.0759738029860677
 50
90.0
  0
VERTEX
  5
106
  8
0
 10
84.248759696075069
 20
61.756331086051368
 30
0.0
 42
0.0861489681664724
 50
90.0
  0
VERTEX
  5
107
  8
0
 10
84.092217153477634
 20
61.675788778544728
 30
0.0
 42
0.1059611842089019
 70
     2
 50
217.07378942606809
  0
VERTEX
  5
108
  8
0
 10
83.973250192043224
 20
61.538105628153723
 30
0.0
 42
0.1471982240755334
 50
90.0
  0
VERTEX
  5
109
  8
0
 10
83.945770544070655
 20
61.408652608583331
 30
0.0
 42
0.1260278403512851
 50
90.0
  0
SEQEND
  5
10A
  8
0
  0
POLYLINE
  5
10B
  8
0
 66
     1
 10
0.0
 20
0.0
 30
0.0
  0
VERTEX
  5
10C
  8
0
 10
83.945770544070456
 20
61.40865260858331
 30
0.0
 42
0.061112938037691
 50
90.0
  0
VERTEX
  5
10D
  8
0
 10
83.986626974114273
 20
61.075631147698061
 30
0.0
 42
0.0744665224447995
 50
90.0
  0
VERTEX
  5
10E
  8
0
 10
84.092217153477606
 20
60.820791531558882
 30
0.0
 42
0.1069586370034828
 70
     2
 50
301.02368442810138
  0
VERTEX
  5
10F
  8
0
 10
84.269643712702162
 20
60.632074792892361
 30
0.0
 42
0.1519322921768495
 50
90.0
  0
VERTEX
  5
110
  8
0
 10
84.445770544071905
 20
60.577291500664131
 30
0.0
 42
0.1519322921768134
 50
90.0
  0
SEQEND
  5
111
  8
0
  0
POLYLINE
  5
112
  8
0
 66
     1
 10
0.0
 20
0.0
 30
0.0
  0
VERTEX
  5
113
  8
0
 10
84.445770544071905
 20
58.805745783924841
 30
0.0
 42
0.0063945854363995
 50
90.0
  0
VERTEX
  5
114
  8
0
 10
84.23874545429868
 20
58.803097996406912
 30
0.0
 42
0.0090272087772587
 50
90.0
  0
VERTEX
  5
115
  8
0
 10
84.092217153477634
 20
58.796700625099142
 30
0.0
 42
0.021587231382142
 70
     2
 50
183.5343387134001
  0
VERTEX
  5
116
  8
0
 10
83.949802946604464
 20
58.781713015747883
 30
0.0
 50
90.0
  0
VERTEX
  5
117
  8
0
 10
83.945770544070683
 20
58.774863679987767
 30
0.0
 50
90.0
  0
SEQEND
  5
118
  8
0
  0
POLYLINE
  5
119
  8
0
 66
     1
 10
0.0
 20
0.0
 30
0.0
  0
VERTEX
  5
11A
  8
0
 10
83.945770544070456
 20
58.774863679987732
 30
0.0
 42
0.0803470550416908
 50
90.0
  0
VERTEX
  5
11B
  8
0
 10
83.985295097153539
 20
58.530490090868057
 30
0.0
 42
0.0890368192332178
 50
90.0
  0
VERTEX
  5
11C
  8
0
 10
84.092217153477606
 20
58.333979449394519
 30
0.0
 42
0.1049083465716828
 70
     2
 50
308.72678456122611
  0
VERTEX
  5
11D
  8
0
 10
84.260294518941137
 20
58.196432165218688
 30
0.0
 42
0.1197633248391211
 50
90.0
  0
VERTEX
  5
11E
  8
0
 10
84.445770544071877
 20
58.151359221646381
 30
0.0
 42
0.119763324839129
 50
90.0
  0
SEQEND
  5
11F
  8
0
  0
POLYLINE
  5
120
  8
0
 66
     1
 10
0.0
 20
0.0
 30
0.0
  0
VERTEX
  5
121
  8
0
 10
93.445770544071877
 20
58.774863679987732
 30
0.0
 42
-0.0803470550416908
 50
90.0
  0
VERTEX
  5
122
  8
0
 10
93.406245990988779
 20
58.530490090868057
 30
0.0
 42
-0.0890368192332178
 50
90.0
  0
VERTEX
  5
123
  8
0
 10
93.299323934664756
 20
58.333979449394519
 30
0.0
 42
-0.1049083465716828
 70
     2
 50
231.2732154387738
  0
VERTEX
  5
124
  8
0
 10
93.131246569201181
 20
58.196432165218688
 30
0.0
 42
-0.1197633248391211
 50
90.0
  0
VERTEX
  5
125
  8
0
 10
92.945770544070456
 20
58.151359221646381
 30
0.0
 42
-0.119763324839129
 50
90.0
  0
SEQEND
  5
126
  8
0
  0
POLYLINE
  5
127
  8
0
 66
     1
 10
0.0
 20
0.0
 30
0.0
  0
VERTEX
  5
128
  8
0
 10
92.945770544070456
 20
58.805745783924841
 30
0.0
 42
-0.0063945854363995
 50
90.0
  0
VERTEX
  5
129
  8
0
 10
93.152795633843652
 20
58.803097996406912
 30
0.0
 42
-0.0090272087772587
 50
90.0
  0
VERTEX
  5
12A
  8
0
 10
93.299323934664727
 20
58.796700625099142
 30
0.0
 42
-0.021587231382142
 70
     2
 50
356.46566128659993
  0
VERTEX
  5
12B
  8
0
 10
93.441738141537854
 20
58.781713015747883
 30
0.0
 50
90.0
  0
VERTEX
  5
12C
  8
0
 10
93.445770544071664
 20
58.774863679987767
 30
0.0
 50
90.0
  0
SEQEND
  5
12D
  8
0
  0
POLYLINE
  5
12E
  8
0
 66
     1
 10
0.0
 20
0.0
 30
0.0
  0
VERTEX
  5
12F
  8
0
 10
93.445770544071877
 20
61.40865260858331
 30
0.0
 42
-0.061112938037691
 50
90.0
  0
VERTEX
  5
130
  8
0
 10
93.404914114028074
 20
61.075631147698061
 30
0.0
 42
-0.0744665224447995
 50
90.0
  0
VERTEX
  5
131
  8
0
 10
93.299323934664727
 20
60.820791531558882
 30
0.0
 42
-0.1069586370034828
 70
     2
 50
238.9763155718984
  0
VERTEX
  5
132
  8
0
 10
93.12189737544017
 20
60.632074792892361
 30
0.0
 42
-0.1519322921768495
 50
90.0
  0
VERTEX
  5
133
  8
0
 10
92.945770544070456
 20
60.577291500664131
 30
0.0
 42
-0.1519322921768134
 50
90.0
  0
SEQEND
  5
134
  8
0
  0
POLYLINE
  5
135
  8
0
 66
     1
 10
0.0
 20
0.0
 30
0.0
  0
VERTEX
  5
136
  8
0
 10
92.945770544070456
 20
61.786440203143123
 30
0.0
 42
-0.0759738029860677
 50
90.0
  0
VERTEX
  5
137
  8
0
 10
93.142781392067249
 20
61.756331086051368
 30
0.0
 42
-0.0861489681664724
 50
90.0
  0
VERTEX
  5
138
  8
0
 10
93.299323934664727
 20
61.675788778544728
 30
0.0
 42
-0.1059611842089019
 70
     2
 50
322.92621057393188
  0
VERTEX
  5
139
  8
0
 10
93.418290896099137
 20
61.538105628153723
 30
0.0
 42
-0.1471982240755334
 50
90.0
  0
VERTEX
  5
13A
  8
0
 10
93.445770544071706
 20
61.408652608583331
 30
0.0
 42
-0.1260278403512851
 50
90.0
  0
SEQEND
  5
13B
  8
0
  0
POLYLINE
  5
13C
  8
0
 66
     1
 10
0.0
 20
0.0
 30
0.0
  0
VERTEX
  5
13D
  8
0
 10
93.445770544068665
 20
65.350396296764075
 30
0.0
 42
-0.0558453538950165
 50
90.0
  0
VERTEX
  5
13E
  8
0
 10
93.404596625045798
 20
64.982903686255042
 30
0.0
 42
-0.0696234494827605
 50
90.0
  0
VERTEX
  5
13F
  8
0
 10
93.299323934662453
 20
64.705054893311512
 30
0.0
 42
-0.1059514344510999
 70
     2
 50
241.28365676186399
  0
VERTEX
  5
140
  8
0
 10
93.118541538424694
 20
64.495707759474726
 30
0.0
 42
-0.1632707906765774
 50
90.0
  0
VERTEX
  5
141
  8
0
 10
92.945770544070456
 20
64.437745731640575
 30
0.0
 42
-0.1632707906765776
 50
90.0
  0
SEQEND
  5
142
  8
0
  0
POLYLINE
  5
143
  8
0
 66
     1
 10
0.0
 20
0.0
 30
0.0
  0
VERTEX
  5
144
  8
0
 10
92.945770544070456
 20
66.017574645327954
 30
0.0
 42
-0.126904853429963
 50
90.0
  0
VERTEX
  5
145
  8
0
 10
93.129206483146959
 20
65.97025474387533
 30
0.0
 42
-0.1060810122797594
 50
90.0
  0
VERTEX
  5
146
  8
0
 10
93.299323934664727
 20
65.822162631294418
 30
0.0
 42
-0.085744797149215
 70
     2
 50
306.84879961705872
  0
VERTEX
  5
147
  8
0
 10
93.416880881615086
 20
65.591912682992756
 30
0.0
 42
-0.0912209683726037
 50
90.0
  0
VERTEX
  5
148
  8
0
 10
93.445770544070854
 20
65.350396296764103
 30
0.0
 42
-0.0753899821444356
 50
90.0
  0
SEQEND
  5
149
  8
0
  0
LINE
  5
14A
  8
0
 10
84.445770544071877
 20
69.145002753014239
 30
0.0
 11
92.945770544070456
 21
69.145002753014268
 31
0.0
  0
LINE
  5
14B
  8
0
 10
84.445770544071877
 20
66.017574645327954
 30
0.0
 11
92.945770544070456
 21
66.017574645327954
 31
0.0
  0
LINE
  5
14C
  8
0
 10
84.445770544071877
 20
64.437745731640547
 30
0.0
 11
92.945770544070456
 21
64.437745731640575
 31
0.0
  0
LINE
  5
14D
  8
0
 10
84.445770544071877
 20
61.786440203143123
 30
0.0
 11
92.945770544070456
 21
61.786440203143123
 31
0.0
  0
LINE
  5
14E
  8
0
 10
84.445770544071877
 20
60.577291500664131
 30
0.0
 11
92.945770544070456
 21
60.577291500664131
 31
0.0
  0
LINE
  5
14F
  8
0
 10
84.445770544071877
 20
58.805745783924863
 30
0.0
 11
92.945770544070456
 21
58.805745783924841
 31
0.0
  0
LINE
  5
150
  8
0
 10
84.445770544071877
 20
58.151359221646381
 30
0.0
 11
92.945770544070456
 21
58.151359221646381
 31
0.0
  0
LINE
  5
151
  8
0
 10
84.445770544071863
 20
57.529275092936793
 30
0.0
 11
84.445770544071905
 21
58.151359221646381
 31
0.0
  0
LINE
  5
152
  8
0
 10
83.445770544071877
 20
58.500000000000007
 30
0.0
 11
83.94497761096838
 21
58.000792933103497
 31
0.0
  0
LINE
  5
153
  8
0
 10
83.445770544071891
 20
98.500000000000014
 30
0.0
 11
83.944977610968394
 21
98.000792933103497
 31
0.0
  0
LINE
  5
154
  8
0
 10
84.445770544071877
 20
97.529275092936786
 30
0.0
 11
84.44577054407192
 21
98.151359221646373
 31
0.0
  0
LINE
  5
155
  8
0
 10
84.445770544071877
 20
98.151359221646373
 30
0.0
 11
92.945770544070484
 21
98.151359221646373
 31
0.0
  0
LINE
  5
156
  8
0
 10
84.445770544071877
 20
98.805745783924863
 30
0.0
 11
92.945770544070484
 21
98.805745783924834
 31
0.0
  0
LINE
  5
157
  8
0
 10
84.445770544071877
 20
100.5772915006641
 30
0.0
 11
92.945770544070484
 21
100.5772915006641
 31
0.0
  0
LINE
  5
158
  8
0
 10
84.445770544071877
 20
101.7864402031431
 30
0.0
 11
92.945770544070484
 21
101.7864402031431
 31
0.0
  0
LINE
  5
159
  8
0
 10
84.445770544071877
 20
104.4377457316405
 30
0.0
 11
92.945770544070484
 21
104.4377457316405
 31
0.0
  0
LINE
  5
15A
  8
0
 10
84.445770544071877
 20
106.0175746453279
 30
0.0
 11
92.945770544070484
 21
106.0175746453279
 31
0.0
  0
LINE
  5
15B
  8
0
 10
84.445770544071877
 20
109.1450027530142
 30
0.0
 11
92.945770544070484
 21
109.1450027530142
 31
0.0
  0
POLYLINE
  5
15C
  8
0
 66
     1
 10
0.0
 20
0.0
 30
0.0
  0
VERTEX
  5
15D
  8
0
 10
92.945770544070484
 20
106.0175746453279
 30
0.0
 42
-0.126904853429963
 50
90.0
  0
VERTEX
  5
15E
  8
0
 10
93.129206483146973
 20
105.9702547438753
 30
0.0
 42
-0.1060810122797594
 50
90.0
  0
VERTEX
  5
15F
  8
0
 10
93.299323934664741
 20
105.8221626312944
 30
0.0
 42
-0.085744797149215
 70
     2
 50
306.84879961705872
  0
VERTEX
  5
160
  8
0
 10
93.416880881615114
 20
105.5919126829927
 30
0.0
 42
-0.0912209683726037
 50
90.0
  0
VERTEX
  5
161
  8
0
 10
93.445770544070868
 20
105.3503962967641
 30
0.0
 42
-0.0753899821444356
 50
90.0
  0
SEQEND
  5
162
  8
0
  0
POLYLINE
  5
163
  8
0
 66
     1
 10
0.0
 20
0.0
 30
0.0
  0
VERTEX
  5
164
  8
0
 10
93.445770544068665
 20
105.350396296764
 30
0.0
 42
-0.0558453538950165
 50
90.0
  0
VERTEX
  5
165
  8
0
 10
93.404596625045812
 20
104.982903686255
 30
0.0
 42
-0.0696234494827605
 50
90.0
  0
VERTEX
  5
166
  8
0
 10
93.299323934662468
 20
104.7050548933115
 30
0.0
 42
-0.1059514344510999
 70
     2
 50
241.28365676186399
  0
VERTEX
  5
167
  8
0
 10
93.118541538424708
 20
104.4957077594747
 30
0.0
 42
-0.1632707906765774
 50
90.0
  0
VERTEX
  5
168
  8
0
 10
92.945770544070484
 20
104.4377457316405
 30
0.0
 42
-0.1632707906765776
 50
90.0
  0
SEQEND
  5
169
  8
0
  0
POLYLINE
  5
16A
  8
0
 66
     1
 10
0.0
 20
0.0
 30
0.0
  0
VERTEX
  5
16B
  8
0
 10
92.945770544070484
 20
101.7864402031431
 30
0.0
 42
-0.0759738029860677
 50
90.0
  0
VERTEX
  5
16C
  8
0
 10
93.142781392067263
 20
101.7563310860513
 30
0.0
 42
-0.0861489681664724
 50
90.0
  0
VERTEX
  5
16D
  8
0
 10
93.299323934664741
 20
101.6757887785447
 30
0.0
 42
-0.1059611842089019
 70
     2
 50
322.92621057393188
  0
VERTEX
  5
16E
  8
0
 10
93.418290896099137
 20
101.5381056281537
 30
0.0
 42
-0.1471982240755334
 50
90.0
  0
VERTEX
  5
16F
  8
0
 10
93.445770544071735
 20
101.4086526085833
 30
0.0
 42
-0.1260278403512851
 50
90.0
  0
SEQEND
  5
170
  8
0
  0
POLYLINE
  5
171
  8
0
 66
     1
 10
0.0
 20
0.0
 30
0.0
  0
VERTEX
  5
172
  8
0
 10
93.445770544071891
 20
101.4086526085833
 30
0.0
 42
-0.061112938037691
 50
90.0
  0
VERTEX
  5
173
  8
0
 10
93.404914114028074
 20
101.075631147698
 30
0.0
 42
-0.0744665224447995
 50
90.0
  0
VERTEX
  5
174
  8
0
 10
93.299323934664741
 20
100.8207915315588
 30
0.0
 42
-0.1069586370034828
 70
     2
 50
238.9763155718984
  0
VERTEX
  5
175
  8
0
 10
93.121897375440184
 20
100.6320747928923
 30
0.0
 42
-0.1519322921768495
 50
90.0
  0
VERTEX
  5
176
  8
0
 10
92.945770544070484
 20
100.5772915006641
 30
0.0
 42
-0.1519322921768134
 50
90.0
  0
SEQEND
  5
177
  8
0
  0
POLYLINE
  5
178
  8
0
 66
     1
 10
0.0
 20
0.0
 30
0.0
  0
VERTEX
  5
179
  8
0
 10
92.945770544070484
 20
98.805745783924834
 30
0.0
 42
-0.0063945854363995
 50
90.0
  0
VERTEX
  5
17A
  8
0
 10
93.152795633843667
 20
98.803097996406905
 30
0.0
 42
-0.0090272087772587
 50
90.0
  0
VERTEX
  5
17B
  8
0
 10
93.299323934664741
 20
98.796700625099135
 30
0.0
 42
-0.021587231382142
 70
     2
 50
356.46566128659993
  0
VERTEX
  5
17C
  8
0
 10
93.441738141537869
 20
98.781713015747883
 30
0.0
 50
90.0
  0
VERTEX
  5
17D
  8
0
 10
93.445770544071664
 20
98.774863679987774
 30
0.0
 50
90.0
  0
SEQEND
  5
17E
  8
0
  0
POLYLINE
  5
17F
  8
0
 66
     1
 10
0.0
 20
0.0
 30
0.0
  0
VERTEX
  5
180
  8
0
 10
93.445770544071891
 20
98.774863679987732
 30
0.0
 42
-0.0803470550416908
 50
90.0
  0
VERTEX
  5
181
  8
0
 10
93.406245990988793
 20
98.530490090868057
 30
0.0
 42
-0.0890368192332178
 50
90.0
  0
VERTEX
  5
182
  8
0
 10
93.299323934664756
 20
98.333979449394519
 30
0.0
 42
-0.1049083465716828
 70
     2
 50
231.2732154387738
  0
VERTEX
  5
183
  8
0
 10
93.131246569201195
 20
98.196432165218681
 30
0.0
 42
-0.1197633248391211
 50
90.0
  0
VERTEX
  5
184
  8
0
 10
92.945770544070484
 20
98.151359221646373
 30
0.0
 42
-0.119763324839129
 50
90.0
  0
SEQEND
  5
185
  8
0
  0
POLYLINE
  5
186
  8
0
 66
     1
 10
0.0
 20
0.0
 30
0.0
  0
VERTEX
  5
187
  8
0
 10
83.94577054407047
 20
98.774863679987732
 30
0.0
 42
0.0803470550416908
 50
90.0
  0
VERTEX
  5
188
  8
0
 10
83.985295097153553
 20
98.530490090868057
 30
0.0
 42
0.0890368192332178
 50
90.0
  0
VERTEX
  5
189
  8
0
 10
84.092217153477606
 20
98.333979449394519
 30
0.0
 42
0.1049083465716828
 70
     2
 50
308.72678456122611
  0
VERTEX
  5
18A
  8
0
 10
84.260294518941166
 20
98.196432165218681
 30
0.0
 42
0.1197633248391211
 50
90.0
  0
VERTEX
  5
18B
  8
0
 10
84.445770544071877
 20
98.151359221646373
 30
0.0
 42
0.119763324839129
 50
90.0
  0
SEQEND
  5
18C
  8
0
  0
POLYLINE
  5
18D
  8
0
 66
     1
 10
0.0
 20
0.0
 30
0.0
  0
VERTEX
  5
18E
  8
0
 10
84.44577054407192
 20
98.805745783924834
 30
0.0
 42
0.0063945854363995
 50
90.0
  0
VERTEX
  5
18F
  8
0
 10
84.238745454298694
 20
98.803097996406905
 30
0.0
 42
0.0090272087772587
 50
90.0
  0
VERTEX
  5
190
  8
0
 10
84.092217153477648
 20
98.796700625099135
 30
0.0
 42
0.021587231382142
 70
     2
 50
183.5343387134001
  0
VERTEX
  5
191
  8
0
 10
83.949802946604493
 20
98.781713015747883
 30
0.0
 50
90.0
  0
VERTEX
  5
192
  8
0
 10
83.945770544070697
 20
98.774863679987774
 30
0.0
 50
90.0
  0
SEQEND
  5
193
  8
0
  0
POLYLINE
  5
194
  8
0
 66
     1
 10
0.0
 20
0.0
 30
0.0
  0
VERTEX
  5
195
  8
0
 10
83.94577054407047
 20
101.4086526085833
 30
0.0
 42
0.061112938037691
 50
90.0
  0
VERTEX
  5
196
  8
0
 10
83.986626974114287
 20
101.075631147698
 30
0.0
 42
0.0744665224447995
 50
90.0
  0
VERTEX
  5
197
  8
0
 10
84.092217153477606
 20
100.8207915315588
 30
0.0
 42
0.1069586370034828
 70
     2
 50
301.02368442810138
  0
VERTEX
  5
198
  8
0
 10
84.269643712702177
 20
100.6320747928923
 30
0.0
 42
0.1519322921768495
 50
90.0
  0
VERTEX
  5
199
  8
0
 10
84.44577054407192
 20
100.5772915006641
 30
0.0
 42
0.1519322921768134
 50
90.0
  0
SEQEND
  5
19A
  8
0
  0
POLYLINE
  5
19B
  8
0
 66
     1
 10
0.0
 20
0.0
 30
0.0
  0
VERTEX
  5
19C
  8
0
 10
84.44577054407192
 20
101.7864402031431
 30
0.0
 42
0.0759738029860677
 50
90.0
  0
VERTEX
  5
19D
  8
0
 10
84.248759696075084
 20
101.7563310860513
 30
0.0
 42
0.0861489681664724
 50
90.0
  0
VERTEX
  5
19E
  8
0
 10
84.092217153477648
 20
101.6757887785447
 30
0.0
 42
0.1059611842089019
 70
     2
 50
217.07378942606809
  0
VERTEX
  5
19F
  8
0
 10
83.973250192043224
 20
101.5381056281537
 30
0.0
 42
0.1471982240755334
 50
90.0
  0
VERTEX
  5
1A0
  8
0
 10
83.945770544070669
 20
101.4086526085833
 30
0.0
 42
0.1260278403512851
 50
90.0
  0
SEQEND
  5
1A1
  8
0
  0
POLYLINE
  5
1A2
  8
0
 66
     1
 10
0.0
 20
0.0
 30
0.0
  0
VERTEX
  5
1A3
  8
0
 10
83.94577054407371
 20
105.350396296764
 30
0.0
 42
0.0558453538950165
 50
90.0
  0
VERTEX
  5
1A4
  8
0
 10
83.986944463096535
 20
104.982903686255
 30
0.0
 42
0.0696234494827605
 50
90.0
  0
VERTEX
  5
1A5
  8
0
 10
84.092217153479893
 20
104.7050548933115
 30
0.0
 42
0.1059514344510999
 70
     2
 50
298.71634323813601
  0
VERTEX
  5
1A6
  8
0
 10
84.272999549717653
 20
104.4957077594747
 30
0.0
 42
0.1632707906765774
 50
90.0
  0
VERTEX
  5
1A7
  8
0
 10
84.44577054407192
 20
104.4377457316405
 30
0.0
 42
0.1632707906765776
 50
90.0
  0
SEQEND
  5
1A8
  8
0
  0
POLYLINE
  5
1A9
  8
0
 66
     1
 10
0.0
 20
0.0
 30
0.0
  0
VERTEX
  5
1AA
  8
0
 10
84.445770544071877
 20
106.0175746453279
 30
0.0
 42
0.126904853429963
 50
90.0
  0
VERTEX
  5
1AB
  8
0
 10
84.262334604995416
 20
105.9702547438753
 30
0.0
 42
0.1060810122797594
 50
90.0
  0
VERTEX
  5
1AC
  8
0
 10
84.092217153477606
 20
105.8221626312944
 30
0.0
 42
0.085744797149215
 70
     2
 50
233.15120038294131
  0
VERTEX
  5
1AD
  8
0
 10
83.974660206527247
 20
105.5919126829927
 30
0.0
 42
0.0912209683726037
 50
90.0
  0
VERTEX
  5
1AE
  8
0
 10
83.945770544071479
 20
105.3503962967641
 30
0.0
 42
0.0753899821444356
 50
90.0
  0
SEQEND
  5
1AF
  8
0
  0
LINE
  5
1B0
  8
0
 10
84.44577054407192
 20
106.0175746453279
 30
0.0
 11
84.445770544071877
 21
109.1450027530142
 31
0.0
  0
LINE
  5
1B1
  8
0
 10
84.445770544071877
 20
101.7864402031431
 30
0.0
 11
84.445770544071877
 21
104.4377457316405
 31
0.0
  0
LINE
  5
1B2
  8
0
 10
84.44577054407192
 20
98.805745783924834
 30
0.0
 11
84.445770544071877
 21
100.5772915006641
 31
0.0
  0
LINE
  5
1B3
  8
0
 10
84.445770544071877
 20
97.529275092936786
 30
0.0
 11
92.945770544066548
 21
97.529275092936786
 31
0.0
  0
POLYLINE
  5
1B4
  8
0
 66
     1
 10
0.0
 20
0.0
 30
0.0
  0
VERTEX
  5
1B5
  8
0
 10
83.944977610964287
 20
98.000792933107576
 30
0.0
 42
-0.0932326856578775
 50
90.0
  0
VERTEX
  5
1B6
  8
0
 10
84.138009302564399
 20
97.964483594168087
 30
0.0
 42
-0.0961553825390117
 50
90.0
  0
VERTEX
  5
1B7
  8
0
 10
84.299091689934983
 20
97.862688555171985
 30
0.0
 42
-0.1005995558164784
 70
     2
 50
316.72458511625121
  0
VERTEX
  5
1B8
  8
0
 10
84.408126909430379
 20
97.708323726759346
 30
0.0
 42
-0.1039846014298173
 50
90.0
  0
VERTEX
  5
1B9
  8
0
 10
84.445770544071877
 20
97.529275092936786
 30
0.0
 42
-0.1039846014297789
 50
90.0
  0
SEQEND
  5
1BA
  8
0
  0
POLYLINE
  5
1BB
  8
0
 66
     1
 10
0.0
 20
0.0
 30
0.0
  0
VERTEX
  5
1BC
  8
0
 10
92.945770544070484
 20
97.529275092936786
 30
0.0
 42
-0.0060619562265407
 50
90.0
  0
VERTEX
  5
1BD
  8
0
 10
93.152803903355576
 20
97.526764946372694
 30
0.0
 42
-0.008559181375748
 50
90.0
  0
VERTEX
  5
1BE
  8
0
 10
93.299323934664756
 20
97.520700616735297
 30
0.0
 42
-0.0204875976357465
 70
     2
 50
356.64914701241759
  0
VERTEX
  5
1BF
  8
0
 10
93.441949680875297
 20
97.506469123745333
 30
0.0
 50
90.0
  0
VERTEX
  5
1C0
  8
0
 10
93.445770544072104
 20
97.5
 30
0.0
 50
90.0
  0
SEQEND
  5
1C1
  8
0
  0
POLYLINE
  5
1C2
  8
0
 66
     1
 10
0.0
 20
0.0
 30
0.0
  0
VERTEX
  5
1C3
  8
0
 10
92.945770544070484
 20
122.4707249070632
 30
0.0
 42
0.0060619562265407
 50
90.0
  0
VERTEX
  5
1C4
  8
0
 10
93.152803903355576
 20
122.47323505362731
 30
0.0
 42
0.008559181375748
 50
90.0
  0
VERTEX
  5
1C5
  8
0
 10
93.299323934664756
 20
122.4792993832646
 30
0.0
 42
0.0204875976357465
 70
     2
 50
3.3508529875824729
  0
VERTEX
  5
1C6
  8
0
 10
93.441949680875297
 20
122.4935308762546
 30
0.0
 50
3.3508529875824729
  0
VERTEX
  5
1C7
  8
0
 10
93.445770544072104
 20
122.5
 30
0.0
 50
90.0
  0
SEQEND
  5
1C8
  8
0
  0
POLYLINE
  5
1C9
  8
0
 66
     1
 10
0.0
 20
0.0
 30
0.0
  0
VERTEX
  5
1CA
  8
0
 10
83.944977610964287
 20
121.9992070668924
 30
0.0
 42
0.0932326856578775
 50
90.0
  0
VERTEX
  5
1CB
  8
0
 10
84.138009302564399
 20
122.0355164058319
 30
0.0
 42
0.0961553825390117
 50
90.0
  0
VERTEX
  5
1CC
  8
0
 10
84.299091689934983
 20
122.137311444828
 30
0.0
 42
0.1005995558164784
 70
     2
 50
43.275414883748788
  0
VERTEX
  5
1CD
  8
0
 10
84.408126909430379
 20
122.2916762732406
 30
0.0
 42
0.1039846014298173
 50
43.275414883748788
  0
VERTEX
  5
1CE
  8
0
 10
84.445770544071877
 20
122.4707249070632
 30
0.0
 42
0.1039846014297789
 50
90.0
  0
SEQEND
  5
1CF
  8
0
  0
LINE
  5
1D0
  8
0
 10
84.445770544071877
 20
122.4707249070632
 30
0.0
 11
92.945770544066548
 21
122.4707249070632
 31
0.0
  0
LINE
  5
1D1
  8
2
 10
101.44577054407191
 20
112.4584999999998
 30
0.0
 11
92.445770544071934
 21
112.4584999999998
 31
0.0
  0
LINE
  5
1D2
  8
2
 10
102.44577054407191
 20
113.4585000000001
 30
0.0
 11
101.44577054407181
 21
112.4585
 31
0.0
  0
LINE
  5
1D3
  8
2
 10
101.98727054407181
 20
113.0
 30
0.0
 11
94.44577054407192
 21
113.0
 31
0.0
  0
LINE
  5
1D4
  8
2
 10
92.445770544071934
 20
112.4585
 30
0.0
 11
90.968554712192613
 21
109.9999999999999
 31
0.0
  0
LINE
  5
1D5
  8
2
 10
94.44577054407192
 20
112.9999999999999
 30
0.0
 11
93.507865031773534
 21
112.4584999999999
 31
0.0
  0
LINE
  5
1D6
  8
2
 10
91.445770544071834
 20
114.0
 30
0.0
 11
102.14577054407179
 21
114.0
 31
0.0
  0
LINE
  5
1D7
  8
2
 10
91.445770544071863
 20
114.0
 30
0.0
 11
90.445770544071863
 21
113.0
 31
0.0
  0
LINE
  5
1D8
  8
2
 10
87.645770544071894
 20
117.7
 30
0.0
 11
87.14577054407188
 21
117.7
 31
0.0
  0
LINE
  5
1D9
  8
2
 10
83.445770544071891
 20
120.25
 30
0.0
 11
87.14577054407188
 21
117.7
 31
0.0
  0
LINE
  5
1DA
  8
2
 10
91.445770544071834
 20
105.9999999999999
 30
0.0
 11
102.14577054407179
 21
106.0
 31
0.0
  0
LINE
  5
1DB
  8
2
 10
101.44577054407191
 20
107.5414999999999
 30
0.0
 11
101.44577054407191
 21
112.4585000000001
 31
0.0
  0
LINE
  5
1DC
  8
2
 10
102.44577054407191
 20
106.5414999999998
 30
0.0
 11
101.44577054407181
 21
107.5414999999999
 31
0.0
  0
LINE
  5
1DD
  8
2
 10
94.44577054407192
 20
107.0
 30
0.0
 11
93.507865031773534
 21
107.5415
 31
0.0
  0
LINE
  5
1DE
  8
2
 10
92.445770544071934
 20
107.5414999999999
 30
0.0
 11
90.968554712192613
 21
110.0
 31
0.0
  0
LINE
  5
1DF
  8
2
 10
92.445770544071934
 20
107.5414999999999
 30
0.0
 11
92.445770544071934
 21
112.4584999999999
 31
0.0
  0
LINE
  5
1E0
  8
2
 10
94.44577054407192
 20
106.9999999999999
 30
0.0
 11
94.445770544071863
 21
113.0
 31
0.0
  0
LINE
  5
1E1
  8
2
 10
101.44577054407191
 20
107.5414999999999
 30
0.0
 11
92.445770544071934
 21
107.5414999999999
 31
0.0
  0
LINE
  5
1E2
  8
2
 10
101.98727054407181
 20
106.9999999999999
 30
0.0
 11
94.44577054407192
 21
106.9999999999999
 31
0.0
  0
LINE
  5
1E3
  8
0
 10
84.44577054407192
 20
121.19425421607509
 30
0.0
 11
84.445770544071877
 21
119.4227084993358
 31
0.0
  0
LINE
  5
1E4
  8
0
 10
84.445770544071877
 20
118.2135597968568
 30
0.0
 11
84.445770544071877
 21
115.5622542683594
 31
0.0
  0
LINE
  5
1E5
  8
0
 10
84.44577054407192
 20
113.982425354672
 30
0.0
 11
84.445770544071877
 21
110.8549972469857
 31
0.0
  0
ARC
  5
1E6
  8
0
 10
84.926790836422455
 20
109.9999999999998
 30
0.0
 40
0.9810202923517865
 50
119.3620468109286
 51
240.63795318908811
  0
POLYLINE
  5
1E7
  8
0
 66
     1
 10
0.0
 20
0.0
 30
0.0
  0
VERTEX
  5
1E8
  8
0
 10
84.445770544071877
 20
113.982425354672
 30
0.0
 42
-0.126904853429963
 50
180.0
  0
VERTEX
  5
1E9
  8
0
 10
84.262334604995416
 20
114.0297452561246
 30
0.0
 42
-0.1060810122797594
 50
180.0
  0
VERTEX
  5
1EA
  8
0
 10
84.092217153477606
 20
114.1778373687055
 30
0.0
 42
-0.085744797149215
 70
     2
 50
126.8487996170587
  0
VERTEX
  5
1EB
  8
0
 10
83.974660206527247
 20
114.4080873170072
 30
0.0
 42
-0.0912209683726037
 50
180.0
  0
VERTEX
  5
1EC
  8
0
 10
83.945770544071479
 20
114.6496037032358
 30
0.0
 42
-0.0753899821444356
 50
180.0
  0
SEQEND
  5
1ED
  8
0
  0
POLYLINE
  5
1EE
  8
0
 66
     1
 10
0.0
 20
0.0
 30
0.0
  0
VERTEX
  5
1EF
  8
0
 10
83.94577054407371
 20
114.6496037032359
 30
0.0
 42
-0.0558453538950165
 50
180.0
  0
VERTEX
  5
1F0
  8
0
 10
83.986944463096535
 20
115.0170963137449
 30
0.0
 42
-0.0696234494827605
 50
180.0
  0
VERTEX
  5
1F1
  8
0
 10
84.092217153479893
 20
115.2949451066884
 30
0.0
 42
-0.1059514344510999
 70
     2
 50
61.283656761864009
  0
VERTEX
  5
1F2
  8
0
 10
84.272999549717653
 20
115.5042922405252
 30
0.0
 42
-0.1632707906765774
 50
180.0
  0
VERTEX
  5
1F3
  8
0
 10
84.44577054407192
 20
115.5622542683594
 30
0.0
 42
-0.1632707906765776
 50
180.0
  0
SEQEND
  5
1F4
  8
0
  0
POLYLINE
  5
1F5
  8
0
 66
     1
 10
0.0
 20
0.0
 30
0.0
  0
VERTEX
  5
1F6
  8
0
 10
84.44577054407192
 20
118.2135597968568
 30
0.0
 42
-0.0759738029860677
 50
180.0
  0
VERTEX
  5
1F7
  8
0
 10
84.248759696075084
 20
118.2436689139486
 30
0.0
 42
-0.0861489681664724
 50
180.0
  0
VERTEX
  5
1F8
  8
0
 10
84.092217153477648
 20
118.3242112214552
 30
0.0
 42
-0.1059611842089019
 70
     2
 50
142.92621057393191
  0
VERTEX
  5
1F9
  8
0
 10
83.973250192043224
 20
118.4618943718462
 30
0.0
 42
-0.1471982240755334
 50
180.0
  0
VERTEX
  5
1FA
  8
0
 10
83.945770544070669
 20
118.5913473914166
 30
0.0
 42
-0.1260278403512851
 50
180.0
  0
SEQEND
  5
1FB
  8
0
  0
POLYLINE
  5
1FC
  8
0
 66
     1
 10
0.0
 20
0.0
 30
0.0
  0
VERTEX
  5
1FD
  8
0
 10
83.94577054407047
 20
118.5913473914167
 30
0.0
 42
-0.061112938037691
 50
180.0
  0
VERTEX
  5
1FE
  8
0
 10
83.986626974114287
 20
118.9243688523019
 30
0.0
 42
-0.0744665224447995
 50
180.0
  0
VERTEX
  5
1FF
  8
0
 10
84.092217153477606
 20
119.1792084684411
 30
0.0
 42
-0.1069586370034828
 70
     2
 50
58.976315571898532
  0
VERTEX
  5
200
  8
0
 10
84.269643712702177
 20
119.3679252071076
 30
0.0
 42
-0.1519322921768495
 50
180.0
  0
VERTEX
  5
201
  8
0
 10
84.44577054407192
 20
119.4227084993358
 30
0.0
 42
-0.1519322921768134
 50
180.0
  0
SEQEND
  5
202
  8
0
  0
POLYLINE
  5
203
  8
0
 66
     1
 10
0.0
 20
0.0
 30
0.0
  0
VERTEX
  5
204
  8
0
 10
84.44577054407192
 20
121.19425421607509
 30
0.0
 42
-0.0063945854363995
 50
180.0
  0
VERTEX
  5
205
  8
0
 10
84.238745454298694
 20
121.196902003593
 30
0.0
 42
-0.0090272087772587
 50
180.0
  0
VERTEX
  5
206
  8
0
 10
84.092217153477648
 20
121.20329937490079
 30
0.0
 42
-0.021587231382142
 70
     2
 50
176.4656612865999
  0
VERTEX
  5
207
  8
0
 10
83.949802946604493
 20
121.2182869842521
 30
0.0
 50
180.0
  0
VERTEX
  5
208
  8
0
 10
83.945770544070697
 20
121.2251363200122
 30
0.0
 50
180.0
  0
SEQEND
  5
209
  8
0
  0
POLYLINE
  5
20A
  8
0
 66
     1
 10
0.0
 20
0.0
 30
0.0
  0
VERTEX
  5
20B
  8
0
 10
83.94577054407047
 20
121.2251363200122
 30
0.0
 42
-0.0803470550416908
 50
180.0
  0
VERTEX
  5
20C
  8
0
 10
83.985295097153553
 20
121.4695099091319
 30
0.0
 42
-0.0890368192332178
 50
180.0
  0
VERTEX
  5
20D
  8
0
 10
84.092217153477606
 20
121.6660205506054
 30
0.0
 42
-0.1049083465716828
 70
     2
 50
51.273215438773867
  0
VERTEX
  5
20E
  8
0
 10
84.260294518941166
 20
121.8035678347813
 30
0.0
 42
-0.1197633248391211
 50
180.0
  0
VERTEX
  5
20F
  8
0
 10
84.445770544071877
 20
121.8486407783536
 30
0.0
 42
-0.119763324839129
 50
180.0
  0
SEQEND
  5
210
  8
0
  0
POLYLINE
  5
211
  8
0
 66
     1
 10
0.0
 20
0.0
 30
0.0
  0
VERTEX
  5
212
  8
0
 10
93.445770544071891
 20
121.2251363200122
 30
0.0
 42
0.0803470550416908
 50
180.0
  0
VERTEX
  5
213
  8
0
 10
93.406245990988793
 20
121.4695099091319
 30
0.0
 42
0.0890368192332178
 50
180.0
  0
VERTEX
  5
214
  8
0
 10
93.299323934664756
 20
121.6660205506054
 30
0.0
 42
0.1049083465716828
 70
     2
 50
128.7267845612262
  0
VERTEX
  5
215
  8
0
 10
93.131246569201195
 20
121.8035678347813
 30
0.0
 42
0.1197633248391211
 50
128.7267845612262
  0
VERTEX
  5
216
  8
0
 10
92.945770544070484
 20
121.8486407783536
 30
0.0
 42
0.119763324839129
 50
180.0
  0
SEQEND
  5
217
  8
0
  0
POLYLINE
  5
218
  8
0
 66
     1
 10
0.0
 20
0.0
 30
0.0
  0
VERTEX
  5
219
  8
0
 10
92.945770544070484
 20
121.19425421607509
 30
0.0
 42
0.0063945854363995
 50
180.0
  0
VERTEX
  5
21A
  8
0
 10
93.152795633843667
 20
121.196902003593
 30
0.0
 42
0.0090272087772587
 50
180.0
  0
VERTEX
  5
21B
  8
0
 10
93.299323934664741
 20
121.20329937490079
 30
0.0
 42
0.021587231382142
 70
     2
 50
3.5343387134001181
  0
VERTEX
  5
21C
  8
0
 10
93.441738141537869
 20
121.2182869842521
 30
0.0
 50
3.5343387134001181
  0
VERTEX
  5
21D
  8
0
 10
93.445770544071664
 20
121.2251363200122
 30
0.0
 50
180.0
  0
SEQEND
  5
21E
  8
0
  0
POLYLINE
  5
21F
  8
0
 66
     1
 10
0.0
 20
0.0
 30
0.0
  0
VERTEX
  5
220
  8
0
 10
93.445770544071891
 20
118.5913473914167
 30
0.0
 42
0.061112938037691
 50
180.0
  0
VERTEX
  5
221
  8
0
 10
93.404914114028074
 20
118.9243688523019
 30
0.0
 42
0.0744665224447995
 50
180.0
  0
VERTEX
  5
222
  8
0
 10
93.299323934664741
 20
119.1792084684411
 30
0.0
 42
0.1069586370034828
 70
     2
 50
121.0236844281015
  0
VERTEX
  5
223
  8
0
 10
93.121897375440184
 20
119.3679252071076
 30
0.0
 42
0.1519322921768495
 50
121.0236844281015
  0
VERTEX
  5
224
  8
0
 10
92.945770544070484
 20
119.4227084993358
 30
0.0
 42
0.1519322921768134
 50
180.0
  0
SEQEND
  5
225
  8
0
  0
POLYLINE
  5
226
  8
0
 66
     1
 10
0.0
 20
0.0
 30
0.0
  0
VERTEX
  5
227
  8
0
 10
92.945770544070484
 20
118.2135597968568
 30
0.0
 42
0.0759738029860677
 50
180.0
  0
VERTEX
  5
228
  8
0
 10
93.142781392067263
 20
118.2436689139486
 30
0.0
 42
0.0861489681664724
 50
180.0
  0
VERTEX
  5
229
  8
0
 10
93.299323934664741
 20
118.3242112214552
 30
0.0
 42
0.1059611842089019
 70
     2
 50
37.073789426068082
  0
VERTEX
  5
22A
  8
0
 10
93.418290896099137
 20
118.4618943718462
 30
0.0
 42
0.1471982240755334
 50
37.073789426068082
  0
VERTEX
  5
22B
  8
0
 10
93.445770544071735
 20
118.5913473914166
 30
0.0
 42
0.1260278403512851
 50
180.0
  0
SEQEND
  5
22C
  8
0
  0
POLYLINE
  5
22D
  8
0
 66
     1
 10
0.0
 20
0.0
 30
0.0
  0
VERTEX
  5
22E
  8
0
 10
93.445770544068665
 20
114.6496037032359
 30
0.0
 42
0.0558453538950165
 50
180.0
  0
VERTEX
  5
22F
  8
0
 10
93.404596625045812
 20
115.0170963137449
 30
0.0
 42
0.0696234494827605
 50
180.0
  0
VERTEX
  5
230
  8
0
 10
93.299323934662468
 20
115.2949451066884
 30
0.0
 42
0.1059514344510999
 70
     2
 50
118.71634323813591
  0
VERTEX
  5
231
  8
0
 10
93.118541538424708
 20
115.5042922405252
 30
0.0
 42
0.1632707906765774
 50
118.71634323813591
  0
VERTEX
  5
232
  8
0
 10
92.945770544070484
 20
115.5622542683594
 30
0.0
 42
0.1632707906765776
 50
180.0
  0
SEQEND
  5
233
  8
0
  0
POLYLINE
  5
234
  8
0
 66
     1
 10
0.0
 20
0.0
 30
0.0
  0
VERTEX
  5
235
  8
0
 10
92.945770544070484
 20
113.982425354672
 30
0.0
 42
0.126904853429963
 50
180.0
  0
VERTEX
  5
236
  8
0
 10
93.129206483146973
 20
114.0297452561246
 30
0.0
 42
0.1060810122797594
 50
180.0
  0
VERTEX
  5
237
  8
0
 10
93.299323934664741
 20
114.1778373687055
 30
0.0
 42
0.085744797149215
 70
     2
 50
53.151200382941283
  0
VERTEX
  5
238
  8
0
 10
93.416880881615114
 20
114.4080873170072
 30
0.0
 42
0.0912209683726037
 50
53.151200382941283
  0
VERTEX
  5
239
  8
0
 10
93.445770544070868
 20
114.6496037032358
 30
0.0
 42
0.0753899821444356
 50
180.0
  0
SEQEND
  5
23A
  8
0
  0
ARC
  5
23B
  8
0
 10
92.464750251719906
 20
109.9999999999998
 30
0.0
 40
0.9810202923517865
 50
299.36204681106381
 51
60.637953189071311
  0
LINE
  5
23C
  8
0
 10
84.445770544071877
 20
110.8549972469857
 30
0.0
 11
92.945770544070484
 21
110.8549972469857
 31
0.0
  0
LINE
  5
23D
  8
0
 10
84.445770544071877
 20
113.982425354672
 30
0.0
 11
92.945770544070484
 21
113.982425354672
 31
0.0
  0
LINE
  5
23E
  8
0
 10
84.445770544071877
 20
115.5622542683594
 30
0.0
 11
92.945770544070484
 21
115.5622542683594
 31
0.0
  0
LINE
  5
23F
  8
0
 10
84.445770544071877
 20
118.2135597968568
 30
0.0
 11
92.945770544070484
 21
118.2135597968568
 31
0.0
  0
LINE
  5
240
  8
0
 10
84.445770544071877
 20
119.4227084993358
 30
0.0
 11
92.945770544070484
 21
119.4227084993358
 31
0.0
  0
LINE
  5
241
  8
0
 10
84.445770544071877
 20
121.19425421607509
 30
0.0
 11
92.945770544070484
 21
121.19425421607509
 31
0.0
  0
LINE
  5
242
  8
0
 10
84.445770544071877
 20
121.8486407783536
 30
0.0
 11
92.945770544070484
 21
121.8486407783536
 31
0.0
  0
LINE
  5
243
  8
0
 10
102.44577054407181
 20
106.0
 30
0.0
 11
102.44577054407181
 21
114.0
 31
0.0
  0
LINE
  5
244
  8
0
 10
83.445770544071877
 20
98.500000000000014
 30
0.0
 11
83.445770544071891
 21
121.5
 31
0.0
  0
LINE
  5
245
  8
2
 10
91.445770544071863
 20
105.9999999999999
 30
0.0
 11
90.445770544071863
 21
106.9999999999999
 31
0.0
  0
LINE
  5
246
  8
0
 10
102.44577054407181
 20
106.0
 30
0.0
 11
102.14577054407179
 21
106.0
 31
0.0
  0
LINE
  5
247
  8
2
 10
90.445770544071905
 20
113.0
 30
0.0
 11
90.445770544071863
 21
106.9999999999999
 31
0.0
  0
LINE
  5
248
  8
2
 10
83.445770544071891
 20
99.750000000000014
 30
0.0
 11
87.14577054407188
 21
102.2999999999999
 31
0.0
  0
LINE
  5
249
  8
2
 10
87.14577054407188
 20
102.2999999999999
 30
0.0
 11
87.14577054407188
 21
117.7
 31
0.0
  0
LINE
  5
24A
  8
2
 10
87.645770544071894
 20
102.2999999999999
 30
0.0
 11
87.14577054407188
 21
102.2999999999999
 31
0.0
  0
LINE
  5
24B
  8
2
 10
87.645770544071894
 20
117.7
 30
0.0
 11
87.645770544071894
 21
102.2999999999999
 31
0.0
  0
LINE
  5
24C
  8
0
 10
84.445770544071877
 20
122.4707249070632
 30
0.0
 11
84.44577054407192
 21
121.8486407783536
 31
0.0
  0
LINE
  5
24D
  8
0
 10
93.445770544071891
 20
122.5
 30
0.0
 11
93.445770544071891
 21
97.5
 31
0.0
  0
LINE
  5
24E
  8
0
 10
101.14577054407179
 20
118.0
 30
0.0
 11
101.14577054407179
 21
102.0
 31
0.0
  0
LINE
  5
24F
  8
0
 10
83.445770544071891
 20
121.5
 30
0.0
 11
83.944977610968394
 21
121.9992070668965
 31
0.0
  0
LINE
  5
250
  8
0
 10
94.445770544071877
 20
121.5
 30
0.0
 11
93.445770544071891
 21
122.5
 31
0.0
  0
LINE
  5
251
  8
0
 10
102.14577054407179
 20
117.0
 30
0.0
 11
101.14577054407179
 21
118.0
 31
0.0
  0
LINE
  5
252
  8
0
 10
101.14577054407179
 20
102.0
 30
0.0
 11
102.14577054407179
 21
103.0
 31
0.0
  0
LINE
  5
253
  8
0
 10
93.445770544071891
 20
97.5
 30
0.0
 11
94.445770544071877
 21
98.500000000000014
 31
0.0
  0
LINE
  5
254
  8
0
 10
94.445770544071877
 20
121.5
 30
0.0
 11
94.445770544071877
 21
98.500000000000014
 31
0.0
  0
LINE
  5
255
  8
0
 10
94.445770544071877
 20
118.0
 30
0.0
 11
101.14577054407179
 21
118.0
 31
0.0
  0
LINE
  5
256
  8
0
 10
102.14577054407179
 20
117.0
 30
0.0
 11
102.14577054407179
 21
103.0
 31
0.0
  0
LINE
  5
257
  8
0
 10
102.14577054407179
 20
114.0
 30
0.0
 11
102.44577054407181
 21
114.0
 31
0.0
  0
LINE
  5
258
  8
0
 10
94.445770544071863
 20
102.0
 30
0.0
 11
101.14577054407179
 21
102.0
 31
0.0
  0
LINE
  5
259
  8
1
 10
104.94577054407191
 20
110.0
 30
0.0
 11
80.945770544071877
 21
110.0
 31
0.0
  0
LINE
  5
25A
  8
0
 10
83.445770544071877
 20
18.5
 30
0.0
 11
83.94497761096838
 21
18.000792933103501
 31
0.0
  0
LINE
  5
25B
  8
0
 10
84.445770544071863
 20
17.529275092936778
 30
0.0
 11
84.445770544071905
 21
18.15135922164637
 31
0.0
  0
LINE
  5
25C
  8
0
 10
84.445770544071877
 20
18.15135922164637
 30
0.0
 11
92.945770544070456
 21
18.15135922164637
 31
0.0
  0
LINE
  5
25D
  8
0
 10
84.445770544071877
 20
18.805745783924859
 30
0.0
 11
92.945770544070456
 21
18.805745783924831
 31
0.0
  0
LINE
  5
25E
  8
0
 10
84.445770544071877
 20
20.577291500664131
 30
0.0
 11
92.945770544070456
 21
20.577291500664131
 31
0.0
  0
LINE
  5
25F
  8
0
 10
84.445770544071877
 20
21.786440203143108
 30
0.0
 11
92.945770544070456
 21
21.786440203143108
 31
0.0
  0
LINE
  5
260
  8
0
 10
84.445770544071877
 20
24.43774573164055
 30
0.0
 11
92.945770544070456
 21
24.437745731640572
 31
0.0
  0
LINE
  5
261
  8
0
 10
84.445770544071877
 20
26.017574645327951
 30
0.0
 11
92.945770544070456
 21
26.017574645327951
 31
0.0
  0
LINE
  5
262
  8
0
 10
84.445770544071877
 20
29.145002753014239
 30
0.0
 11
92.945770544070456
 21
29.145002753014271
 31
0.0
  0
POLYLINE
  5
263
  8
0
 66
     1
 10
0.0
 20
0.0
 30
0.0
  0
VERTEX
  5
264
  8
0
 10
92.945770544070456
 20
26.017574645327951
 30
0.0
 42
-0.126904853429963
 50
90.0
  0
VERTEX
  5
265
  8
0
 10
93.129206483146959
 20
25.97025474387533
 30
0.0
 42
-0.1060810122797594
 50
90.0
  0
VERTEX
  5
266
  8
0
 10
93.299323934664727
 20
25.822162631294422
 30
0.0
 42
-0.085744797149215
 70
     2
 50
306.84879961705872
  0
VERTEX
  5
267
  8
0
 10
93.416880881615086
 20
25.59191268299276
 30
0.0
 42
-0.0912209683726037
 50
90.0
  0
VERTEX
  5
268
  8
0
 10
93.445770544070854
 20
25.350396296764099
 30
0.0
 42
-0.0753899821444356
 50
90.0
  0
SEQEND
  5
269
  8
0
  0
POLYLINE
  5
26A
  8
0
 66
     1
 10
0.0
 20
0.0
 30
0.0
  0
VERTEX
  5
26B
  8
0
 10
93.445770544068665
 20
25.350396296764082
 30
0.0
 42
-0.0558453538950165
 50
90.0
  0
VERTEX
  5
26C
  8
0
 10
93.404596625045798
 20
24.982903686255039
 30
0.0
 42
-0.0696234494827605
 50
90.0
  0
VERTEX
  5
26D
  8
0
 10
93.299323934662453
 20
24.705054893311509
 30
0.0
 42
-0.1059514344510999
 70
     2
 50
241.28365676186399
  0
VERTEX
  5
26E
  8
0
 10
93.118541538424694
 20
24.495707759474719
 30
0.0
 42
-0.1632707906765774
 50
90.0
  0
VERTEX
  5
26F
  8
0
 10
92.945770544070456
 20
24.437745731640572
 30
0.0
 42
-0.1632707906765776
 50
90.0
  0
SEQEND
  5
270
  8
0
  0
POLYLINE
  5
271
  8
0
 66
     1
 10
0.0
 20
0.0
 30
0.0
  0
VERTEX
  5
272
  8
0
 10
92.945770544070456
 20
21.786440203143108
 30
0.0
 42
-0.0759738029860677
 50
90.0
  0
VERTEX
  5
273
  8
0
 10
93.142781392067249
 20
21.756331086051379
 30
0.0
 42
-0.0861489681664724
 50
90.0
  0
VERTEX
  5
274
  8
0
 10
93.299323934664727
 20
21.675788778544732
 30
0.0
 42
-0.1059611842089019
 70
     2
 50
322.92621057393188
  0
VERTEX
  5
275
  8
0
 10
93.418290896099137
 20
21.538105628153719
 30
0.0
 42
-0.1471982240755334
 50
90.0
  0
VERTEX
  5
276
  8
0
 10
93.445770544071706
 20
21.408652608583338
 30
0.0
 42
-0.1260278403512851
 50
90.0
  0
SEQEND
  5
277
  8
0
  0
POLYLINE
  5
278
  8
0
 66
     1
 10
0.0
 20
0.0
 30
0.0
  0
VERTEX
  5
279
  8
0
 10
93.445770544071877
 20
21.40865260858331
 30
0.0
 42
-0.061112938037691
 50
90.0
  0
VERTEX
  5
27A
  8
0
 10
93.404914114028074
 20
21.075631147698061
 30
0.0
 42
-0.0744665224447995
 50
90.0
  0
VERTEX
  5
27B
  8
0
 10
93.299323934664727
 20
20.820791531558879
 30
0.0
 42
-0.1069586370034828
 70
     2
 50
238.9763155718984
  0
VERTEX
  5
27C
  8
0
 10
93.12189737544017
 20
20.63207479289235
 30
0.0
 42
-0.1519322921768495
 50
90.0
  0
VERTEX
  5
27D
  8
0
 10
92.945770544070456
 20
20.577291500664131
 30
0.0
 42
-0.1519322921768134
 50
90.0
  0
SEQEND
  5
27E
  8
0
  0
POLYLINE
  5
27F
  8
0
 66
     1
 10
0.0
 20
0.0
 30
0.0
  0
VERTEX
  5
280
  8
0
 10
92.945770544070456
 20
18.805745783924831
 30
0.0
 42
-0.0063945854363995
 50
90.0
  0
VERTEX
  5
281
  8
0
 10
93.152795633843652
 20
18.803097996406908
 30
0.0
 42
-0.0090272087772587
 50
90.0
  0
VERTEX
  5
282
  8
0
 10
93.299323934664727
 20
18.796700625099131
 30
0.0
 42
-0.021587231382142
 70
     2
 50
356.46566128659993
  0
VERTEX
  5
283
  8
0
 10
93.441738141537854
 20
18.781713015747869
 30
0.0
 50
90.0
  0
VERTEX
  5
284
  8
0
 10
93.445770544071664
 20
18.77486367998776
 30
0.0
 50
90.0
  0
SEQEND
  5
285
  8
0
  0
POLYLINE
  5
286
  8
0
 66
     1
 10
0.0
 20
0.0
 30
0.0
  0
VERTEX
  5
287
  8
0
 10
93.445770544071877
 20
18.774863679987732
 30
0.0
 42
-0.0803470550416908
 50
90.0
  0
VERTEX
  5
288
  8
0
 10
93.406245990988779
 20
18.53049009086806
 30
0.0
 42
-0.0890368192332178
 50
90.0
  0
VERTEX
  5
289
  8
0
 10
93.299323934664756
 20
18.333979449394519
 30
0.0
 42
-0.1049083465716828
 70
     2
 50
231.2732154387738
  0
VERTEX
  5
28A
  8
0
 10
93.131246569201181
 20
18.196432165218681
 30
0.0
 42
-0.1197633248391211
 50
90.0
  0
VERTEX
  5
28B
  8
0
 10
92.945770544070456
 20
18.15135922164637
 30
0.0
 42
-0.119763324839129
 50
90.0
  0
SEQEND
  5
28C
  8
0
  0
POLYLINE
  5
28D
  8
0
 66
     1
 10
0.0
 20
0.0
 30
0.0
  0
VERTEX
  5
28E
  8
0
 10
83.945770544070456
 20
18.774863679987732
 30
0.0
 42
0.0803470550416908
 50
90.0
  0
VERTEX
  5
28F
  8
0
 10
83.985295097153539
 20
18.53049009086806
 30
0.0
 42
0.0890368192332178
 50
90.0
  0
VERTEX
  5
290
  8
0
 10
84.092217153477606
 20
18.333979449394519
 30
0.0
 42
0.1049083465716828
 70
     2
 50
308.72678456122611
  0
VERTEX
  5
291
  8
0
 10
84.260294518941137
 20
18.196432165218681
 30
0.0
 42
0.1197633248391211
 50
90.0
  0
VERTEX
  5
292
  8
0
 10
84.445770544071877
 20
18.15135922164637
 30
0.0
 42
0.119763324839129
 50
90.0
  0
SEQEND
  5
293
  8
0
  0
POLYLINE
  5
294
  8
0
 66
     1
 10
0.0
 20
0.0
 30
0.0
  0
VERTEX
  5
295
  8
0
 10
84.445770544071905
 20
18.805745783924831
 30
0.0
 42
0.0063945854363995
 50
90.0
  0
VERTEX
  5
296
  8
0
 10
84.23874545429868
 20
18.803097996406908
 30
0.0
 42
0.0090272087772587
 50
90.0
  0
VERTEX
  5
297
  8
0
 10
84.092217153477634
 20
18.796700625099131
 30
0.0
 42
0.021587231382142
 70
     2
 50
183.5343387134001
  0
VERTEX
  5
298
  8
0
 10
83.949802946604464
 20
18.781713015747869
 30
0.0
 50
90.0
  0
VERTEX
  5
299
  8
0
 10
83.945770544070683
 20
18.77486367998776
 30
0.0
 50
90.0
  0
SEQEND
  5
29A
  8
0
  0
POLYLINE
  5
29B
  8
0
 66
     1
 10
0.0
 20
0.0
 30
0.0
  0
VERTEX
  5
29C
  8
0
 10
83.945770544070456
 20
21.40865260858331
 30
0.0
 42
0.061112938037691
 50
90.0
  0
VERTEX
  5
29D
  8
0
 10
83.986626974114273
 20
21.075631147698061
 30
0.0
 42
0.0744665224447995
 50
90.0
  0
VERTEX
  5
29E
  8
0
 10
84.092217153477606
 20
20.820791531558879
 30
0.0
 42
0.1069586370034828
 70
     2
 50
301.02368442810138
  0
VERTEX
  5
29F
  8
0
 10
84.269643712702162
 20
20.63207479289235
 30
0.0
 42
0.1519322921768495
 50
90.0
  0
VERTEX
  5
2A0
  8
0
 10
84.445770544071905
 20
20.577291500664131
 30
0.0
 42
0.1519322921768134
 50
90.0
  0
SEQEND
  5
2A1
  8
0
  0
POLYLINE
  5
2A2
  8
0
 66
     1
 10
0.0
 20
0.0
 30
0.0
  0
VERTEX
  5
2A3
  8
0
 10
84.445770544071905
 20
21.786440203143108
 30
0.0
 42
0.0759738029860677
 50
90.0
  0
VERTEX
  5
2A4
  8
0
 10
84.248759696075069
 20
21.756331086051379
 30
0.0
 42
0.0861489681664724
 50
90.0
  0
VERTEX
  5
2A5
  8
0
 10
84.092217153477634
 20
21.675788778544732
 30
0.0
 42
0.1059611842089019
 70
     2
 50
217.07378942606809
  0
VERTEX
  5
2A6
  8
0
 10
83.973250192043224
 20
21.538105628153719
 30
0.0
 42
0.1471982240755334
 50
90.0
  0
VERTEX
  5
2A7
  8
0
 10
83.945770544070655
 20
21.408652608583338
 30
0.0
 42
0.1260278403512851
 50
90.0
  0
SEQEND
  5
2A8
  8
0
  0
POLYLINE
  5
2A9
  8
0
 66
     1
 10
0.0
 20
0.0
 30
0.0
  0
VERTEX
  5
2AA
  8
0
 10
83.945770544073696
 20
25.350396296764082
 30
0.0
 42
0.0558453538950165
 50
90.0
  0
VERTEX
  5
2AB
  8
0
 10
83.986944463096535
 20
24.982903686255039
 30
0.0
 42
0.0696234494827605
 50
90.0
  0
VERTEX
  5
2AC
  8
0
 10
84.092217153479865
 20
24.705054893311509
 30
0.0
 42
0.1059514344510999
 70
     2
 50
298.71634323813601
  0
VERTEX
  5
2AD
  8
0
 10
84.272999549717625
 20
24.495707759474719
 30
0.0
 42
0.1632707906765774
 50
90.0
  0
VERTEX
  5
2AE
  8
0
 10
84.445770544071905
 20
24.437745731640572
 30
0.0
 42
0.1632707906765776
 50
90.0
  0
SEQEND
  5
2AF
  8
0
  0
POLYLINE
  5
2B0
  8
0
 66
     1
 10
0.0
 20
0.0
 30
0.0
  0
VERTEX
  5
2B1
  8
0
 10
84.445770544071877
 20
26.017574645327951
 30
0.0
 42
0.126904853429963
 50
90.0
  0
VERTEX
  5
2B2
  8
0
 10
84.262334604995402
 20
25.97025474387533
 30
0.0
 42
0.1060810122797594
 50
90.0
  0
VERTEX
  5
2B3
  8
0
 10
84.092217153477606
 20
25.822162631294422
 30
0.0
 42
0.085744797149215
 70
     2
 50
233.15120038294131
  0
VERTEX
  5
2B4
  8
0
 10
83.974660206527233
 20
25.59191268299276
 30
0.0
 42
0.0912209683726037
 50
90.0
  0
VERTEX
  5
2B5
  8
0
 10
83.945770544071479
 20
25.350396296764099
 30
0.0
 42
0.0753899821444356
 50
90.0
  0
SEQEND
  5
2B6
  8
0
  0
LINE
  5
2B7
  8
0
 10
84.445770544071905
 20
26.017574645327951
 30
0.0
 11
84.445770544071877
 21
29.145002753014271
 31
0.0
  0
LINE
  5
2B8
  8
0
 10
84.445770544071877
 20
21.786440203143108
 30
0.0
 11
84.445770544071877
 21
24.437745731640572
 31
0.0
  0
LINE
  5
2B9
  8
0
 10
84.445770544071905
 20
18.805745783924831
 30
0.0
 11
84.445770544071877
 21
20.577291500664131
 31
0.0
  0
LINE
  5
2BA
  8
0
 10
84.445770544071877
 20
17.529275092936778
 30
0.0
 11
92.945770544066534
 21
17.529275092936778
 31
0.0
  0
POLYLINE
  5
2BB
  8
0
 66
     1
 10
0.0
 20
0.0
 30
0.0
  0
VERTEX
  5
2BC
  8
0
 10
83.944977610964287
 20
18.00079293310759
 30
0.0
 42
-0.0932326856578775
 50
90.0
  0
VERTEX
  5
2BD
  8
0
 10
84.138009302564399
 20
17.96448359416809
 30
0.0
 42
-0.0961553825390117
 50
90.0
  0
VERTEX
  5
2BE
  8
0
 10
84.299091689934954
 20
17.862688555171989
 30
0.0
 42
-0.1005995558164784
 70
     2
 50
316.72458511625121
  0
VERTEX
  5
2BF
  8
0
 10
84.408126909430379
 20
17.708323726759339
 30
0.0
 42
-0.1039846014298173
 50
90.0
  0
VERTEX
  5
2C0
  8
0
 10
84.445770544071877
 20
17.529275092936778
 30
0.0
 42
-0.1039846014297789
 50
90.0
  0
SEQEND
  5
2C1
  8
0
  0
POLYLINE
  5
2C2
  8
0
 66
     1
 10
0.0
 20
0.0
 30
0.0
  0
VERTEX
  5
2C3
  8
0
 10
92.945770544070484
 20
17.529275092936778
 30
0.0
 42
-0.0060619562265407
 50
90.0
  0
VERTEX
  5
2C4
  8
0
 10
93.152803903355576
 20
17.526764946372712
 30
0.0
 42
-0.008559181375748
 50
90.0
  0
VERTEX
  5
2C5
  8
0
 10
93.299323934664741
 20
17.520700616735301
 30
0.0
 42
-0.0204875976357465
 70
     2
 50
356.64914701241759
  0
VERTEX
  5
2C6
  8
0
 10
93.441949680875283
 20
17.506469123745351
 30
0.0
 50
90.0
  0
VERTEX
  5
2C7
  8
0
 10
93.445770544072076
 20
17.5
 30
0.0
 50
90.0
  0
SEQEND
  5
2C8
  8
0
  0
POLYLINE
  5
2C9
  8
0
 66
     1
 10
0.0
 20
0.0
 30
0.0
  0
VERTEX
  5
2CA
  8
0
 10
92.945770544070484
 20
42.470724907063207
 30
0.0
 42
0.0060619562265407
 50
90.0
  0
VERTEX
  5
2CB
  8
0
 10
93.152803903355576
 20
42.473235053627299
 30
0.0
 42
0.008559181375748
 50
90.0
  0
VERTEX
  5
2CC
  8
0
 10
93.299323934664741
 20
42.479299383264703
 30
0.0
 42
0.0204875976357465
 70
     2
 50
3.3508529875824729
  0
VERTEX
  5
2CD
  8
0
 10
93.441949680875283
 20
42.49353087625466
 30
0.0
 50
3.3508529875824729
  0
VERTEX
  5
2CE
  8
0
 10
93.445770544072076
 20
42.5
 30
0.0
 50
90.0
  0
SEQEND
  5
2CF
  8
0
  0
POLYLINE
  5
2D0
  8
0
 66
     1
 10
0.0
 20
0.0
 30
0.0
  0
VERTEX
  5
2D1
  8
0
 10
83.944977610964287
 20
41.99920706689241
 30
0.0
 42
0.0932326856578775
 50
90.0
  0
VERTEX
  5
2D2
  8
0
 10
84.138009302564399
 20
42.035516405831913
 30
0.0
 42
0.0961553825390117
 50
90.0
  0
VERTEX
  5
2D3
  8
0
 10
84.299091689934954
 20
42.137311444828022
 30
0.0
 42
0.1005995558164784
 70
     2
 50
43.275414883748788
  0
VERTEX
  5
2D4
  8
0
 10
84.408126909430379
 20
42.291676273240647
 30
0.0
 42
0.1039846014298173
 50
43.275414883748788
  0
VERTEX
  5
2D5
  8
0
 10
84.445770544071877
 20
42.470724907063207
 30
0.0
 42
0.1039846014297789
 50
90.0
  0
SEQEND
  5
2D6
  8
0
  0
LINE
  5
2D7
  8
0
 10
84.445770544071877
 20
42.470724907063207
 30
0.0
 11
92.945770544066534
 21
42.470724907063207
 31
0.0
  0
LINE
  5
2D8
  8
2
 10
101.44577054407191
 20
32.458499999999823
 30
0.0
 11
92.445770544071905
 21
32.458499999999823
 31
0.0
  0
LINE
  5
2D9
  8
2
 10
102.44577054407191
 20
33.458500000000122
 30
0.0
 11
101.44577054407181
 21
32.458500000000072
 31
0.0
  0
LINE
  5
2DA
  8
2
 10
101.98727054407181
 20
33.000000000000021
 30
0.0
 11
94.445770544071905
 21
33.000000000000028
 31
0.0
  0
LINE
  5
2DB
  8
2
 10
92.445770544071934
 20
32.458500000000051
 30
0.0
 11
90.968554712192599
 21
29.999999999999979
 31
0.0
  0
LINE
  5
2DC
  8
2
 10
94.445770544071905
 20
32.999999999999922
 30
0.0
 11
93.507865031773505
 21
32.458499999999987
 31
0.0
  0
LINE
  5
2DD
  8
2
 10
91.445770544071834
 20
34.000000000000028
 30
0.0
 11
102.14577054407179
 21
34.0
 31
0.0
  0
LINE
  5
2DE
  8
2
 10
91.445770544071834
 20
34.000000000000028
 30
0.0
 11
90.445770544071834
 21
33.000000000000028
 31
0.0
  0
LINE
  5
2DF
  8
2
 10
87.645770544071866
 20
37.700000000000017
 30
0.0
 11
87.145770544071866
 21
37.700000000000017
 31
0.0
  0
LINE
  5
2E0
  8
2
 10
83.445770544071877
 20
40.250000000000007
 30
0.0
 11
87.145770544071866
 21
37.700000000000017
 31
0.0
  0
LINE
  5
2E1
  8
2
 10
91.445770544071834
 20
25.999999999999972
 30
0.0
 11
102.14577054407179
 21
26.0
 31
0.0
  0
LINE
  5
2E2
  8
2
 10
101.44577054407191
 20
27.5414999999999
 30
0.0
 11
101.44577054407191
 21
32.458500000000107
 31
0.0
  0
LINE
  5
2E3
  8
2
 10
102.44577054407191
 20
26.541499999999871
 30
0.0
 11
101.44577054407181
 21
27.541499999999932
 31
0.0
  0
LINE
  5
2E4
  8
2
 10
94.445770544071905
 20
27.000000000000089
 30
0.0
 11
93.507865031773505
 21
27.541500000000021
 31
0.0
  0
LINE
  5
2E5
  8
2
 10
92.445770544071934
 20
27.54149999999996
 30
0.0
 11
90.968554712192599
 21
30.000000000000028
 31
0.0
  0
LINE
  5
2E6
  8
2
 10
92.445770544071905
 20
27.5414999999999
 30
0.0
 11
92.445770544071905
 21
32.458499999999987
 31
0.0
  0
LINE
  5
2E7
  8
2
 10
94.445770544071905
 20
26.999999999999972
 30
0.0
 11
94.445770544071848
 21
33.000000000000028
 31
0.0
  0
LINE
  5
2E8
  8
2
 10
101.44577054407191
 20
27.5414999999999
 30
0.0
 11
92.445770544071905
 21
27.5414999999999
 31
0.0
  0
LINE
  5
2E9
  8
2
 10
101.98727054407181
 20
26.999999999999972
 30
0.0
 11
94.445770544071905
 21
26.999999999999972
 31
0.0
  0
LINE
  5
2EA
  8
0
 10
84.445770544071905
 20
41.194254216075173
 30
0.0
 11
84.445770544071877
 21
39.422708499335869
 31
0.0
  0
LINE
  5
2EB
  8
0
 10
84.445770544071877
 20
38.213559796856892
 30
0.0
 11
84.445770544071877
 21
35.562254268359432
 31
0.0
  0
LINE
  5
2EC
  8
0
 10
84.445770544071905
 20
33.982425354672053
 30
0.0
 11
84.445770544071877
 21
30.854997246985739
 31
0.0
  0
ARC
  5
2ED
  8
0
 10
84.926790836422441
 20
29.999999999999861
 30
0.0
 40
0.9810202923517865
 50
119.3620468109286
 51
240.63795318908811
  0
POLYLINE
  5
2EE
  8
0
 66
     1
 10
0.0
 20
0.0
 30
0.0
  0
VERTEX
  5
2EF
  8
0
 10
84.445770544071877
 20
33.982425354672053
 30
0.0
 42
-0.126904853429963
 50
180.0
  0
VERTEX
  5
2F0
  8
0
 10
84.262334604995402
 20
34.02974525612467
 30
0.0
 42
-0.1060810122797594
 50
180.0
  0
VERTEX
  5
2F1
  8
0
 10
84.092217153477606
 20
34.177837368705589
 30
0.0
 42
-0.085744797149215
 70
     2
 50
126.8487996170587
  0
VERTEX
  5
2F2
  8
0
 10
83.974660206527233
 20
34.408087317007251
 30
0.0
 42
-0.0912209683726037
 50
180.0
  0
VERTEX
  5
2F3
  8
0
 10
83.945770544071479
 20
34.649603703235897
 30
0.0
 42
-0.0753899821444356
 50
180.0
  0
SEQEND
  5
2F4
  8
0
  0
POLYLINE
  5
2F5
  8
0
 66
     1
 10
0.0
 20
0.0
 30
0.0
  0
VERTEX
  5
2F6
  8
0
 10
83.945770544073696
 20
34.649603703235933
 30
0.0
 42
-0.0558453538950165
 50
180.0
  0
VERTEX
  5
2F7
  8
0
 10
83.986944463096535
 20
35.017096313744958
 30
0.0
 42
-0.0696234494827605
 50
180.0
  0
VERTEX
  5
2F8
  8
0
 10
84.092217153479865
 20
35.294945106688488
 30
0.0
 42
-0.1059514344510999
 70
     2
 50
61.283656761864009
  0
VERTEX
  5
2F9
  8
0
 10
84.272999549717625
 20
35.504292240525281
 30
0.0
 42
-0.1632707906765774
 50
180.0
  0
VERTEX
  5
2FA
  8
0
 10
84.445770544071905
 20
35.562254268359432
 30
0.0
 42
-0.1632707906765776
 50
180.0
  0
SEQEND
  5
2FB
  8
0
  0
POLYLINE
  5
2FC
  8
0
 66
     1
 10
0.0
 20
0.0
 30
0.0
  0
VERTEX
  5
2FD
  8
0
 10
84.445770544071905
 20
38.213559796856892
 30
0.0
 42
-0.0759738029860677
 50
180.0
  0
VERTEX
  5
2FE
  8
0
 10
84.248759696075069
 20
38.243668913948632
 30
0.0
 42
-0.0861489681664724
 50
180.0
  0
VERTEX
  5
2FF
  8
0
 10
84.092217153477634
 20
38.324211221455272
 30
0.0
 42
-0.1059611842089019
 70
     2
 50
142.92621057393191
  0
VERTEX
  5
300
  8
0
 10
83.973250192043224
 20
38.461894371846292
 30
0.0
 42
-0.1471982240755334
 50
180.0
  0
VERTEX
  5
301
  8
0
 10
83.945770544070655
 20
38.591347391416669
 30
0.0
 42
-0.1260278403512851
 50
180.0
  0
SEQEND
  5
302
  8
0
  0
POLYLINE
  5
303
  8
0
 66
     1
 10
0.0
 20
0.0
 30
0.0
  0
VERTEX
  5
304
  8
0
 10
83.945770544070456
 20
38.59134739141669
 30
0.0
 42
-0.061112938037691
 50
180.0
  0
VERTEX
  5
305
  8
0
 10
83.986626974114273
 20
38.924368852301939
 30
0.0
 42
-0.0744665224447995
 50
180.0
  0
VERTEX
  5
306
  8
0
 10
84.092217153477606
 20
39.179208468441118
 30
0.0
 42
-0.1069586370034828
 70
     2
 50
58.976315571898532
  0
VERTEX
  5
307
  8
0
 10
84.269643712702162
 20
39.367925207107653
 30
0.0
 42
-0.1519322921768495
 50
180.0
  0
VERTEX
  5
308
  8
0
 10
84.445770544071905
 20
39.422708499335869
 30
0.0
 42
-0.1519322921768134
 50
180.0
  0
SEQEND
  5
309
  8
0
  0
POLYLINE
  5
30A
  8
0
 66
     1
 10
0.0
 20
0.0
 30
0.0
  0
VERTEX
  5
30B
  8
0
 10
84.445770544071905
 20
41.194254216075173
 30
0.0
 42
-0.0063945854363995
 50
180.0
  0
VERTEX
  5
30C
  8
0
 10
84.23874545429868
 20
41.196902003593102
 30
0.0
 42
-0.0090272087772587
 50
180.0
  0
VERTEX
  5
30D
  8
0
 10
84.092217153477634
 20
41.203299374900872
 30
0.0
 42
-0.021587231382142
 70
     2
 50
176.4656612865999
  0
VERTEX
  5
30E
  8
0
 10
83.949802946604464
 20
41.218286984252138
 30
0.0
 50
180.0
  0
VERTEX
  5
30F
  8
0
 10
83.945770544070683
 20
41.225136320012247
 30
0.0
 50
180.0
  0
SEQEND
  5
310
  8
0
  0
POLYLINE
  5
311
  8
0
 66
     1
 10
0.0
 20
0.0
 30
0.0
  0
VERTEX
  5
312
  8
0
 10
83.945770544070456
 20
41.225136320012268
 30
0.0
 42
-0.0803470550416908
 50
180.0
  0
VERTEX
  5
313
  8
0
 10
83.985295097153539
 20
41.469509909131951
 30
0.0
 42
-0.0890368192332178
 50
180.0
  0
VERTEX
  5
314
  8
0
 10
84.092217153477606
 20
41.666020550605488
 30
0.0
 42
-0.1049083465716828
 70
     2
 50
51.273215438773867
  0
VERTEX
  5
315
  8
0
 10
84.260294518941137
 20
41.803567834781319
 30
0.0
 42
-0.1197633248391211
 50
180.0
  0
VERTEX
  5
316
  8
0
 10
84.445770544071877
 20
41.848640778353627
 30
0.0
 42
-0.119763324839129
 50
180.0
  0
SEQEND
  5
317
  8
0
  0
POLYLINE
  5
318
  8
0
 66
     1
 10
0.0
 20
0.0
 30
0.0
  0
VERTEX
  5
319
  8
0
 10
93.445770544071877
 20
41.225136320012268
 30
0.0
 42
0.0803470550416908
 50
180.0
  0
VERTEX
  5
31A
  8
0
 10
93.406245990988779
 20
41.469509909131951
 30
0.0
 42
0.0890368192332178
 50
180.0
  0
VERTEX
  5
31B
  8
0
 10
93.299323934664756
 20
41.666020550605488
 30
0.0
 42
0.1049083465716828
 70
     2
 50
128.7267845612262
  0
VERTEX
  5
31C
  8
0
 10
93.131246569201181
 20
41.803567834781319
 30
0.0
 42
0.1197633248391211
 50
128.7267845612262
  0
VERTEX
  5
31D
  8
0
 10
92.945770544070456
 20
41.848640778353627
 30
0.0
 42
0.119763324839129
 50
180.0
  0
SEQEND
  5
31E
  8
0
  0
POLYLINE
  5
31F
  8
0
 66
     1
 10
0.0
 20
0.0
 30
0.0
  0
VERTEX
  5
320
  8
0
 10
92.945770544070456
 20
41.194254216075173
 30
0.0
 42
0.0063945854363995
 50
180.0
  0
VERTEX
  5
321
  8
0
 10
93.152795633843652
 20
41.196902003593102
 30
0.0
 42
0.0090272087772587
 50
180.0
  0
VERTEX
  5
322
  8
0
 10
93.299323934664727
 20
41.203299374900872
 30
0.0
 42
0.021587231382142
 70
     2
 50
3.5343387134001181
  0
VERTEX
  5
323
  8
0
 10
93.441738141537854
 20
41.218286984252138
 30
0.0
 50
3.5343387134001181
  0
VERTEX
  5
324
  8
0
 10
93.445770544071664
 20
41.225136320012247
 30
0.0
 50
180.0
  0
SEQEND
  5
325
  8
0
  0
POLYLINE
  5
326
  8
0
 66
     1
 10
0.0
 20
0.0
 30
0.0
  0
VERTEX
  5
327
  8
0
 10
93.445770544071877
 20
38.59134739141669
 30
0.0
 42
0.061112938037691
 50
180.0
  0
VERTEX
  5
328
  8
0
 10
93.404914114028074
 20
38.924368852301939
 30
0.0
 42
0.0744665224447995
 50
180.0
  0
VERTEX
  5
329
  8
0
 10
93.299323934664727
 20
39.179208468441118
 30
0.0
 42
0.1069586370034828
 70
     2
 50
121.0236844281015
  0
VERTEX
  5
32A
  8
0
 10
93.12189737544017
 20
39.367925207107653
 30
0.0
 42
0.1519322921768495
 50
121.0236844281015
  0
VERTEX
  5
32B
  8
0
 10
92.945770544070456
 20
39.422708499335869
 30
0.0
 42
0.1519322921768134
 50
180.0
  0
SEQEND
  5
32C
  8
0
  0
POLYLINE
  5
32D
  8
0
 66
     1
 10
0.0
 20
0.0
 30
0.0
  0
VERTEX
  5
32E
  8
0
 10
92.945770544070456
 20
38.213559796856892
 30
0.0
 42
0.0759738029860677
 50
180.0
  0
VERTEX
  5
32F
  8
0
 10
93.142781392067249
 20
38.243668913948632
 30
0.0
 42
0.0861489681664724
 50
180.0
  0
VERTEX
  5
330
  8
0
 10
93.299323934664727
 20
38.324211221455272
 30
0.0
 42
0.1059611842089019
 70
     2
 50
37.073789426068082
  0
VERTEX
  5
331
  8
0
 10
93.418290896099137
 20
38.461894371846292
 30
0.0
 42
0.1471982240755334
 50
37.073789426068082
  0
VERTEX
  5
332
  8
0
 10
93.445770544071706
 20
38.591347391416669
 30
0.0
 42
0.1260278403512851
 50
180.0
  0
SEQEND
  5
333
  8
0
  0
POLYLINE
  5
334
  8
0
 66
     1
 10
0.0
 20
0.0
 30
0.0
  0
VERTEX
  5
335
  8
0
 10
93.445770544068665
 20
34.649603703235933
 30
0.0
 42
0.0558453538950165
 50
180.0
  0
VERTEX
  5
336
  8
0
 10
93.404596625045798
 20
35.017096313744958
 30
0.0
 42
0.0696234494827605
 50
180.0
  0
VERTEX
  5
337
  8
0
 10
93.299323934662453
 20
35.294945106688488
 30
0.0
 42
0.1059514344510999
 70
     2
 50
118.71634323813591
  0
VERTEX
  5
338
  8
0
 10
93.118541538424694
 20
35.504292240525281
 30
0.0
 42
0.1632707906765774
 50
118.71634323813591
  0
VERTEX
  5
339
  8
0
 10
92.945770544070456
 20
35.562254268359432
 30
0.0
 42
0.1632707906765776
 50
180.0
  0
SEQEND
  5
33A
  8
0
  0
POLYLINE
  5
33B
  8
0
 66
     1
 10
0.0
 20
0.0
 30
0.0
  0
VERTEX
  5
33C
  8
0
 10
92.945770544070456
 20
33.982425354672053
 30
0.0
 42
0.126904853429963
 50
180.0
  0
VERTEX
  5
33D
  8
0
 10
93.129206483146959
 20
34.02974525612467
 30
0.0
 42
0.1060810122797594
 50
180.0
  0
VERTEX
  5
33E
  8
0
 10
93.299323934664727
 20
34.177837368705589
 30
0.0
 42
0.085744797149215
 70
     2
 50
53.151200382941283
  0
VERTEX
  5
33F
  8
0
 10
93.416880881615086
 20
34.408087317007251
 30
0.0
 42
0.0912209683726037
 50
53.151200382941283
  0
VERTEX
  5
340
  8
0
 10
93.445770544070854
 20
34.649603703235897
 30
0.0
 42
0.0753899821444356
 50
180.0
  0
SEQEND
  5
341
  8
0
  0
ARC
  5
342
  8
0
 10
92.464750251719892
 20
29.999999999999861
 30
0.0
 40
0.9810202923517865
 50
299.36204681106381
 51
60.637953189071311
  0
LINE
  5
343
  8
0
 10
84.445770544071877
 20
30.854997246985771
 30
0.0
 11
92.945770544070456
 21
30.854997246985739
 31
0.0
  0
LINE
  5
344
  8
0
 10
84.445770544071877
 20
33.982425354672053
 30
0.0
 11
92.945770544070456
 21
33.982425354672053
 31
0.0
  0
LINE
  5
345
  8
0
 10
84.445770544071877
 20
35.56225426835946
 30
0.0
 11
92.945770544070456
 21
35.562254268359432
 31
0.0
  0
LINE
  5
346
  8
0
 10
84.445770544071877
 20
38.213559796856892
 30
0.0
 11
92.945770544070456
 21
38.213559796856892
 31
0.0
  0
LINE
  5
347
  8
0
 10
84.445770544071877
 20
39.422708499335869
 30
0.0
 11
92.945770544070456
 21
39.422708499335869
 31
0.0
  0
LINE
  5
348
  8
0
 10
84.445770544071877
 20
41.194254216075137
 30
0.0
 11
92.945770544070456
 21
41.194254216075173
 31
0.0
  0
LINE
  5
349
  8
0
 10
84.445770544071877
 20
41.848640778353627
 30
0.0
 11
92.945770544070456
 21
41.848640778353627
 31
0.0
  0
LINE
  5
34A
  8
0
 10
102.44577054407181
 20
26.0
 30
0.0
 11
102.44577054407181
 21
34.0
 31
0.0
  0
LINE
  5
34B
  8
0
 10
83.445770544071848
 20
18.5
 30
0.0
 11
83.445770544071877
 21
41.500000000000007
 31
0.0
  0
LINE
  5
34C
  8
2
 10
91.445770544071834
 20
25.999999999999972
 30
0.0
 11
90.445770544071834
 21
26.999999999999972
 31
0.0
  0
LINE
  5
34D
  8
0
 10
102.44577054407181
 20
26.0
 30
0.0
 11
102.14577054407179
 21
26.0
 31
0.0
  0
LINE
  5
34E
  8
2
 10
90.445770544071905
 20
33.000000000000092
 30
0.0
 11
90.445770544071834
 21
26.999999999999972
 31
0.0
  0
LINE
  5
34F
  8
2
 10
83.445770544071877
 20
19.75
 30
0.0
 11
87.145770544071866
 21
22.299999999999979
 31
0.0
  0
LINE
  5
350
  8
2
 10
87.145770544071866
 20
22.299999999999979
 30
0.0
 11
87.145770544071866
 21
37.700000000000017
 31
0.0
  0
LINE
  5
351
  8
2
 10
87.645770544071866
 20
22.299999999999979
 30
0.0
 11
87.145770544071866
 21
22.299999999999979
 31
0.0
  0
LINE
  5
352
  8
2
 10
87.645770544071866
 20
37.700000000000017
 30
0.0
 11
87.645770544071866
 21
22.299999999999979
 31
0.0
  0
LINE
  5
353
  8
0
 10
84.445770544071863
 20
42.470724907063207
 30
0.0
 11
84.445770544071905
 21
41.848640778353627
 31
0.0
  0
LINE
  5
354
  8
0
 10
93.445770544071877
 20
42.5
 30
0.0
 11
93.445770544071877
 21
17.499999999999989
 31
0.0
  0
LINE
  5
355
  8
0
 10
101.14577054407179
 20
38.0
 30
0.0
 11
101.14577054407179
 21
22.0
 31
0.0
  0
LINE
  5
356
  8
0
 10
83.445770544071877
 20
41.500000000000007
 30
0.0
 11
83.94497761096838
 21
41.99920706689651
 31
0.0
  0
LINE
  5
357
  8
0
 10
94.445770544071877
 20
41.500000000000007
 30
0.0
 11
93.445770544071877
 21
42.5
 31
0.0
  0
LINE
  5
358
  8
0
 10
102.14577054407179
 20
37.0
 30
0.0
 11
101.14577054407179
 21
38.0
 31
0.0
  0
LINE
  5
359
  8
0
 10
101.14577054407179
 20
22.0
 30
0.0
 11
102.14577054407179
 21
23.0
 31
0.0
  0
LINE
  5
35A
  8
0
 10
93.445770544071877
 20
17.5
 30
0.0
 11
94.445770544071877
 21
18.5
 31
0.0
  0
LINE
  5
35B
  8
0
 10
94.445770544071877
 20
41.500000000000007
 30
0.0
 11
94.445770544071877
 21
18.500000000000011
 31
0.0
  0
LINE
  5
35C
  8
0
 10
94.445770544071877
 20
38.0
 30
0.0
 11
101.14577054407179
 21
38.0
 31
0.0
  0
LINE
  5
35D
  8
0
 10
102.14577054407179
 20
37.0
 30
0.0
 11
102.14577054407179
 21
23.0
 31
0.0
  0
LINE
  5
35E
  8
0
 10
102.14577054407179
 20
34.0
 30
0.0
 11
102.44577054407181
 21
34.0
 31
0.0
  0
LINE
  5
35F
  8
0
 10
94.445770544071848
 20
22.0
 30
0.0
 11
101.14577054407179
 21
22.0
 31
0.0
  0
LINE
  5
360
  8
1
 10
104.94577054407181
 20
30.0
 30
0.0
 11
80.945770544071877
 21
30.0
 31
0.0
  0
CIRCLE
  5
36A
  8
0
 10
146.0
 20
70.0
 30
0.0
 40
12.5
  0
LINE
  5
36B
  8
1
 10
146.0
 20
55.0
 30
0.0
 11
146.0
 21
85.0
 31
0.0
  0
LINE
  5
36C
  8
1
 10
161.0
 20
70.0
 30
0.0
 11
131.00000000000011
 21
70.0
 31
0.0
  0
CIRCLE
  5
36D
  8
3
 10
146.0
 20
70.0
 30
0.0
 40
3.0
  0
CIRCLE
  5
36E
  8
0
 10
146.0
 20
70.0
 30
0.0
 40
2.458499999999999
  0
CIRCLE
  5
36F
  8
0
 10
146.0
 20
70.0
 30
0.0
 40
11.5
  0
CIRCLE
  5
370
  8
0
 10
146.0
 20
70.0
 30
0.0
 40
8.0
  0
CIRCLE
  5
371
  8
0
 10
146.0
 20
70.0
 30
0.0
 40
7.0000000000000142
  0
CIRCLE
  5
372
  8
0
 10
146.0
 20
70.0
 30
0.0
 40
4.0
  0
ENDSEC
  0
EOF
