  0
SECTION
  2
HEADER
  9
$ACADVER
  1
AC1009
  9
$INSBASE
 10
0.0
 20
0.0
 30
0.0
  9
$EXTMIN
 10
30.993462081525301
 20
23.499756201053678
 30
-0.0015258207003583
  9
$EXTMAX
 10
156.00585977489339
 20
113.5086825402787
 30
0.0000000349246037
  9
$LIMMIN
 10
0.0
 20
0.0
  9
$LIMMAX
 10
187.5
 20
135.0
  9
$ORTHOMODE
 70
     1
  9
$REGENMODE
 70
     1
  9
$FILLMODE
 70
     1
  9
$QTEXTMODE
 70
     0
  9
$MIRRTEXT
 70
     0
  9
$DRAGMODE
 70
     2
  9
$LTSCALE
 40
5.0
  9
$OSMODE
 70
   231
  9
$ATTMODE
 70
     1
  9
$TEXTSIZE
 40
4.000000000000048
  9
$TRACEWID
 40
0.05
  9
$TEXTSTYLE
  7
STANDARD
  9
$CLAYER
  8
0
  9
$CELTYPE
  6
BYLAYER
  9
$CECOLOR
 62
   256
  9
$DIMSCALE
 40
0.5
  9
$DIMASZ
 40
3.0
  9
$DIMEXO
 40
2.0
  9
$DIMDLI
 40
0.38
  9
$DIMRND
 40
0.0
  9
$DIMDLE
 40
0.0
  9
$DIMEXE
 40
2.0
  9
$DIMTP
 40
0.0
  9
$DIMTM
 40
0.0
  9
$DIMTXT
 40
3.2000000000000002
  9
$DIMCEN
 40
0.09
  9
$DIMTSZ
 40
0.0
  9
$DIMTOL
 70
     0
  9
$DIMLIM
 70
     0
  9
$DIMTIH
 70
     0
  9
$DIMTOH
 70
     0
  9
$DIMSE1
 70
     0
  9
$DIMSE2
 70
     0
  9
$DIMTAD
 70
     1
  9
$DIMZIN
 70
     0
  9
$DIMBLK
  1

  9
$DIMASO
 70
     1
  9
$DIMSHO
 70
     0
  9
$DIMPOST
  1

  9
$DIMAPOST
  1

  9
$DIMALT
 70
     0
  9
$DIMALTD
 70
     2
  9
$DIMALTF
 40
25.399999999999999
  9
$DIMLFAC
 40
1.0
  9
$DIMTOFL
 70
     0
  9
$DIMTVP
 40
1.6000000000000001
  9
$DIMTIX
 70
     1
  9
$DIMSOXD
 70
     0
  9
$DIMSAH
 70
     0
  9
$DIMBLK1
  1

  9
$DIMBLK2
  1

  9
$DIMSTYLE
  2
STANDARD
  9
$DIMCLRD
 70
     0
  9
$DIMCLRE
 70
     0
  9
$DIMCLRT
 70
     0
  9
$DIMTFAC
 40
1.0
  9
$DIMGAP
 40
0.09
  9
$LUNITS
 70
     2
  9
$LUPREC
 70
     4
  9
$SKETCHINC
 40
0.1
  9
$FILLETRAD
 40
1.8999999999999999
  9
$AUNITS
 70
     0
  9
$AUPREC
 70
     0
  9
$MENU
  1
E:\r13\win\SUPPORT\ACAD
  9
$ELEVATION
 40
0.0
  9
$PELEVATION
 40
0.0
  9
$THICKNESS
 40
0.0
  9
$LIMCHECK
 70
     0
  9
$BLIPMODE
 70
     1
  9
$CHAMFERA
 40
0.0
  9
$CHAMFERB
 40
0.0
  9
$SKPOLY
 70
     0
  9
$TDCREATE
 40
2449839.7834490738
  9
$TDUPDATE
 40
2453236.8203823031
  9
$TDINDWG
 40
0.0001483102
  9
$TDUSRTIMER
 40
0.0001483102
  9
$USRTIMER
 70
     1
  9
$ANGBASE
 50
0.0
  9
$ANGDIR
 70
     0
  9
$PDMODE
 70
     0
  9
$PDSIZE
 40
0.0
  9
$PLINEWID
 40
0.0
  9
$COORDS
 70
     0
  9
$SPLFRAME
 70
     0
  9
$SPLINETYPE
 70
     6
  9
$SPLINESEGS
 70
     8
  9
$ATTDIA
 70
     0
  9
$ATTREQ
 70
     1
  9
$HANDLING
 70
-16383
  9
$HANDSEED
  5
433
  9
$SURFTAB1
 70
     6
  9
$SURFTAB2
 70
     6
  9
$SURFTYPE
 70
     6
  9
$SURFU
 70
     6
  9
$SURFV
 70
     6
  9
$UCSNAME
  2

  9
$UCSORG
 10
0.0
 20
0.0
 30
0.0
  9
$UCSXDIR
 10
1.0
 20
0.0
 30
0.0
  9
$UCSYDIR
 10
0.0
 20
1.0
 30
0.0
  9
$PUCSNAME
  2

  9
$PUCSORG
 10
0.0
 20
0.0
 30
0.0
  9
$PUCSXDIR
 10
1.0
 20
0.0
 30
0.0
  9
$PUCSYDIR
 10
0.0
 20
1.0
 30
0.0
  9
$USERI1
 70
     0
  9
$USERI2
 70
     1
  9
$USERI3
 70
     1
  9
$USERI4
 70
     0
  9
$USERI5
 70
     0
  9
$USERR1
 40
0.0
  9
$USERR2
 40
0.0
  9
$USERR3
 40
0.0
  9
$USERR4
 40
0.0
  9
$USERR5
 40
0.0
  9
$WORLDVIEW
 70
     1
  9
$SHADEDGE
 70
     3
  9
$SHADEDIF
 70
    70
  9
$TILEMODE
 70
     1
  9
$MAXACTVP
 70
    16
  9
$PLIMCHECK
 70
     0
  9
$PEXTMIN
 10
1.0000000000000000E+020
 20
1.0000000000000000E+020
 30
1.0000000000000000E+020
  9
$PEXTMAX
 10
-1.0000000000000000E+020
 20
-1.0000000000000000E+020
 30
-1.0000000000000000E+020
  9
$PLIMMIN
 10
0.0
 20
0.0
  9
$PLIMMAX
 10
12.0
 20
9.0
  9
$UNITMODE
 70
     0
  9
$VISRETAIN
 70
     0
  9
$PLINEGEN
 70
     0
  9
$PSLTSCALE
 70
     0
  0
ENDSEC
  0
SECTION
  2
TABLES
  0
TABLE
  2
VPORT
 70
     3
  0
VPORT
  2
*ACTIVE
 70
     0
 10
0.0
 20
0.0
 11
1.0
 21
1.0
 12
93.499660928209394
 22
68.50421937066622
 13
0.0
 23
0.0
 14
5.0
 24
5.0
 15
5.0
 25
5.0
 16
0.0
 26
0.0
 36
1.0
 17
0.0
 27
0.0
 37
0.0
 40
148.89621644741911
 41
0.9407114624505929
 42
50.0
 43
0.0
 44
0.0
 50
0.0
 51
0.0
 71
     0
 72
   500
 73
     1
 74
     0
 75
     0
 76
     0
 77
     0
 78
     2
  0
ENDTAB
  0
TABLE
  2
LTYPE
 70
     3
  0
LTYPE
  2
CONTINUOUS
 70
     0
  3
Solid Line
 72
    65
 73
     0
 40
0.0
  0
LTYPE
  2
CENTER
 70
     0
  3
____ _ ____ _ ____ _ ____ _ ____ _ ____ _ ____
 72
    65
 73
     4
 40
2.0
 49
1.25
 49
-0.25
 49
0.25
 49
-0.25
  0
LTYPE
  2
HIDDEN
 70
     0
  3
_ _ _ _ _ _ _ _ _ _ _ _ _ _ _ _ _ _ _ _ _ _ _
 72
    65
 73
     2
 40
0.375
 49
0.25
 49
-0.125
  0
ENDTAB
  0
TABLE
  2
LAYER
 70
     4
  0
LAYER
  2
0
 70
     0
 62
     7
  6
CONTINUOUS
  0
LAYER
  2
1
 70
     0
 62
     1
  6
CENTER
  0
LAYER
  2
3
 70
     0
 62
     3
  6
CONTINUOUS
  0
LAYER
  2
2
 70
     0
 62
     2
  6
HIDDEN
  0
ENDTAB
  0
TABLE
  2
STYLE
 70
     1
  0
STYLE
  2
STANDARD
 70
     0
 40
0.0
 41
1.0
 50
0.0
 71
     0
 42
4.000000000000048
  3
TXT
  4
BIGFONT
  0
ENDTAB
  0
TABLE
  2
VIEW
 70
     1
  0
VIEW
  2
ALL
 70
     0
 40
135.0
 10
110.4957983193277
 20
67.5
 41
0.0
 11
0.0
 21
0.0
 31
1.0
 12
0.0
 22
0.0
 32
0.0
 42
0.0
 43
0.0
 44
0.0
 50
0.0
 71
     0
  0
ENDTAB
  0
TABLE
  2
UCS
 70
     0
  0
ENDTAB
  0
TABLE
  2
APPID
 70
     1
  0
APPID
  2
ACAD
 70
     0
  0
ENDTAB
  0
TABLE
  2
DIMSTYLE
 70
     1
  0
DIMSTYLE
  2
STANDARD
 70
     0
  3

  4

  5

  6

  7

 40
1.0
 41
0.18
 42
0.0625
 43
0.38
 44
0.18
 45
0.0
 46
0.0
 47
0.0
 48
0.0
140
0.18
141
0.09
142
0.0
143
25.399999999999999
144
1.0
145
0.0
146
1.0
147
0.09
 71
     0
 72
     0
 73
     1
 74
     1
 75
     0
 76
     0
 77
     0
 78
     0
170
     0
171
     2
172
     0
173
     0
174
     0
175
     0
176
     0
177
     0
178
     0
  0
ENDTAB
  0
ENDSEC
  0
SECTION
  2
BLOCKS
  0
BLOCK
  8
0
  2
$MODEL_SPACE
 70
     0
 10
0.0
 20
0.0
 30
0.0
  3
$MODEL_SPACE
  1

  0
ENDBLK
  5
3DB
  8
0
  0
BLOCK
 67
     1
  8
0
  2
$PAPER_SPACE
 70
     0
 10
0.0
 20
0.0
 30
0.0
  3
$PAPER_SPACE
  1

  0
ENDBLK
  5
3D9
 67
     1
  8
0
  0
ENDSEC
  0
SECTION
  2
ENTITIES
  0
LINE
  5
36
  8
1
 10
104.5771105732166
 20
67.499999999999986
 30
0.0
 11
83.577110573216629
 21
67.5
 31
0.0
  0
LINE
  5
37
  8
1
 10
43.499999999999993
 20
55.0
 30
0.0
 11
43.499999999999993
 21
79.999999999999986
 31
0.0
  0
LINE
  5
38
  8
1
 10
31.00000000000006
 20
67.500000000000014
 30
0.0
 11
55.999999999999908
 21
67.499999999999986
 31
0.0
  0
LINE
  5
39
  8
0
 10
86.927110573216623
 20
77.5
 30
0.0
 11
95.227110573216635
 21
77.499999999999986
 31
0.0
  0
LINE
  5
3A
  8
0
 10
96.077110573216643
 20
76.649999999999991
 30
0.0
 11
96.077110573216615
 21
58.349999999999987
 31
0.0
  0
LINE
  5
3B
  8
0
 10
96.077110573216629
 20
73.499999999999986
 30
0.0
 11
100.92711057321659
 21
73.499999999999986
 31
0.0
  0
LINE
  5
3C
  8
0
 10
101.7771105732166
 20
72.649999999999991
 30
0.0
 11
101.7771105732166
 21
62.349999999999987
 31
0.0
  0
LINE
  5
3D
  8
0
 10
101.7771105732166
 20
70.999999999999986
 30
0.0
 11
102.0771105732166
 21
70.999999999999986
 31
0.0
  0
LINE
  5
3E
  8
0
 10
102.0771105732166
 20
70.999999999999986
 30
0.0
 11
102.0771105732166
 21
63.999999999999972
 31
0.0
  0
LINE
  5
3F
  8
0
 10
96.077110573216615
 20
61.499999999999972
 30
0.0
 11
100.92711057321659
 21
61.5
 31
0.0
  0
LINE
  5
40
  8
0
 10
95.227110573216635
 20
57.499999999999979
 30
0.0
 11
96.077110573216615
 21
58.349999999999973
 31
0.0
  0
LINE
  5
41
  8
0
 10
100.92711057321659
 20
61.5
 30
0.0
 11
101.7771105732166
 21
62.349999999999987
 31
0.0
  0
LINE
  5
42
  8
0
 10
101.7771105732166
 20
72.649999999999991
 30
0.0
 11
100.92711057321659
 21
73.499999999999986
 31
0.0
  0
LINE
  5
43
  8
0
 10
96.077110573216643
 20
76.649999999999991
 30
0.0
 11
95.227110573216635
 21
77.499999999999986
 31
0.0
  0
LINE
  5
44
  8
0
 10
86.077110573216629
 20
76.650000000000006
 30
0.0
 11
86.56175910126268
 21
77.134648528046057
 31
0.0
  0
LINE
  5
45
  8
0
 10
100.92711057321659
 20
73.499999999999986
 30
0.0
 11
100.92711057321659
 21
61.500000000000021
 31
0.0
  0
LINE
  5
46
  8
0
 10
95.227110573216635
 20
77.500000000000014
 30
0.0
 11
95.227110573216635
 21
57.5
 31
0.0
  0
LINE
  5
47
  8
2
 10
92.077110573216615
 20
64.999999999999972
 30
0.0
 11
92.077110573216643
 21
70.000000000000057
 31
0.0
  0
LINE
  5
48
  8
2
 10
101.7771105732166
 20
63.999999999999972
 30
0.0
 11
93.077110573216615
 21
63.999999999999972
 31
0.0
  0
LINE
  5
49
  8
2
 10
93.077110573216615
 20
63.999999999999972
 30
0.0
 11
92.077110573216615
 21
64.999999999999972
 31
0.0
  0
LINE
  5
4A
  8
2
 10
89.177110573216666
 20
73.199999999999989
 30
0.0
 11
89.177110573216638
 21
61.79999999999999
 31
0.0
  0
LINE
  5
4B
  8
2
 10
89.177110573216638
 20
61.79999999999999
 30
0.0
 11
88.677110573216623
 21
61.79999999999999
 31
0.0
  0
LINE
  5
4C
  8
2
 10
88.677110573216623
 20
61.79999999999999
 30
0.0
 11
88.677110573216623
 21
73.199999999999989
 31
0.0
  0
LINE
  5
4D
  8
2
 10
86.077110573216629
 20
59.5
 30
0.0
 11
88.677110573216623
 21
61.79999999999999
 31
0.0
  0
CIRCLE
  5
4E
  8
0
 10
43.499999999999993
 20
67.499999999999986
 30
0.0
 40
10.0
  0
CIRCLE
  5
4F
  8
0
 10
43.499999999999993
 20
67.499999999999986
 30
0.0
 40
8.0
  0
CIRCLE
  5
50
  8
0
 10
43.499999999999993
 20
67.499999999999986
 30
0.0
 40
5.7000000000000002
  0
ARC
  5
51
  8
0
 10
32.549999999998739
 20
67.500000000000014
 30
0.0
 40
1.25
 50
321.63840097099268
 51
38.361599029007301
  0
ARC
  5
52
  8
0
 10
33.634390896467373
 20
62.748973056662187
 30
0.0
 40
1.25
 50
347.3526866852784
 51
64.075884743293017
  0
ARC
  5
53
  8
0
 10
36.672786669646079
 20
58.938945266974088
 30
0.0
 40
1.25
 50
13.06697239956415
 51
89.790170457578725
  0
ARC
  5
54
  8
0
 10
41.063395773178087
 20
56.824539361607791
 30
0.0
 40
1.25
 50
38.781258113849859
 51
115.5044561718644
  0
ARC
  5
55
  8
0
 10
45.936604226821927
 20
56.824539361607769
 30
0.0
 40
1.25
 50
64.495543828135581
 51
141.2187418861501
  0
ARC
  5
56
  8
0
 10
50.327213330353892
 20
58.938945266974052
 30
0.0
 40
1.25
 50
90.209829542421275
 51
166.93302760043579
  0
ARC
  5
57
  8
0
 10
53.365609103532599
 20
62.748973056662159
 30
0.0
 40
1.25
 50
115.924115256707
 51
192.64731331472149
  0
ARC
  5
58
  8
0
 10
54.450000000001253
 20
67.499999999999986
 30
0.0
 40
1.25
 50
141.63840097099271
 51
218.36159902900721
  0
ARC
  5
59
  8
0
 10
53.365609103532577
 20
72.251026943337806
 30
0.0
 40
1.25
 50
167.3526866852784
 51
244.0758847432929
  0
ARC
  5
5A
  8
0
 10
50.327213330353928
 20
76.061054733025898
 30
0.0
 40
1.25
 50
193.06697239956409
 51
269.79017045757871
  0
ARC
  5
5B
  8
0
 10
45.936604226821927
 20
78.175460638392181
 30
0.0
 40
1.25
 50
218.78125811384979
 51
295.50445617186432
  0
ARC
  5
5C
  8
0
 10
41.063395773178122
 20
78.175460638392181
 30
0.0
 40
1.25
 50
244.49554382813551
 51
321.2187418861501
  0
ARC
  5
5D
  8
0
 10
36.672786669646079
 20
76.061054733025912
 30
0.0
 40
1.25
 50
270.20982954242118
 51
346.93302760043582
  0
ARC
  5
5E
  8
0
 10
33.634390896467373
 20
72.251026943337834
 30
0.0
 40
1.25
 50
295.92411525670701
 51
12.647313314721529
  0
CIRCLE
  5
5F
  8
0
 10
43.499999999999993
 20
67.499999999999986
 30
0.0
 40
9.1500000000000004
  0
LINE
  5
60
  8
0
 10
86.077110573216629
 20
58.350000000000001
 30
0.0
 11
86.077110573216629
 21
76.650000000000006
 31
0.0
  0
LINE
  5
61
  8
2
 10
101.6101105732164
 20
64.999999999999943
 30
0.0
 11
97.077110573216615
 21
64.999999999999943
 31
0.0
  0
LINE
  5
62
  8
2
 10
101.17711057321659
 20
65.432999999999737
 30
0.0
 11
95.077110573216615
 21
65.432999999999737
 31
0.0
  0
LINE
  5
63
  8
2
 10
95.077110573216572
 20
65.432999999999737
 30
0.0
 11
93.835131673686504
 21
67.5
 31
0.0
  0
LINE
  5
64
  8
2
 10
95.077110573216615
 20
65.432999999999737
 30
0.0
 11
95.077110573216615
 21
69.567000000000249
 31
0.0
  0
LINE
  5
65
  8
2
 10
97.077110573216615
 20
65.000000000000114
 30
0.0
 11
96.327132573539686
 21
65.432999999999907
 31
0.0
  0
LINE
  5
66
  8
2
 10
102.0771105732166
 20
64.532999999999703
 30
0.0
 11
101.17711057321659
 21
65.432999999999737
 31
0.0
  0
LINE
  5
67
  8
2
 10
101.17711057321659
 20
65.432999999999737
 30
0.0
 11
101.1771105732165
 21
69.567000000000249
 31
0.0
  0
LINE
  5
68
  8
2
 10
97.077110573216913
 20
64.999999999999915
 30
0.0
 11
97.077110573216913
 21
70.000000000000028
 31
0.0
  0
LINE
  5
72
  8
0
 10
101.7771105732166
 20
63.99999999999995
 30
0.0
 11
102.0771105732166
 21
63.99999999999995
 31
0.0
  0
LINE
  5
73
  8
2
 10
86.077110573216629
 20
75.5
 30
0.0
 11
88.677110573216623
 21
73.200000000000003
 31
0.0
  0
LINE
  5
74
  8
2
 10
89.177110573216638
 20
73.200000000000003
 30
0.0
 11
88.677110573216623
 21
73.200000000000003
 31
0.0
  0
LINE
  5
75
  8
2
 10
93.077110573216615
 20
71.000000000000028
 30
0.0
 11
92.077110573216615
 21
70.000000000000028
 31
0.0
  0
LINE
  5
76
  8
2
 10
101.7771105732166
 20
71.0
 30
0.0
 11
93.077110573216615
 21
71.000000000000028
 31
0.0
  0
LINE
  5
77
  8
2
 10
101.17711057321659
 20
69.567000000000235
 30
0.0
 11
95.077110573216615
 21
69.567000000000235
 31
0.0
  0
LINE
  5
78
  8
2
 10
95.077110573216572
 20
69.567000000000235
 30
0.0
 11
93.835131673686504
 21
67.5
 31
0.0
  0
LINE
  5
79
  8
2
 10
97.077110573216615
 20
69.999999999999844
 30
0.0
 11
96.327132573539686
 21
69.567000000000064
 31
0.0
  0
LINE
  5
7A
  8
2
 10
101.6101105732164
 20
70.000000000000028
 30
0.0
 11
97.077110573216615
 21
70.000000000000028
 31
0.0
  0
LINE
  5
7B
  8
2
 10
102.0771105732166
 20
70.467000000000269
 30
0.0
 11
101.17711057321659
 21
69.567000000000235
 31
0.0
  0
LINE
  5
7C
  8
0
 10
86.92711057321668
 20
32.037824385822731
 30
0.0
 11
86.927110573216666
 21
34.962175614177269
 31
0.0
  0
LINE
  5
7D
  8
0
 10
94.777110573216319
 20
23.499999999999989
 30
0.0
 11
95.227110573216677
 21
23.499999999999989
 31
0.0
  0
LINE
  5
7E
  8
0
 10
86.077110573216643
 20
24.349999999999991
 30
0.0
 11
86.52711057321676
 21
23.899999999999888
 31
0.0
  0
LINE
  5
7F
  8
0
 10
86.927110573216666
 20
23.53013698630124
 30
0.0
 11
86.927110573216666
 21
24.180866352850991
 31
0.0
  0
LINE
  5
80
  8
0
 10
86.927110573216666
 20
32.037824385822731
 30
0.0
 11
94.414457092797832
 21
32.037824385822709
 31
0.0
  0
LINE
  5
81
  8
0
 10
86.927110573216666
 20
30.525169155727749
 30
0.0
 11
94.377111526890886
 21
30.525169155727749
 31
0.0
  0
LINE
  5
82
  8
0
 10
86.927110573216666
 20
27.890419740168131
 30
0.0
 11
94.420493412710599
 21
27.890419740168131
 31
0.0
  0
LINE
  5
83
  8
0
 10
86.927110573216666
 20
26.677364429892389
 30
0.0
 11
94.377110573216527
 21
26.6773644298924
 31
0.0
  0
LINE
  5
84
  8
0
 10
86.927110573216666
 20
24.8540612619603
 30
0.0
 11
94.443141534766525
 21
24.85406126196029
 31
0.0
  0
LINE
  5
85
  8
0
 10
86.927110573216666
 20
24.18086635285098
 30
0.0
 11
94.377111247566077
 21
24.180866352850991
 31
0.0
  0
LINE
  5
86
  8
0
 10
86.927110573216666
 20
23.530136986301251
 30
0.0
 11
94.377110293893097
 21
23.530136986301251
 31
0.0
  0
POLYLINE
  5
87
  8
0
 66
     1
 10
0.0
 20
0.0
 30
0.0
  0
VERTEX
  5
88
  8
0
 10
86.52711057321676
 20
31.341546940623449
 30
0.0
 42
-0.0584700367089559
 50
89.999999999999986
  0
VERTEX
  5
89
  8
0
 10
86.559925366803668
 20
31.621199648315908
 30
0.0
 42
-0.0720824478963223
 50
89.999999999999986
  0
VERTEX
  5
8A
  8
0
 10
86.644267860742147
 20
31.833889443711112
 30
0.0
 42
-0.1065647653260566
 70
     2
 50
60.123337294362067
  0
VERTEX
  5
8B
  8
0
 10
86.796346632059752
 20
32.0025402224949
 30
0.0
 42
-0.182558189136383
 50
89.999999999999986
  0
VERTEX
  5
8C
  8
0
 10
86.92711057321668
 20
32.037824385822731
 30
0.0
 42
-0.1574556497505599
 50
89.999999999999986
  0
SEQEND
  5
8D
  8
0
  0
POLYLINE
  5
8E
  8
0
 66
     1
 10
0.0
 20
0.0
 30
0.0
  0
VERTEX
  5
8F
  8
0
 10
86.927110573216638
 20
30.525169155727731
 30
0.0
 42
-0.1772752497286819
 50
89.999999999999986
  0
VERTEX
  5
90
  8
0
 10
86.792218011939724
 20
30.574547159228061
 30
0.0
 42
-0.1037184546977616
 50
89.999999999999986
  0
VERTEX
  5
91
  8
0
 10
86.64426786074209
 20
30.764280672913639
 30
0.0
 42
-0.0639265016304787
 70
     2
 50
116.10343264194771
  0
VERTEX
  5
92
  8
0
 10
86.560305884439757
 20
31.01108749791484
 30
0.0
 42
-0.0500999315019023
 50
89.999999999999986
  0
VERTEX
  5
93
  8
0
 10
86.52711057321676
 20
31.341546940623449
 30
0.0
 42
-0.0500999315019139
 50
89.999999999999986
  0
SEQEND
  5
94
  8
0
  0
POLYLINE
  5
95
  8
0
 66
     1
 10
0.0
 20
0.0
 30
0.0
  0
VERTEX
  5
96
  8
0
 10
86.52711057321676
 20
27.452148921969521
 30
0.0
 42
-0.0906057889765221
 50
89.999999999999986
  0
VERTEX
  5
97
  8
0
 10
86.558085253840858
 20
27.621676703523811
 30
0.0
 42
-0.0948678514357048
 50
89.999999999999986
  0
VERTEX
  5
98
  8
0
 10
86.644267860742104
 20
27.762053189513932
 30
0.0
 42
-0.1015910306527909
 70
     2
 50
47.613993877727957
  0
VERTEX
  5
99
  8
0
 10
86.786654976635617
 20
27.865550280168961
 30
0.0
 42
-0.1260613613634058
 50
89.999999999999986
  0
VERTEX
  5
9A
  8
0
 10
86.927110573216666
 20
27.890419740166461
 30
0.0
 42
-0.106916177055327
 50
89.999999999999986
  0
SEQEND
  5
9B
  8
0
  0
POLYLINE
  5
9C
  8
0
 66
     1
 10
0.0
 20
0.0
 30
0.0
  0
VERTEX
  5
9D
  8
0
 10
86.927110573216666
 20
26.677364429892389
 30
0.0
 42
-0.1706664605526735
 50
89.999999999999986
  0
VERTEX
  5
9E
  8
0
 10
86.790649039025666
 20
26.72534064927363
 30
0.0
 42
-0.10489829538605
 50
89.999999999999986
  0
VERTEX
  5
9F
  8
0
 10
86.64426786074354
 20
26.904293553663599
 30
0.0
 42
-0.066574804167348
 70
     2
 50
117.3060670838679
  0
VERTEX
  5
A0
  8
0
 10
86.560191967734227
 20
27.139258328940681
 30
0.0
 42
-0.0527172412625307
 50
89.999999999999986
  0
VERTEX
  5
A1
  8
0
 10
86.527110573218778
 20
27.452148921969521
 30
0.0
 42
-0.0527172412625443
 50
89.999999999999986
  0
SEQEND
  5
A2
  8
0
  0
POLYLINE
  5
A3
  8
0
 66
     1
 10
0.0
 20
0.0
 30
0.0
  0
VERTEX
  5
A4
  8
0
 10
86.527110573216746
 20
24.760601981345399
 30
0.0
 50
89.999999999999986
  0
VERTEX
  5
A5
  8
0
 10
86.54256152815033
 20
24.787057074516081
 30
0.0
 42
-0.0711335724020575
 50
89.999999999999986
  0
VERTEX
  5
A6
  8
0
 10
86.644267860742104
 20
24.826687672433021
 30
0.0
 42
-0.033274958700216
 70
     2
 50
13.1511302364021
  0
VERTEX
  5
A7
  8
0
 10
86.780022468572056
 20
24.849014470032149
 30
0.0
 42
-0.0311009623782723
 50
89.999999999999986
  0
VERTEX
  5
A8
  8
0
 10
86.927110573216666
 20
24.854061261960322
 30
0.0
 42
-0.02412462334816
 50
89.999999999999986
  0
SEQEND
  5
A9
  8
0
  0
POLYLINE
  5
AA
  8
0
 66
     1
 10
0.0
 20
0.0
 30
0.0
  0
VERTEX
  5
AB
  8
0
 10
86.927110573216666
 20
24.18086635285098
 30
0.0
 42
-0.1359958379716637
 50
89.999999999999986
  0
VERTEX
  5
AC
  8
0
 10
86.782467245903206
 20
24.22094946574072
 30
0.0
 42
-0.1069468256299952
 50
89.999999999999986
  0
VERTEX
  5
AD
  8
0
 10
86.644267860742104
 20
24.35066698714154
 30
0.0
 42
-0.0815773277484804
 70
     2
 50
124.6044982375907
  0
VERTEX
  5
AE
  8
0
 10
86.559344976902977
 20
24.5305089082762
 30
0.0
 42
-0.069706093800654
 50
89.999999999999986
  0
VERTEX
  5
AF
  8
0
 10
86.527110573216746
 20
24.760601981345399
 30
0.0
 42
-0.0697060938006716
 50
89.999999999999986
  0
SEQEND
  5
B0
  8
0
  0
POLYLINE
  5
B1
  8
0
 66
     1
 10
0.0
 20
0.0
 30
0.0
  0
VERTEX
  5
B2
  8
0
 10
86.52711057321676
 20
23.899999999999871
 30
0.0
 42
-0.0916984344567795
 50
89.999999999999986
  0
VERTEX
  5
B3
  8
0
 10
86.68160961920033
 20
23.871425083591891
 30
0.0
 42
-0.0954133203087169
 50
89.999999999999986
  0
VERTEX
  5
B4
  8
0
 10
86.809953285691293
 20
23.791669631397632
 30
0.0
 42
-0.1011842983975874
 70
     2
 50
317.24175066319151
  0
VERTEX
  5
B5
  8
0
 10
86.90437732034151
 20
23.66019793672745
 30
0.0
 42
-0.1246996945258645
 50
89.999999999999986
  0
VERTEX
  5
B6
  8
0
 10
86.927110573207614
 20
23.530136986301251
 30
0.0
 42
-0.1056807497133024
 50
89.999999999999986
  0
SEQEND
  5
B7
  8
0
  0
LINE
  5
B8
  8
0
 10
86.927110573216666
 20
27.890419740168142
 30
0.0
 11
86.927110573216666
 21
30.525169155727731
 31
0.0
  0
LINE
  5
B9
  8
0
 10
86.927110573216666
 20
24.8540612619603
 30
0.0
 11
86.927110573216666
 21
26.677364429892389
 31
0.0
  0
POLYLINE
  5
BA
  8
0
 66
     1
 10
0.0
 20
0.0
 30
0.0
  0
VERTEX
  5
BB
  8
0
 10
94.377110573216527
 20
24.18086635285098
 30
0.0
 42
0.1359958379716637
 50
89.999999999999986
  0
VERTEX
  5
BC
  8
0
 10
94.521753900529959
 20
24.22094946574072
 30
0.0
 42
0.1069468256299952
 50
89.999999999999986
  0
VERTEX
  5
BD
  8
0
 10
94.659953285691088
 20
24.35066698714154
 30
0.0
 42
0.0815773277484804
 70
     2
 50
55.395501762409282
  0
VERTEX
  5
BE
  8
0
 10
94.744876169530215
 20
24.5305089082762
 30
0.0
 42
0.069706093800654
 50
89.999999999999986
  0
VERTEX
  5
BF
  8
0
 10
94.777110573216447
 20
24.760601981345399
 30
0.0
 42
0.0697060938006716
 50
89.999999999999986
  0
SEQEND
  5
C0
  8
0
  0
POLYLINE
  5
C1
  8
0
 66
     1
 10
0.0
 20
0.0
 30
0.0
  0
VERTEX
  5
C2
  8
0
 10
94.777110573216433
 20
24.760601981345399
 30
0.0
 50
89.999999999999986
  0
VERTEX
  5
C3
  8
0
 10
94.761659618282863
 20
24.787057074516081
 30
0.0
 42
0.0711335724020575
 50
89.999999999999986
  0
VERTEX
  5
C4
  8
0
 10
94.659953285691074
 20
24.826687672433021
 30
0.0
 42
0.033274958700216
 70
     2
 50
166.84886976359789
  0
VERTEX
  5
C5
  8
0
 10
94.524198677861122
 20
24.849014470032149
 30
0.0
 42
0.0311009623782723
 50
89.999999999999986
  0
VERTEX
  5
C6
  8
0
 10
94.377110573216527
 20
24.854061261960322
 30
0.0
 42
0.02412462334816
 50
89.999999999999986
  0
SEQEND
  5
C7
  8
0
  0
POLYLINE
  5
C8
  8
0
 66
     1
 10
0.0
 20
0.0
 30
0.0
  0
VERTEX
  5
C9
  8
0
 10
94.377110573216527
 20
26.677364429892389
 30
0.0
 42
0.1706664605526735
 50
89.999999999999986
  0
VERTEX
  5
CA
  8
0
 10
94.513572107407498
 20
26.72534064927363
 30
0.0
 42
0.10489829538605
 50
89.999999999999986
  0
VERTEX
  5
CB
  8
0
 10
94.659953285689625
 20
26.904293553663599
 30
0.0
 42
0.066574804167348
 70
     2
 50
62.693932916132141
  0
VERTEX
  5
CC
  8
0
 10
94.744029178698966
 20
27.139258328940681
 30
0.0
 42
0.0527172412625307
 50
89.999999999999986
  0
VERTEX
  5
CD
  8
0
 10
94.777110573214415
 20
27.452148921969521
 30
0.0
 42
0.0527172412625443
 50
89.999999999999986
  0
SEQEND
  5
CE
  8
0
  0
POLYLINE
  5
CF
  8
0
 66
     1
 10
0.0
 20
0.0
 30
0.0
  0
VERTEX
  5
D0
  8
0
 10
94.777110573216433
 20
27.452148921969521
 30
0.0
 42
0.0906057889765221
 50
89.999999999999986
  0
VERTEX
  5
D1
  8
0
 10
94.746135892592335
 20
27.621676703523811
 30
0.0
 42
0.0948678514357048
 50
89.999999999999986
  0
VERTEX
  5
D2
  8
0
 10
94.659953285691074
 20
27.762053189513932
 30
0.0
 42
0.1015910306527909
 70
     2
 50
132.38600612227211
  0
VERTEX
  5
D3
  8
0
 10
94.517566169797547
 20
27.865550280168961
 30
0.0
 42
0.1260613613634058
 50
89.999999999999986
  0
VERTEX
  5
D4
  8
0
 10
94.377110573216527
 20
27.890419740166461
 30
0.0
 42
0.106916177055327
 50
89.999999999999986
  0
SEQEND
  5
D5
  8
0
  0
POLYLINE
  5
D6
  8
0
 66
     1
 10
0.0
 20
0.0
 30
0.0
  0
VERTEX
  5
D7
  8
0
 10
94.377110573216555
 20
30.525169155727731
 30
0.0
 42
0.1772752497286819
 50
89.999999999999986
  0
VERTEX
  5
D8
  8
0
 10
94.512003134493455
 20
30.574547159228061
 30
0.0
 42
0.1037184546977616
 50
89.999999999999986
  0
VERTEX
  5
D9
  8
0
 10
94.659953285691088
 20
30.764280672913639
 30
0.0
 42
0.0639265016304787
 70
     2
 50
63.896567358052259
  0
VERTEX
  5
DA
  8
0
 10
94.743915261993436
 20
31.01108749791484
 30
0.0
 42
0.0500999315019023
 50
89.999999999999986
  0
VERTEX
  5
DB
  8
0
 10
94.777110573216405
 20
31.341546940623449
 30
0.0
 42
0.0500999315019139
 50
89.999999999999986
  0
SEQEND
  5
DC
  8
0
  0
POLYLINE
  5
DD
  8
0
 66
     1
 10
0.0
 20
0.0
 30
0.0
  0
VERTEX
  5
DE
  8
0
 10
94.777110573216405
 20
31.341546940623449
 30
0.0
 42
0.0584700367089559
 50
89.999999999999986
  0
VERTEX
  5
DF
  8
0
 10
94.74429577962951
 20
31.621199648315908
 30
0.0
 42
0.0720824478963223
 50
89.999999999999986
  0
VERTEX
  5
E0
  8
0
 10
94.659953285691046
 20
31.833889443711112
 30
0.0
 42
0.1065647653260566
 70
     2
 50
119.8766627056379
  0
VERTEX
  5
E1
  8
0
 10
94.507874514373427
 20
32.0025402224949
 30
0.0
 42
0.182558189136383
 50
89.999999999999986
  0
VERTEX
  5
E2
  8
0
 10
94.377110573216484
 20
32.037824385822731
 30
0.0
 42
0.1574556497505599
 50
89.999999999999986
  0
SEQEND
  5
E3
  8
0
  0
POLYLINE
  5
E4
  8
0
 66
     1
 10
0.0
 20
0.0
 30
0.0
  0
VERTEX
  5
E5
  8
0
 10
94.377111247566077
 20
23.53013698630124
 30
0.0
 42
-0.0077996076981731
 50
89.999999999999986
  0
VERTEX
  5
E6
  8
0
 10
94.542699218422072
 20
23.527553786730799
 30
0.0
 42
-0.0110011230913692
 50
89.999999999999986
  0
VERTEX
  5
E7
  8
0
 10
94.659953483203495
 20
23.521310067378199
 30
0.0
 42
-0.0261873620692712
 70
     2
 50
355.691327846984
  0
VERTEX
  5
E8
  8
0
 10
94.773170809079275
 20
23.50678884426431
 30
0.0
 50
89.999999999999986
  0
VERTEX
  5
E9
  8
0
 10
94.777110573216333
 20
23.499999999999989
 30
0.0
 50
89.999999999999986
  0
SEQEND
  5
EA
  8
0
  0
POLYLINE
  5
EB
  8
0
 66
     1
 10
0.0
 20
0.0
 30
0.0
  0
VERTEX
  5
EC
  8
0
 10
94.377111247566077
 20
43.469863013698749
 30
0.0
 42
0.0077996076981731
 50
89.999999999999986
  0
VERTEX
  5
ED
  8
0
 10
94.542699218422086
 20
43.47244621326918
 30
0.0
 42
0.0110011230913692
 50
89.999999999999986
  0
VERTEX
  5
EE
  8
0
 10
94.659953483203509
 20
43.478689932621783
 30
0.0
 42
0.0261873620692712
 70
     2
 50
4.3086721530160412
  0
VERTEX
  5
EF
  8
0
 10
94.773170809079303
 20
43.493211155735672
 30
0.0
 50
4.3086721530160412
  0
VERTEX
  5
F0
  8
0
 10
94.777110573216333
 20
43.499999999999993
 30
0.0
 50
89.999999999999986
  0
SEQEND
  5
F1
  8
0
  0
POLYLINE
  5
F2
  8
0
 66
     1
 10
0.0
 20
0.0
 30
0.0
  0
VERTEX
  5
F3
  8
0
 10
94.777110573216405
 20
35.658453059376541
 30
0.0
 42
-0.0584700367089559
 50
89.999999999999986
  0
VERTEX
  5
F4
  8
0
 10
94.74429577962951
 20
35.378800351684092
 30
0.0
 42
-0.0720824478963223
 50
89.999999999999986
  0
VERTEX
  5
F5
  8
0
 10
94.659953285691046
 20
35.166110556288878
 30
0.0
 42
-0.1065647653260566
 70
     2
 50
240.12333729436199
  0
VERTEX
  5
F6
  8
0
 10
94.507874514373427
 20
34.9974597775051
 30
0.0
 42
-0.182558189136383
 50
89.999999999999986
  0
VERTEX
  5
F7
  8
0
 10
94.377110573216484
 20
34.962175614177269
 30
0.0
 42
-0.1574556497505599
 50
89.999999999999986
  0
SEQEND
  5
F8
  8
0
  0
POLYLINE
  5
F9
  8
0
 66
     1
 10
0.0
 20
0.0
 30
0.0
  0
VERTEX
  5
FA
  8
0
 10
94.377110573216555
 20
36.474830844272262
 30
0.0
 42
-0.1772752497286819
 50
89.999999999999986
  0
VERTEX
  5
FB
  8
0
 10
94.512003134493455
 20
36.425452840771932
 30
0.0
 42
-0.1037184546977616
 50
89.999999999999986
  0
VERTEX
  5
FC
  8
0
 10
94.659953285691088
 20
36.23571932708635
 30
0.0
 42
-0.0639265016304787
 70
     2
 50
296.10343264194768
  0
VERTEX
  5
FD
  8
0
 10
94.743915261993436
 20
35.988912502085149
 30
0.0
 42
-0.0500999315019023
 50
89.999999999999986
  0
VERTEX
  5
FE
  8
0
 10
94.777110573216405
 20
35.658453059376541
 30
0.0
 42
-0.0500999315019139
 50
89.999999999999986
  0
SEQEND
  5
FF
  8
0
  0
POLYLINE
  5
100
  8
0
 66
     1
 10
0.0
 20
0.0
 30
0.0
  0
VERTEX
  5
101
  8
0
 10
94.777110573216433
 20
39.547851078030469
 30
0.0
 42
-0.0906057889765221
 50
89.999999999999986
  0
VERTEX
  5
102
  8
0
 10
94.746135892592335
 20
39.378323296476168
 30
0.0
 42
-0.0948678514357048
 50
89.999999999999986
  0
VERTEX
  5
103
  8
0
 10
94.659953285691074
 20
39.237946810486051
 30
0.0
 42
-0.1015910306527909
 70
     2
 50
227.61399387772789
  0
VERTEX
  5
104
  8
0
 10
94.517566169797547
 20
39.134449719831032
 30
0.0
 42
-0.1260613613634058
 50
89.999999999999986
  0
VERTEX
  5
105
  8
0
 10
94.377110573216527
 20
39.109580259833528
 30
0.0
 42
-0.106916177055327
 50
89.999999999999986
  0
SEQEND
  5
106
  8
0
  0
POLYLINE
  5
107
  8
0
 66
     1
 10
0.0
 20
0.0
 30
0.0
  0
VERTEX
  5
108
  8
0
 10
94.377110573216527
 20
40.3226355701076
 30
0.0
 42
-0.1706664605526735
 50
89.999999999999986
  0
VERTEX
  5
109
  8
0
 10
94.513572107407526
 20
40.27465935072636
 30
0.0
 42
-0.10489829538605
 50
89.999999999999986
  0
VERTEX
  5
10A
  8
0
 10
94.659953285689625
 20
40.095706446336379
 30
0.0
 42
-0.066574804167348
 70
     2
 50
297.30606708386779
  0
VERTEX
  5
10B
  8
0
 10
94.744029178698966
 20
39.860741671059309
 30
0.0
 42
-0.0527172412625307
 50
89.999999999999986
  0
VERTEX
  5
10C
  8
0
 10
94.777110573214415
 20
39.547851078030469
 30
0.0
 42
-0.0527172412625443
 50
89.999999999999986
  0
SEQEND
  5
10D
  8
0
  0
POLYLINE
  5
10E
  8
0
 66
     1
 10
0.0
 20
0.0
 30
0.0
  0
VERTEX
  5
10F
  8
0
 10
94.777110573216447
 20
42.23939801865459
 30
0.0
 50
89.999999999999986
  0
VERTEX
  5
110
  8
0
 10
94.761659618282863
 20
42.212942925483908
 30
0.0
 42
-0.0711335724020575
 50
89.999999999999986
  0
VERTEX
  5
111
  8
0
 10
94.659953285691088
 20
42.173312327566968
 30
0.0
 42
-0.033274958700216
 70
     2
 50
193.15113023640211
  0
VERTEX
  5
112
  8
0
 10
94.524198677861136
 20
42.150985529967834
 30
0.0
 42
-0.0311009623782723
 50
89.999999999999986
  0
VERTEX
  5
113
  8
0
 10
94.377110573216527
 20
42.145938738039661
 30
0.0
 42
-0.02412462334816
 50
89.999999999999986
  0
SEQEND
  5
114
  8
0
  0
POLYLINE
  5
115
  8
0
 66
     1
 10
0.0
 20
0.0
 30
0.0
  0
VERTEX
  5
116
  8
0
 10
94.377110573216527
 20
42.819133647149009
 30
0.0
 42
-0.1359958379716637
 50
89.999999999999986
  0
VERTEX
  5
117
  8
0
 10
94.521753900529987
 20
42.779050534259262
 30
0.0
 42
-0.1069468256299952
 50
89.999999999999986
  0
VERTEX
  5
118
  8
0
 10
94.659953285691088
 20
42.649333012858442
 30
0.0
 42
-0.0815773277484804
 70
     2
 50
304.60449823759069
  0
VERTEX
  5
119
  8
0
 10
94.744876169530215
 20
42.469491091723789
 30
0.0
 42
-0.069706093800654
 50
89.999999999999986
  0
VERTEX
  5
11A
  8
0
 10
94.777110573216447
 20
42.23939801865459
 30
0.0
 42
-0.0697060938006716
 50
89.999999999999986
  0
SEQEND
  5
11B
  8
0
  0
LINE
  5
11C
  8
0
 10
86.927110573216666
 20
42.145938738039682
 30
0.0
 11
86.927110573216666
 21
40.3226355701076
 31
0.0
  0
LINE
  5
11D
  8
0
 10
86.927110573216666
 20
39.109580259831851
 30
0.0
 11
86.927110573216666
 21
36.474830844272262
 31
0.0
  0
POLYLINE
  5
11E
  8
0
 66
     1
 10
0.0
 20
0.0
 30
0.0
  0
VERTEX
  5
11F
  8
0
 10
86.52711057321676
 20
43.100000000000122
 30
0.0
 42
0.0916984344567795
 50
89.999999999999986
  0
VERTEX
  5
120
  8
0
 10
86.68160961920033
 20
43.128574916408091
 30
0.0
 42
0.0954133203087169
 50
89.999999999999986
  0
VERTEX
  5
121
  8
0
 10
86.809953285691293
 20
43.208330368602347
 30
0.0
 42
0.1011842983975874
 70
     2
 50
42.758249336808582
  0
VERTEX
  5
122
  8
0
 10
86.90437732034151
 20
43.339802063272529
 30
0.0
 42
0.1246996945258645
 50
42.758249336808582
  0
VERTEX
  5
123
  8
0
 10
86.927110573207614
 20
43.469863013698728
 30
0.0
 42
0.1056807497133024
 50
89.999999999999986
  0
SEQEND
  5
124
  8
0
  0
POLYLINE
  5
125
  8
0
 66
     1
 10
0.0
 20
0.0
 30
0.0
  0
VERTEX
  5
126
  8
0
 10
86.927110573216666
 20
42.819133647149009
 30
0.0
 42
0.1359958379716637
 50
89.999999999999986
  0
VERTEX
  5
127
  8
0
 10
86.782467245903206
 20
42.779050534259262
 30
0.0
 42
0.1069468256299952
 50
89.999999999999986
  0
VERTEX
  5
128
  8
0
 10
86.644267860742104
 20
42.649333012858442
 30
0.0
 42
0.0815773277484804
 70
     2
 50
235.39550176240931
  0
VERTEX
  5
129
  8
0
 10
86.559344976902977
 20
42.469491091723789
 30
0.0
 42
0.069706093800654
 50
235.39550176240931
  0
VERTEX
  5
12A
  8
0
 10
86.527110573216746
 20
42.23939801865459
 30
0.0
 42
0.0697060938006716
 50
89.999999999999986
  0
SEQEND
  5
12B
  8
0
  0
POLYLINE
  5
12C
  8
0
 66
     1
 10
0.0
 20
0.0
 30
0.0
  0
VERTEX
  5
12D
  8
0
 10
86.527110573216746
 20
42.23939801865459
 30
0.0
 50
89.999999999999986
  0
VERTEX
  5
12E
  8
0
 10
86.54256152815033
 20
42.212942925483908
 30
0.0
 42
0.0711335724020575
 50
89.999999999999986
  0
VERTEX
  5
12F
  8
0
 10
86.644267860742104
 20
42.173312327566968
 30
0.0
 42
0.033274958700216
 70
     2
 50
346.8488697635978
  0
VERTEX
  5
130
  8
0
 10
86.780022468572056
 20
42.150985529967834
 30
0.0
 42
0.0311009623782723
 50
346.8488697635978
  0
VERTEX
  5
131
  8
0
 10
86.927110573216666
 20
42.145938738039661
 30
0.0
 42
0.02412462334816
 50
89.999999999999986
  0
SEQEND
  5
132
  8
0
  0
POLYLINE
  5
133
  8
0
 66
     1
 10
0.0
 20
0.0
 30
0.0
  0
VERTEX
  5
134
  8
0
 10
86.927110573216666
 20
40.3226355701076
 30
0.0
 42
0.1706664605526735
 50
89.999999999999986
  0
VERTEX
  5
135
  8
0
 10
86.790649039025666
 20
40.27465935072636
 30
0.0
 42
0.10489829538605
 50
89.999999999999986
  0
VERTEX
  5
136
  8
0
 10
86.64426786074354
 20
40.095706446336379
 30
0.0
 42
0.066574804167348
 70
     2
 50
242.6939329161321
  0
VERTEX
  5
137
  8
0
 10
86.560191967734227
 20
39.860741671059309
 30
0.0
 42
0.0527172412625307
 50
242.6939329161321
  0
VERTEX
  5
138
  8
0
 10
86.527110573218778
 20
39.547851078030469
 30
0.0
 42
0.0527172412625443
 50
89.999999999999986
  0
SEQEND
  5
139
  8
0
  0
POLYLINE
  5
13A
  8
0
 66
     1
 10
0.0
 20
0.0
 30
0.0
  0
VERTEX
  5
13B
  8
0
 10
86.52711057321676
 20
39.547851078030469
 30
0.0
 42
0.0906057889765221
 50
89.999999999999986
  0
VERTEX
  5
13C
  8
0
 10
86.558085253840858
 20
39.378323296476168
 30
0.0
 42
0.0948678514357048
 50
89.999999999999986
  0
VERTEX
  5
13D
  8
0
 10
86.644267860742104
 20
39.237946810486051
 30
0.0
 42
0.1015910306527909
 70
     2
 50
312.38600612227208
  0
VERTEX
  5
13E
  8
0
 10
86.786654976635617
 20
39.134449719831032
 30
0.0
 42
0.1260613613634058
 50
312.38600612227208
  0
VERTEX
  5
13F
  8
0
 10
86.927110573216666
 20
39.109580259833528
 30
0.0
 42
0.106916177055327
 50
89.999999999999986
  0
SEQEND
  5
140
  8
0
  0
POLYLINE
  5
141
  8
0
 66
     1
 10
0.0
 20
0.0
 30
0.0
  0
VERTEX
  5
142
  8
0
 10
86.927110573216638
 20
36.474830844272262
 30
0.0
 42
0.1772752497286819
 50
89.999999999999986
  0
VERTEX
  5
143
  8
0
 10
86.792218011939724
 20
36.425452840771932
 30
0.0
 42
0.1037184546977616
 50
89.999999999999986
  0
VERTEX
  5
144
  8
0
 10
86.64426786074209
 20
36.23571932708635
 30
0.0
 42
0.0639265016304787
 70
     2
 50
243.89656735805221
  0
VERTEX
  5
145
  8
0
 10
86.560305884439757
 20
35.988912502085149
 30
0.0
 42
0.0500999315019023
 50
243.89656735805221
  0
VERTEX
  5
146
  8
0
 10
86.52711057321676
 20
35.658453059376541
 30
0.0
 42
0.0500999315019139
 50
89.999999999999986
  0
SEQEND
  5
147
  8
0
  0
POLYLINE
  5
148
  8
0
 66
     1
 10
0.0
 20
0.0
 30
0.0
  0
VERTEX
  5
149
  8
0
 10
86.52711057321676
 20
35.658453059376541
 30
0.0
 42
0.0584700367089559
 50
89.999999999999986
  0
VERTEX
  5
14A
  8
0
 10
86.559925366803668
 20
35.378800351684092
 30
0.0
 42
0.0720824478963223
 50
89.999999999999986
  0
VERTEX
  5
14B
  8
0
 10
86.644267860742147
 20
35.166110556288878
 30
0.0
 42
0.1065647653260566
 70
     2
 50
299.8766627056379
  0
VERTEX
  5
14C
  8
0
 10
86.796346632059752
 20
34.9974597775051
 30
0.0
 42
0.182558189136383
 50
299.8766627056379
  0
VERTEX
  5
14D
  8
0
 10
86.92711057321668
 20
34.962175614177269
 30
0.0
 42
0.1574556497505599
 50
89.999999999999986
  0
SEQEND
  5
14E
  8
0
  0
LINE
  5
14F
  8
0
 10
86.927110573216666
 20
43.469863013698728
 30
0.0
 11
94.377110293893097
 21
43.469863013698728
 31
0.0
  0
LINE
  5
150
  8
0
 10
86.927110573216666
 20
42.819133647149009
 30
0.0
 11
94.377111247566077
 21
42.819133647148988
 31
0.0
  0
LINE
  5
151
  8
0
 10
86.927110573216666
 20
42.145938738039682
 30
0.0
 11
94.443141534766525
 21
42.145938738039689
 31
0.0
  0
LINE
  5
152
  8
0
 10
86.927110573216666
 20
40.3226355701076
 30
0.0
 11
94.377110573216527
 21
40.322635570107579
 31
0.0
  0
LINE
  5
153
  8
0
 10
86.927110573216666
 20
39.109580259831858
 30
0.0
 11
94.420493412710599
 21
39.109580259831858
 31
0.0
  0
LINE
  5
154
  8
0
 10
86.927110573216666
 20
36.474830844272248
 30
0.0
 11
94.377111526890886
 21
36.474830844272248
 31
0.0
  0
LINE
  5
155
  8
0
 10
86.927110573216666
 20
34.962175614177269
 30
0.0
 11
94.414457092797832
 21
34.962175614177283
 31
0.0
  0
LINE
  5
156
  8
0
 10
86.927110573216666
 20
43.469863013698749
 30
0.0
 11
86.927110573216666
 21
42.819133647148988
 31
0.0
  0
LINE
  5
157
  8
2
 10
102.0771105732166
 20
36.467000000000269
 30
0.0
 11
101.17711057321659
 21
35.567000000000242
 31
0.0
  0
LINE
  5
158
  8
2
 10
101.6101105732164
 20
36.000000000000028
 30
0.0
 11
97.077110573216643
 21
36.000000000000043
 31
0.0
  0
LINE
  5
159
  8
2
 10
97.077110573216643
 20
35.999999999999872
 30
0.0
 11
96.327132573539714
 21
35.567000000000078
 31
0.0
  0
LINE
  5
15A
  8
2
 10
95.077110573216601
 20
35.567000000000249
 30
0.0
 11
93.835131673686519
 21
33.5
 31
0.0
  0
LINE
  5
15B
  8
2
 10
101.17711057321659
 20
35.567000000000242
 30
0.0
 11
95.077110573216657
 21
35.567000000000249
 31
0.0
  0
LINE
  5
15C
  8
2
 10
101.7771105732166
 20
37.000000000000007
 30
0.0
 11
93.077110573216643
 21
37.000000000000021
 31
0.0
  0
LINE
  5
15D
  8
2
 10
93.077110573216643
 20
37.000000000000021
 30
0.0
 11
92.077110573216643
 21
36.000000000000028
 31
0.0
  0
LINE
  5
15E
  8
2
 10
89.177110573216666
 20
39.199999999999989
 30
0.0
 11
88.677110573216666
 21
39.199999999999989
 31
0.0
  0
LINE
  5
15F
  8
2
 10
86.077110573216643
 20
41.499999999999993
 30
0.0
 11
88.677110573216666
 21
39.199999999999989
 31
0.0
  0
LINE
  5
160
  8
0
 10
101.7771105732166
 20
29.999999999999961
 30
0.0
 11
102.0771105732166
 21
29.99999999999994
 31
0.0
  0
LINE
  5
161
  8
2
 10
97.077110573216956
 20
30.99999999999994
 30
0.0
 11
97.077110573216956
 21
36.000000000000043
 31
0.0
  0
LINE
  5
162
  8
2
 10
101.17711057321659
 20
31.43299999999974
 30
0.0
 11
101.1771105732165
 21
35.567000000000249
 31
0.0
  0
LINE
  5
163
  8
2
 10
102.0771105732166
 20
30.532999999999699
 30
0.0
 11
101.17711057321659
 21
31.43299999999974
 31
0.0
  0
LINE
  5
164
  8
2
 10
97.077110573216643
 20
31.000000000000121
 30
0.0
 11
96.327132573539714
 21
31.432999999999922
 31
0.0
  0
LINE
  5
165
  8
2
 10
95.077110573216657
 20
31.432999999999751
 30
0.0
 11
95.077110573216657
 21
35.567000000000263
 31
0.0
  0
LINE
  5
166
  8
2
 10
95.077110573216601
 20
31.432999999999751
 30
0.0
 11
93.835131673686519
 21
33.5
 31
0.0
  0
LINE
  5
167
  8
2
 10
101.17711057321659
 20
31.43299999999974
 30
0.0
 11
95.077110573216657
 21
31.432999999999751
 31
0.0
  0
LINE
  5
168
  8
2
 10
101.6101105732164
 20
30.99999999999995
 30
0.0
 11
97.077110573216643
 21
30.999999999999961
 31
0.0
  0
LINE
  5
169
  8
0
 10
86.077110573216672
 20
24.349999999999991
 30
0.0
 11
86.077110573216643
 21
42.649999999999991
 31
0.0
  0
LINE
  5
16A
  8
2
 10
86.077110573216643
 20
25.499999999999989
 30
0.0
 11
88.677110573216666
 21
27.79999999999999
 31
0.0
  0
LINE
  5
16B
  8
2
 10
88.677110573216666
 20
27.79999999999999
 30
0.0
 11
88.677110573216666
 21
39.199999999999982
 31
0.0
  0
LINE
  5
16C
  8
2
 10
89.177110573216666
 20
27.79999999999999
 30
0.0
 11
88.677110573216666
 21
27.79999999999999
 31
0.0
  0
LINE
  5
16D
  8
2
 10
89.17711057321668
 20
39.199999999999982
 30
0.0
 11
89.177110573216666
 21
27.79999999999999
 31
0.0
  0
LINE
  5
16E
  8
2
 10
93.077110573216643
 20
29.999999999999972
 30
0.0
 11
92.077110573216643
 21
30.999999999999972
 31
0.0
  0
LINE
  5
16F
  8
2
 10
101.7771105732166
 20
29.999999999999979
 30
0.0
 11
93.077110573216643
 21
29.999999999999972
 31
0.0
  0
LINE
  5
170
  8
2
 10
92.077110573216643
 20
30.999999999999972
 30
0.0
 11
92.077110573216672
 21
36.00000000000005
 31
0.0
  0
LINE
  5
171
  8
0
 10
95.227110573216677
 20
43.500000000000021
 30
0.0
 11
95.227110573216677
 21
23.499999999999989
 31
0.0
  0
LINE
  5
172
  8
0
 10
100.92711057321659
 20
39.499999999999993
 30
0.0
 11
100.92711057321659
 21
27.500000000000021
 31
0.0
  0
LINE
  5
173
  8
0
 10
86.077110573216643
 20
42.649999999999991
 30
0.0
 11
86.52711057321676
 21
43.100000000000101
 31
0.0
  0
LINE
  5
174
  8
0
 10
96.077110573216686
 20
42.649999999999991
 30
0.0
 11
95.227110573216706
 21
43.499999999999993
 31
0.0
  0
LINE
  5
175
  8
0
 10
101.7771105732166
 20
38.649999999999999
 30
0.0
 11
100.92711057321659
 21
39.499999999999993
 31
0.0
  0
LINE
  5
176
  8
0
 10
100.92711057321659
 20
27.5
 30
0.0
 11
101.7771105732166
 21
28.350000000000001
 31
0.0
  0
LINE
  5
177
  8
0
 10
95.227110573216635
 20
23.499999999999979
 30
0.0
 11
96.077110573216643
 21
24.349999999999969
 31
0.0
  0
LINE
  5
178
  8
0
 10
96.077110573216643
 20
27.499999999999979
 30
0.0
 11
100.92711057321659
 21
27.5
 31
0.0
  0
LINE
  5
179
  8
0
 10
102.0771105732166
 20
36.999999999999979
 30
0.0
 11
102.0771105732166
 21
29.999999999999972
 31
0.0
  0
LINE
  5
17A
  8
0
 10
101.7771105732166
 20
36.999999999999993
 30
0.0
 11
102.0771105732166
 21
36.999999999999979
 31
0.0
  0
LINE
  5
17B
  8
0
 10
101.7771105732166
 20
38.649999999999999
 30
0.0
 11
101.7771105732166
 21
28.350000000000001
 31
0.0
  0
LINE
  5
17C
  8
0
 10
96.077110573216643
 20
39.499999999999993
 30
0.0
 11
100.92711057321659
 21
39.499999999999993
 31
0.0
  0
LINE
  5
17D
  8
0
 10
96.077110573216686
 20
42.649999999999991
 30
0.0
 11
96.077110573216643
 21
24.349999999999991
 31
0.0
  0
LINE
  5
17E
  8
0
 10
94.777110573216319
 20
43.499999999999993
 30
0.0
 11
95.227110573216706
 21
43.499999999999993
 31
0.0
  0
LINE
  5
17F
  8
1
 10
104.5771105732166
 20
33.499999999999979
 30
0.0
 11
83.577110573216643
 21
33.5
 31
0.0
  0
LINE
  5
180
  8
0
 10
86.927110573216609
 20
77.499999999999986
 30
0.0
 11
86.927110573216595
 21
77.39252457531974
 31
0.0
  0
LINE
  5
181
  8
0
 10
86.927110573216595
 20
66.724222011087065
 30
0.0
 11
94.413752294219293
 21
66.724222011087051
 31
0.0
  0
LINE
  5
182
  8
0
 10
86.927110573216595
 20
68.275777988912921
 30
0.0
 11
94.377111921915684
 21
68.275777988912921
 31
0.0
  0
LINE
  5
183
  8
0
 10
86.927110573216595
 20
71.126809626458922
 30
0.0
 11
94.416245777209625
 21
71.126809626458922
 31
0.0
  0
LINE
  5
184
  8
0
 10
86.927110573216595
 20
72.524713259288021
 30
0.0
 11
94.377110573216484
 21
72.524713259288006
 31
0.0
  0
LINE
  5
185
  8
0
 10
86.927110573216609
 20
74.811063115409539
 30
0.0
 11
94.377110573216513
 21
74.811063115409539
 31
0.0
  0
LINE
  5
186
  8
0
 10
86.927110573216595
 20
75.778442444596962
 30
0.0
 11
94.377111741224255
 21
75.778442444596934
 31
0.0
  0
LINE
  5
187
  8
0
 10
86.927110573216595
 20
77.047270890048424
 30
0.0
 11
94.377110573209563
 21
77.047270890048424
 31
0.0
  0
LINE
  5
188
  8
0
 10
86.927110573216595
 20
77.39252457531974
 30
0.0
 11
94.42059563695355
 21
77.39252457531974
 31
0.0
  0
POLYLINE
  5
189
  8
0
 66
     1
 10
0.0
 20
0.0
 30
0.0
  0
VERTEX
  5
18A
  8
0
 10
86.527110573216717
 20
67.5
 30
0.0
 42
0.0526515843117979
 50
90.0
  0
VERTEX
  5
18B
  8
0
 10
86.560194883028245
 20
67.186689448455397
 30
0.0
 42
0.0665094502244707
 50
90.0
  0
VERTEX
  5
18C
  8
0
 10
86.644267860742076
 20
66.951442123344407
 30
0.0
 42
0.1048721553586362
 70
     2
 50
297.27614927776722
  0
VERTEX
  5
18D
  8
0
 10
86.799183793565277
 20
66.761833443670525
 30
0.0
 42
0.1979393846974964
 50
297.27614927776722
  0
VERTEX
  5
18E
  8
0
 10
86.927110573216595
 20
66.724222011087065
 30
0.0
 42
0.1708274168693134
 50
90.0
  0
SEQEND
  5
18F
  8
0
  0
POLYLINE
  5
190
  8
0
 66
     1
 10
0.0
 20
0.0
 30
0.0
  0
VERTEX
  5
191
  8
0
 10
86.927110573216595
 20
68.275777988912935
 30
0.0
 42
0.1708274168693328
 50
90.0
  0
VERTEX
  5
192
  8
0
 10
86.790687252901634
 20
68.227767252476895
 30
0.0
 42
0.1048721553586743
 50
90.0
  0
VERTEX
  5
193
  8
0
 10
86.644267860742076
 20
68.048557876655593
 30
0.0
 42
0.06650945022448
 70
     2
 50
242.72385072223281
  0
VERTEX
  5
194
  8
0
 10
86.560194883028245
 20
67.813310551544589
 30
0.0
 42
0.0526515843118002
 50
242.72385072223281
  0
VERTEX
  5
195
  8
0
 10
86.527110573216717
 20
67.5
 30
0.0
 42
0.0526515843117979
 50
90.0
  0
SEQEND
  5
196
  8
0
  0
POLYLINE
  5
197
  8
0
 66
     1
 10
0.0
 20
0.0
 30
0.0
  0
VERTEX
  5
198
  8
0
 10
86.927110573216609
 20
72.524713259288021
 30
0.0
 42
0.1772227935966885
 50
90.0
  0
VERTEX
  5
199
  8
0
 10
86.79220556086193
 20
72.475346258219005
 30
0.0
 42
0.1037286571386471
 50
90.0
  0
VERTEX
  5
19A
  8
0
 10
86.644267860741621
 20
72.285700387087971
 30
0.0
 42
0.0639472387608605
 70
     2
 50
243.88722483196511
  0
VERTEX
  5
19B
  8
0
 10
86.560305025063343
 20
72.038989554493298
 30
0.0
 42
0.0501200937592137
 50
243.88722483196511
  0
VERTEX
  5
19C
  8
0
 10
86.527110573216106
 20
71.708672269440854
 30
0.0
 42
0.0501200937592415
 50
90.0
  0
SEQEND
  5
19D
  8
0
  0
POLYLINE
  5
19E
  8
0
 66
     1
 10
0.0
 20
0.0
 30
0.0
  0
VERTEX
  5
19F
  8
0
 10
86.527110573216717
 20
71.708672269440839
 30
0.0
 42
0.0694633972576087
 50
90.0
  0
VERTEX
  5
1A0
  8
0
 10
86.559358293254164
 20
71.47767205363769
 30
0.0
 42
0.0813899294342794
 50
90.0
  0
VERTEX
  5
1A1
  8
0
 10
86.64426786074209
 20
71.29723324886919
 30
0.0
 42
0.1069704061773945
 70
     2
 50
304.50647906268171
  0
VERTEX
  5
1A2
  8
0
 10
86.792049452433886
 20
71.158058301543065
 30
0.0
 42
0.1587731996791126
 50
304.50647906268171
  0
VERTEX
  5
1A3
  8
0
 10
86.927110573216623
 20
71.126809626458922
 30
0.0
 42
0.1364077150153963
 50
90.0
  0
SEQEND
  5
1A4
  8
0
  0
POLYLINE
  5
1A5
  8
0
 66
     1
 10
0.0
 20
0.0
 30
0.0
  0
VERTEX
  5
1A6
  8
0
 10
86.927110573216609
 20
75.778442444596934
 30
0.0
 42
0.1571760863902413
 50
90.0
  0
VERTEX
  5
1A7
  8
0
 10
86.787449276858325
 20
75.733427550180949
 30
0.0
 42
0.1065892250953939
 50
90.0
  0
VERTEX
  5
1A8
  8
0
 10
86.644267860742076
 20
75.574976243093943
 30
0.0
 42
0.072202003131666
 70
     2
 50
240.06635625726389
  0
VERTEX
  5
1A9
  8
0
 10
86.559919086234657
 20
75.362739386232477
 30
0.0
 42
0.0586001715207345
 50
240.06635625726389
  0
VERTEX
  5
1AA
  8
0
 10
86.527110573216717
 20
75.083765379940857
 30
0.0
 42
0.0586001715207382
 50
90.0
  0
SEQEND
  5
1AB
  8
0
  0
POLYLINE
  5
1AC
  8
0
 66
     1
 10
0.0
 20
0.0
 30
0.0
  0
VERTEX
  5
1AD
  8
0
 10
86.527110573216717
 20
75.083765379940871
 30
0.0
 42
0.1373455538095163
 50
90.0
  0
VERTEX
  5
1AE
  8
0
 10
86.554658974153284
 20
74.985368552997556
 30
0.0
 42
0.1070192326505333
 50
90.0
  0
VERTEX
  5
1AF
  8
0
 10
86.644267860742076
 20
74.890935759445838
 30
0.0
 42
0.0809638122059214
 70
     2
 50
325.71556846141482
  0
VERTEX
  5
1B0
  8
0
 10
86.76821267243136
 20
74.833068602863804
 30
0.0
 42
0.0689152481966574
 50
325.71556846141482
  0
VERTEX
  5
1B1
  8
0
 10
86.927110573216595
 20
74.811063115409539
 30
0.0
 42
0.0689152481966227
 50
90.0
  0
SEQEND
  5
1B2
  8
0
  0
LINE
  5
1B3
  8
0
 10
86.927110573216595
 20
74.811063115409539
 30
0.0
 11
86.927110573216623
 21
72.524713259288021
 31
0.0
  0
LINE
  5
1B4
  8
0
 10
86.927110573216623
 20
71.126809626458922
 30
0.0
 11
86.927110573216623
 21
68.275777988912921
 31
0.0
  0
POLYLINE
  5
1B5
  8
0
 66
     1
 10
0.0
 20
0.0
 30
0.0
  0
VERTEX
  5
1B6
  8
0
 10
86.527110573219375
 20
76.956800748164895
 30
0.0
 42
0.0233573080821943
 50
90.0
  0
VERTEX
  5
1B7
  8
0
 10
86.691935642869126
 20
76.964504691025354
 30
0.0
 42
0.032266348829244
 50
90.0
  0
VERTEX
  5
1B8
  8
0
 10
86.809953285693126
 20
76.983298839235985
 30
0.0
 42
0.0694517353260834
 70
     2
 50
12.744465244313339
  0
VERTEX
  5
1B9
  8
0
 10
86.915893788368919
 20
77.023309900219289
 30
0.0
 50
12.744465244313339
  0
VERTEX
  5
1BA
  8
0
 10
86.927110573223544
 20
77.047270890048438
 30
0.0
 50
90.0
  0
SEQEND
  5
1BB
  8
0
  0
LINE
  5
1BC
  8
0
 10
86.927110573216595
 20
77.047270890048438
 30
0.0
 11
86.927110573216595
 21
75.778442444596934
 31
0.0
  0
LINE
  5
1BD
  8
0
 10
86.795174875443024
 20
77.368064302226415
 30
0.0
 11
86.927110573216623
 21
77.5
 31
0.0
  0
POLYLINE
  5
1BE
  8
0
 66
     1
 10
0.0
 20
0.0
 30
0.0
  0
VERTEX
  5
1BF
  8
0
 10
94.777110573216405
 20
75.083765379940871
 30
0.0
 42
-0.1373455538095163
 50
90.0
  0
VERTEX
  5
1C0
  8
0
 10
94.749562172279823
 20
74.985368552997556
 30
0.0
 42
-0.1070192326505333
 50
90.0
  0
VERTEX
  5
1C1
  8
0
 10
94.659953285691046
 20
74.890935759445838
 30
0.0
 42
-0.0809638122059214
 70
     2
 50
214.2844315385851
  0
VERTEX
  5
1C2
  8
0
 10
94.536008474001761
 20
74.833068602863804
 30
0.0
 42
-0.0689152481966574
 50
90.0
  0
VERTEX
  5
1C3
  8
0
 10
94.377110573216527
 20
74.811063115409539
 30
0.0
 42
-0.0689152481966227
 50
90.0
  0
SEQEND
  5
1C4
  8
0
  0
POLYLINE
  5
1C5
  8
0
 66
     1
 10
0.0
 20
0.0
 30
0.0
  0
VERTEX
  5
1C6
  8
0
 10
94.377110573216513
 20
75.778442444596934
 30
0.0
 42
-0.1571760863902413
 50
90.0
  0
VERTEX
  5
1C7
  8
0
 10
94.516771869574796
 20
75.733427550180949
 30
0.0
 42
-0.1065892250953939
 50
90.0
  0
VERTEX
  5
1C8
  8
0
 10
94.659953285691046
 20
75.574976243093943
 30
0.0
 42
-0.072202003131666
 70
     2
 50
299.93364374273608
  0
VERTEX
  5
1C9
  8
0
 10
94.744302060198464
 20
75.362739386232477
 30
0.0
 42
-0.0586001715207345
 50
90.0
  0
VERTEX
  5
1CA
  8
0
 10
94.777110573216405
 20
75.083765379940857
 30
0.0
 42
-0.0586001715207382
 50
90.0
  0
SEQEND
  5
1CB
  8
0
  0
POLYLINE
  5
1CC
  8
0
 66
     1
 10
0.0
 20
0.0
 30
0.0
  0
VERTEX
  5
1CD
  8
0
 10
94.777110573216405
 20
71.708672269440839
 30
0.0
 42
-0.0694633972576087
 50
90.0
  0
VERTEX
  5
1CE
  8
0
 10
94.744862853178958
 20
71.47767205363769
 30
0.0
 42
-0.0813899294342794
 50
90.0
  0
VERTEX
  5
1CF
  8
0
 10
94.659953285691032
 20
71.29723324886919
 30
0.0
 42
-0.1069704061773945
 70
     2
 50
235.49352093731829
  0
VERTEX
  5
1D0
  8
0
 10
94.512171693999235
 20
71.158058301543065
 30
0.0
 42
-0.1587731996791126
 50
90.0
  0
VERTEX
  5
1D1
  8
0
 10
94.377110573216484
 20
71.126809626458922
 30
0.0
 42
-0.1364077150153963
 50
90.0
  0
SEQEND
  5
1D2
  8
0
  0
POLYLINE
  5
1D3
  8
0
 66
     1
 10
0.0
 20
0.0
 30
0.0
  0
VERTEX
  5
1D4
  8
0
 10
94.377110573216513
 20
72.524713259288021
 30
0.0
 42
-0.1772227935966885
 50
90.0
  0
VERTEX
  5
1D5
  8
0
 10
94.512015585571191
 20
72.475346258219005
 30
0.0
 42
-0.1037286571386471
 50
90.0
  0
VERTEX
  5
1D6
  8
0
 10
94.6599532856915
 20
72.285700387087971
 30
0.0
 42
-0.0639472387608605
 70
     2
 50
296.11277516803489
  0
VERTEX
  5
1D7
  8
0
 10
94.743916121369779
 20
72.038989554493298
 30
0.0
 42
-0.0501200937592137
 50
90.0
  0
VERTEX
  5
1D8
  8
0
 10
94.777110573217016
 20
71.708672269440854
 30
0.0
 42
-0.0501200937592415
 50
90.0
  0
SEQEND
  5
1D9
  8
0
  0
POLYLINE
  5
1DA
  8
0
 66
     1
 10
0.0
 20
0.0
 30
0.0
  0
VERTEX
  5
1DB
  8
0
 10
94.377110573216527
 20
68.275777988912935
 30
0.0
 42
-0.1708274168693328
 50
90.0
  0
VERTEX
  5
1DC
  8
0
 10
94.513533893531488
 20
68.227767252476895
 30
0.0
 42
-0.1048721553586743
 50
90.0
  0
VERTEX
  5
1DD
  8
0
 10
94.659953285691046
 20
68.048557876655593
 30
0.0
 42
-0.06650945022448
 70
     2
 50
297.27614927776722
  0
VERTEX
  5
1DE
  8
0
 10
94.744026263404876
 20
67.813310551544589
 30
0.0
 42
-0.0526515843118002
 50
90.0
  0
VERTEX
  5
1DF
  8
0
 10
94.777110573216405
 20
67.5
 30
0.0
 42
-0.0526515843117979
 50
90.0
  0
SEQEND
  5
1E0
  8
0
  0
POLYLINE
  5
1E1
  8
0
 66
     1
 10
0.0
 20
0.0
 30
0.0
  0
VERTEX
  5
1E2
  8
0
 10
94.777110573216405
 20
67.5
 30
0.0
 42
-0.0526515843117979
 50
90.0
  0
VERTEX
  5
1E3
  8
0
 10
94.744026263404876
 20
67.186689448455397
 30
0.0
 42
-0.0665094502244707
 50
90.0
  0
VERTEX
  5
1E4
  8
0
 10
94.659953285691046
 20
66.951442123344407
 30
0.0
 42
-0.1048721553586362
 70
     2
 50
242.7238507222327
  0
VERTEX
  5
1E5
  8
0
 10
94.505037352867845
 20
66.761833443670525
 30
0.0
 42
-0.1979393846974964
 50
90.0
  0
VERTEX
  5
1E6
  8
0
 10
94.377110573216527
 20
66.724222011087065
 30
0.0
 42
-0.1708274168693134
 50
90.0
  0
SEQEND
  5
1E7
  8
0
  0
POLYLINE
  5
1E8
  8
0
 66
     1
 10
0.0
 20
0.0
 30
0.0
  0
VERTEX
  5
1E9
  8
0
 10
86.927110573216424
 20
77.39252457531974
 30
0.0
 42
0.0919145692174513
 50
90.0
  0
VERTEX
  5
1EA
  8
0
 10
86.795174875455757
 20
77.368064302239134
 30
0.0
 42
0.1014107822488612
 50
90.0
  0
SEQEND
  5
1EB
  8
0
  0
POLYLINE
  5
1EC
  8
0
 66
     1
 10
0.0
 20
0.0
 30
0.0
  0
VERTEX
  5
1ED
  8
0
 10
86.561759101265835
 20
77.134648528049212
 30
0.0
 42
0.0058104252885607
 70
     2
 50
227.44767369030589
  0
VERTEX
  5
1EE
  8
0
 10
86.558053475262255
 20
77.125234161101957
 30
0.0
 42
0.0910927959066583
 50
227.44767369030589
  0
VERTEX
  5
1EF
  8
0
 10
86.527110573216717
 20
76.956800748164724
 30
0.0
 42
0.0910927959066884
 50
90.0
  0
SEQEND
  5
1F0
  8
0
  0
POLYLINE
  5
1F1
  8
0
 66
     1
 10
0.0
 20
0.0
 30
0.0
  0
VERTEX
  5
1F2
  8
0
 10
86.795174875468831
 20
77.368064302252208
 30
0.0
 42
-0.0143082046197332
 50
90.0
  0
VERTEX
  5
1F3
  8
0
 10
86.787065955330064
 20
77.348627615043114
 30
0.0
 42
-0.1014107822488612
 50
90.0
  0
VERTEX
  5
1F4
  8
0
 10
86.692014594287144
 20
77.217157287525325
 30
0.0
 42
-0.0892529791583595
 70
     2
 50
222.55232630969689
  0
VERTEX
  5
1F5
  8
0
 10
86.561759101277445
 20
77.134648528060822
 30
0.0
 42
-0.0910927959066583
 50
90.0
  0
SEQEND
  5
1F6
  8
0
  0
POLYLINE
  5
1F7
  8
0
 66
     1
 10
0.0
 20
0.0
 30
0.0
  0
VERTEX
  5
1F8
  8
0
 10
94.777110573213747
 20
76.956800748164895
 30
0.0
 42
-0.0233573080821943
 50
90.0
  0
VERTEX
  5
1F9
  8
0
 10
94.612285503563996
 20
76.964504691025354
 30
0.0
 42
-0.032266348829244
 50
90.0
  0
VERTEX
  5
1FA
  8
0
 10
94.494267860739996
 20
76.983298839235985
 30
0.0
 42
-0.0694517353260834
 70
     2
 50
167.2555347556866
  0
VERTEX
  5
1FB
  8
0
 10
94.388327358064188
 20
77.023309900219289
 30
0.0
 50
90.0
  0
VERTEX
  5
1FC
  8
0
 10
94.377110573209563
 20
77.047270890048438
 30
0.0
 50
90.0
  0
SEQEND
  5
1FD
  8
0
  0
POLYLINE
  5
1FE
  8
0
 66
     1
 10
0.0
 20
0.0
 30
0.0
  0
VERTEX
  5
1FF
  8
0
 10
94.777110573216405
 20
76.956800748164724
 30
0.0
 42
0.0910927959066242
 50
90.0
  0
VERTEX
  5
200
  8
0
 10
94.746167671170824
 20
77.125234161102043
 30
0.0
 42
0.0951127297056047
 50
90.0
  0
VERTEX
  5
201
  8
0
 10
94.659953285691103
 20
77.264904021070606
 30
0.0
 42
0.1014107822489876
 70
     2
 50
132.5523263096936
  0
VERTEX
  5
202
  8
0
 10
94.51765735954767
 20
77.367782151110703
 30
0.0
 42
0.1254512433711584
 50
132.5523263096936
  0
VERTEX
  5
203
  8
0
 10
94.377110573216683
 20
77.392524575319754
 30
0.0
 42
0.1063626548058063
 50
90.0
  0
SEQEND
  5
204
  8
0
  0
POLYLINE
  5
205
  8
0
 66
     1
 10
0.0
 20
0.0
 30
0.0
  0
VERTEX
  5
206
  8
0
 10
94.777110573216405
 20
58.043199251835247
 30
0.0
 42
-0.0910927959066242
 50
90.0
  0
VERTEX
  5
207
  8
0
 10
94.746167671170824
 20
57.874765838897943
 30
0.0
 42
-0.0951127297056047
 50
90.0
  0
VERTEX
  5
208
  8
0
 10
94.659953285691103
 20
57.735095978929373
 30
0.0
 42
-0.1014107822489876
 70
     2
 50
227.4476736903064
  0
VERTEX
  5
209
  8
0
 10
94.51765735954767
 20
57.632217848889269
 30
0.0
 42
-0.1254512433711584
 50
90.0
  0
VERTEX
  5
20A
  8
0
 10
94.377110573216683
 20
57.607475424680217
 30
0.0
 42
-0.1063626548058063
 50
90.0
  0
SEQEND
  5
20B
  8
0
  0
POLYLINE
  5
20C
  8
0
 66
     1
 10
0.0
 20
0.0
 30
0.0
  0
VERTEX
  5
20D
  8
0
 10
94.777110573213747
 20
58.043199251835077
 30
0.0
 42
0.0233573080821943
 50
90.0
  0
VERTEX
  5
20E
  8
0
 10
94.612285503563996
 20
58.035495308974632
 30
0.0
 42
0.032266348829244
 50
90.0
  0
VERTEX
  5
20F
  8
0
 10
94.494267860739996
 20
58.016701160763994
 30
0.0
 42
0.0694517353260834
 70
     2
 50
192.74446524431329
  0
VERTEX
  5
210
  8
0
 10
94.388327358064188
 20
57.976690099780683
 30
0.0
 50
90.0
  0
VERTEX
  5
211
  8
0
 10
94.377110573209563
 20
57.952729109951541
 30
0.0
 50
90.0
  0
SEQEND
  5
212
  8
0
  0
POLYLINE
  5
213
  8
0
 66
     1
 10
0.0
 20
0.0
 30
0.0
  0
VERTEX
  5
214
  8
0
 10
86.795174875468831
 20
57.631935697747771
 30
0.0
 42
0.0143082046197332
 50
90.0
  0
VERTEX
  5
215
  8
0
 10
86.787065955330064
 20
57.651372384956858
 30
0.0
 42
0.1014107822488612
 50
90.0
  0
VERTEX
  5
216
  8
0
 10
86.692014594287144
 20
57.782842712474647
 30
0.0
 42
0.0892529791583595
 70
     2
 50
137.44767369030299
  0
VERTEX
  5
217
  8
0
 10
86.561759101277445
 20
57.865351471939157
 30
0.0
 42
0.0910927959066583
 50
90.0
  0
SEQEND
  5
218
  8
0
  0
POLYLINE
  5
219
  8
0
 66
     1
 10
0.0
 20
0.0
 30
0.0
  0
VERTEX
  5
21A
  8
0
 10
86.561759101265835
 20
57.865351471950767
 30
0.0
 42
-0.0058104252885607
 70
     2
 50
132.55232630969411
  0
VERTEX
  5
21B
  8
0
 10
86.558053475262255
 20
57.874765838898021
 30
0.0
 42
-0.0910927959066583
 50
90.0
  0
VERTEX
  5
21C
  8
0
 10
86.527110573216717
 20
58.043199251835247
 30
0.0
 42
-0.0910927959066884
 50
90.0
  0
SEQEND
  5
21D
  8
0
  0
POLYLINE
  5
21E
  8
0
 66
     1
 10
0.0
 20
0.0
 30
0.0
  0
VERTEX
  5
21F
  8
0
 10
86.927110573216424
 20
57.607475424680239
 30
0.0
 42
-0.0919145692174513
 50
90.0
  0
VERTEX
  5
220
  8
0
 10
86.795174875455757
 20
57.631935697760831
 30
0.0
 42
-0.1014107822488612
 50
90.0
  0
SEQEND
  5
221
  8
0
  0
POLYLINE
  5
222
  8
0
 66
     1
 10
0.0
 20
0.0
 30
0.0
  0
VERTEX
  5
223
  8
0
 10
94.377110573216513
 20
62.475286740711951
 30
0.0
 42
0.1772227935966885
 50
90.0
  0
VERTEX
  5
224
  8
0
 10
94.512015585571191
 20
62.524653741780973
 30
0.0
 42
0.1037286571386471
 50
90.0
  0
VERTEX
  5
225
  8
0
 10
94.6599532856915
 20
62.714299612912001
 30
0.0
 42
0.0639472387608605
 70
     2
 50
63.88722483196517
  0
VERTEX
  5
226
  8
0
 10
94.743916121369779
 20
62.961010445506673
 30
0.0
 42
0.0501200937592137
 50
90.0
  0
VERTEX
  5
227
  8
0
 10
94.777110573217016
 20
63.291327730559118
 30
0.0
 42
0.0501200937592415
 50
90.0
  0
SEQEND
  5
228
  8
0
  0
POLYLINE
  5
229
  8
0
 66
     1
 10
0.0
 20
0.0
 30
0.0
  0
VERTEX
  5
22A
  8
0
 10
94.777110573216405
 20
63.291327730559132
 30
0.0
 42
0.0694633972576087
 50
90.0
  0
VERTEX
  5
22B
  8
0
 10
94.744862853178958
 20
63.522327946362282
 30
0.0
 42
0.0813899294342794
 50
90.0
  0
VERTEX
  5
22C
  8
0
 10
94.659953285691032
 20
63.702766751130781
 30
0.0
 42
0.1069704061773945
 70
     2
 50
124.50647906268161
  0
VERTEX
  5
22D
  8
0
 10
94.512171693999235
 20
63.841941698456893
 30
0.0
 42
0.1587731996791126
 50
90.0
  0
VERTEX
  5
22E
  8
0
 10
94.377110573216484
 20
63.87319037354105
 30
0.0
 42
0.1364077150153963
 50
90.0
  0
SEQEND
  5
22F
  8
0
  0
POLYLINE
  5
230
  8
0
 66
     1
 10
0.0
 20
0.0
 30
0.0
  0
VERTEX
  5
231
  8
0
 10
94.377110573216513
 20
59.221557555403017
 30
0.0
 42
0.1571760863902413
 50
90.0
  0
VERTEX
  5
232
  8
0
 10
94.516771869574796
 20
59.266572449819023
 30
0.0
 42
0.1065892250953939
 50
90.0
  0
VERTEX
  5
233
  8
0
 10
94.659953285691046
 20
59.425023756906029
 30
0.0
 42
0.072202003131666
 70
     2
 50
60.066356257263926
  0
VERTEX
  5
234
  8
0
 10
94.744302060198464
 20
59.637260613767502
 30
0.0
 42
0.0586001715207345
 50
90.0
  0
VERTEX
  5
235
  8
0
 10
94.777110573216405
 20
59.916234620059107
 30
0.0
 42
0.0586001715207382
 50
90.0
  0
SEQEND
  5
236
  8
0
  0
POLYLINE
  5
237
  8
0
 66
     1
 10
0.0
 20
0.0
 30
0.0
  0
VERTEX
  5
238
  8
0
 10
94.777110573216405
 20
59.9162346200591
 30
0.0
 42
0.1373455538095163
 50
90.0
  0
VERTEX
  5
239
  8
0
 10
94.749562172279823
 20
60.014631447002422
 30
0.0
 42
0.1070192326505333
 50
90.0
  0
VERTEX
  5
23A
  8
0
 10
94.659953285691046
 20
60.109064240554133
 30
0.0
 42
0.0809638122059214
 70
     2
 50
145.7155684614149
  0
VERTEX
  5
23B
  8
0
 10
94.536008474001761
 20
60.16693139713616
 30
0.0
 42
0.0689152481966574
 50
90.0
  0
VERTEX
  5
23C
  8
0
 10
94.377110573216527
 20
60.188936884590433
 30
0.0
 42
0.0689152481966227
 50
90.0
  0
SEQEND
  5
23D
  8
0
  0
LINE
  5
23E
  8
0
 10
86.795174875443024
 20
57.631935697773571
 30
0.0
 11
86.927110573216623
 21
57.499999999999979
 31
0.0
  0
LINE
  5
23F
  8
0
 10
86.927110573216595
 20
57.952729109951541
 30
0.0
 11
86.927110573216595
 21
59.221557555403017
 31
0.0
  0
POLYLINE
  5
240
  8
0
 66
     1
 10
0.0
 20
0.0
 30
0.0
  0
VERTEX
  5
241
  8
0
 10
86.527110573219375
 20
58.043199251835077
 30
0.0
 42
-0.0233573080821943
 50
90.0
  0
VERTEX
  5
242
  8
0
 10
86.691935642869126
 20
58.035495308974632
 30
0.0
 42
-0.032266348829244
 50
90.0
  0
VERTEX
  5
243
  8
0
 10
86.809953285693126
 20
58.016701160763994
 30
0.0
 42
-0.0694517353260834
 70
     2
 50
347.25553475568671
  0
VERTEX
  5
244
  8
0
 10
86.915893788368919
 20
57.976690099780683
 30
0.0
 50
90.0
  0
VERTEX
  5
245
  8
0
 10
86.927110573223544
 20
57.952729109951541
 30
0.0
 50
90.0
  0
SEQEND
  5
246
  8
0
  0
LINE
  5
247
  8
0
 10
86.927110573216623
 20
63.87319037354105
 30
0.0
 11
86.927110573216623
 21
66.724222011087051
 31
0.0
  0
LINE
  5
248
  8
0
 10
86.927110573216595
 20
60.188936884590433
 30
0.0
 11
86.927110573216623
 21
62.475286740711951
 31
0.0
  0
POLYLINE
  5
249
  8
0
 66
     1
 10
0.0
 20
0.0
 30
0.0
  0
VERTEX
  5
24A
  8
0
 10
86.527110573216717
 20
59.9162346200591
 30
0.0
 42
-0.1373455538095163
 50
90.0
  0
VERTEX
  5
24B
  8
0
 10
86.554658974153284
 20
60.014631447002422
 30
0.0
 42
-0.1070192326505333
 50
90.0
  0
VERTEX
  5
24C
  8
0
 10
86.644267860742076
 20
60.109064240554133
 30
0.0
 42
-0.0809638122059214
 70
     2
 50
34.284431538585139
  0
VERTEX
  5
24D
  8
0
 10
86.76821267243136
 20
60.16693139713616
 30
0.0
 42
-0.0689152481966574
 50
90.0
  0
VERTEX
  5
24E
  8
0
 10
86.927110573216595
 20
60.188936884590433
 30
0.0
 42
-0.0689152481966227
 50
90.0
  0
SEQEND
  5
24F
  8
0
  0
POLYLINE
  5
250
  8
0
 66
     1
 10
0.0
 20
0.0
 30
0.0
  0
VERTEX
  5
251
  8
0
 10
86.927110573216609
 20
59.221557555403017
 30
0.0
 42
-0.1571760863902413
 50
90.0
  0
VERTEX
  5
252
  8
0
 10
86.787449276858325
 20
59.266572449819023
 30
0.0
 42
-0.1065892250953939
 50
90.0
  0
VERTEX
  5
253
  8
0
 10
86.644267860742076
 20
59.425023756906029
 30
0.0
 42
-0.072202003131666
 70
     2
 50
119.93364374273609
  0
VERTEX
  5
254
  8
0
 10
86.559919086234657
 20
59.637260613767502
 30
0.0
 42
-0.0586001715207345
 50
90.0
  0
VERTEX
  5
255
  8
0
 10
86.527110573216717
 20
59.916234620059107
 30
0.0
 42
-0.0586001715207382
 50
90.0
  0
SEQEND
  5
256
  8
0
  0
POLYLINE
  5
257
  8
0
 66
     1
 10
0.0
 20
0.0
 30
0.0
  0
VERTEX
  5
258
  8
0
 10
86.527110573216717
 20
63.291327730559132
 30
0.0
 42
-0.0694633972576087
 50
90.0
  0
VERTEX
  5
259
  8
0
 10
86.559358293254164
 20
63.522327946362282
 30
0.0
 42
-0.0813899294342794
 50
90.0
  0
VERTEX
  5
25A
  8
0
 10
86.64426786074209
 20
63.702766751130781
 30
0.0
 42
-0.1069704061773945
 70
     2
 50
55.493520937318337
  0
VERTEX
  5
25B
  8
0
 10
86.792049452433886
 20
63.841941698456893
 30
0.0
 42
-0.1587731996791126
 50
90.0
  0
VERTEX
  5
25C
  8
0
 10
86.927110573216623
 20
63.87319037354105
 30
0.0
 42
-0.1364077150153963
 50
90.0
  0
SEQEND
  5
25D
  8
0
  0
POLYLINE
  5
25E
  8
0
 66
     1
 10
0.0
 20
0.0
 30
0.0
  0
VERTEX
  5
25F
  8
0
 10
86.927110573216609
 20
62.475286740711951
 30
0.0
 42
-0.1772227935966885
 50
90.0
  0
VERTEX
  5
260
  8
0
 10
86.79220556086193
 20
62.524653741780973
 30
0.0
 42
-0.1037286571386471
 50
90.0
  0
VERTEX
  5
261
  8
0
 10
86.644267860741621
 20
62.714299612912001
 30
0.0
 42
-0.0639472387608605
 70
     2
 50
116.1127751680348
  0
VERTEX
  5
262
  8
0
 10
86.560305025063343
 20
62.961010445506673
 30
0.0
 42
-0.0501200937592137
 50
90.0
  0
VERTEX
  5
263
  8
0
 10
86.527110573216106
 20
63.291327730559118
 30
0.0
 42
-0.0501200937592415
 50
90.0
  0
SEQEND
  5
264
  8
0
  0
LINE
  5
265
  8
0
 10
86.927110573216595
 20
57.607475424680239
 30
0.0
 11
94.42059563695355
 21
57.607475424680239
 31
0.0
  0
LINE
  5
266
  8
0
 10
86.927110573216595
 20
57.952729109951548
 30
0.0
 11
94.377110573209563
 21
57.952729109951548
 31
0.0
  0
LINE
  5
267
  8
0
 10
86.927110573216595
 20
59.22155755540301
 30
0.0
 11
94.377111741224255
 21
59.221557555403017
 31
0.0
  0
LINE
  5
268
  8
0
 10
86.927110573216609
 20
60.188936884590433
 30
0.0
 11
94.377110573216513
 21
60.188936884590433
 31
0.0
  0
LINE
  5
269
  8
0
 10
86.927110573216595
 20
62.475286740711951
 30
0.0
 11
94.377110573216484
 21
62.475286740711972
 31
0.0
  0
LINE
  5
26A
  8
0
 10
86.927110573216595
 20
63.87319037354105
 30
0.0
 11
94.416245777209625
 21
63.87319037354105
 31
0.0
  0
LINE
  5
26B
  8
0
 10
86.927110573216609
 20
57.5
 30
0.0
 11
86.927110573216595
 21
57.607475424680239
 31
0.0
  0
LINE
  5
26C
  8
0
 10
86.077110573216629
 20
58.349999999999973
 30
0.0
 11
86.56175910126268
 21
57.865351471953922
 31
0.0
  0
LINE
  5
26D
  8
0
 10
86.927110573216623
 20
57.499999999999979
 30
0.0
 11
95.227110573216635
 21
57.5
 31
0.0
  0
LINE
  5
26E
  8
0
 10
94.777110573216333
 20
113.5
 30
0.0
 11
95.227110573216706
 21
113.5
 31
0.0
  0
LINE
  5
26F
  8
0
 10
96.077110573216714
 20
112.64999999999991
 30
0.0
 11
96.077110573216643
 21
94.349999999999994
 31
0.0
  0
LINE
  5
270
  8
0
 10
96.077110573216672
 20
109.4999999999999
 30
0.0
 11
100.92711057321659
 21
109.4999999999999
 31
0.0
  0
LINE
  5
271
  8
0
 10
101.7771105732166
 20
108.64999999999991
 30
0.0
 11
101.7771105732166
 21
98.349999999999994
 31
0.0
  0
LINE
  5
272
  8
0
 10
101.7771105732166
 20
107.0
 30
0.0
 11
102.0771105732166
 21
107.0
 31
0.0
  0
LINE
  5
273
  8
0
 10
102.0771105732166
 20
107.0
 30
0.0
 11
102.0771105732166
 21
99.999999999999986
 31
0.0
  0
LINE
  5
274
  8
0
 10
96.077110573216643
 20
97.499999999999986
 30
0.0
 11
100.92711057321659
 21
97.5
 31
0.0
  0
LINE
  5
275
  8
0
 10
95.227110573216663
 20
93.499999999999972
 30
0.0
 11
96.077110573216643
 21
94.349999999999966
 31
0.0
  0
LINE
  5
276
  8
0
 10
100.92711057321659
 20
97.5
 30
0.0
 11
101.7771105732166
 21
98.349999999999994
 31
0.0
  0
LINE
  5
277
  8
0
 10
101.7771105732166
 20
108.64999999999991
 30
0.0
 11
100.92711057321659
 21
109.4999999999999
 31
0.0
  0
LINE
  5
278
  8
0
 10
96.077110573216714
 20
112.64999999999991
 30
0.0
 11
95.227110573216706
 21
113.5
 31
0.0
  0
LINE
  5
279
  8
0
 10
86.077110573216672
 20
112.64999999999991
 30
0.0
 11
86.527110573216774
 21
113.09999999999999
 31
0.0
  0
LINE
  5
27A
  8
0
 10
100.92711057321659
 20
109.4999999999999
 30
0.0
 11
100.92711057321659
 21
97.5
 31
0.0
  0
LINE
  5
27B
  8
0
 10
95.227110573216706
 20
113.5
 30
0.0
 11
95.227110573216706
 21
93.499999999999986
 31
0.0
  0
LINE
  5
27C
  8
2
 10
92.077110573216643
 20
100.9999999999999
 30
0.0
 11
92.077110573216686
 21
106.0
 31
0.0
  0
LINE
  5
27D
  8
2
 10
101.7771105732166
 20
99.999999999999986
 30
0.0
 11
93.077110573216657
 21
99.999999999999986
 31
0.0
  0
LINE
  5
27E
  8
2
 10
93.077110573216657
 20
99.999999999999986
 30
0.0
 11
92.077110573216643
 21
100.9999999999999
 31
0.0
  0
LINE
  5
27F
  8
2
 10
89.177110573216694
 20
109.1999999999999
 30
0.0
 11
89.17711057321668
 21
97.799999999999983
 31
0.0
  0
LINE
  5
280
  8
2
 10
89.17711057321668
 20
97.799999999999983
 30
0.0
 11
88.677110573216694
 21
97.799999999999983
 31
0.0
  0
LINE
  5
281
  8
2
 10
88.677110573216694
 20
97.799999999999983
 30
0.0
 11
88.677110573216694
 21
109.1999999999999
 31
0.0
  0
LINE
  5
282
  8
2
 10
86.077110573216672
 20
95.5
 30
0.0
 11
88.677110573216694
 21
97.799999999999983
 31
0.0
  0
LINE
  5
283
  8
0
 10
86.077110573216686
 20
94.349999999999994
 30
0.0
 11
86.077110573216672
 21
112.64999999999991
 31
0.0
  0
LINE
  5
284
  8
2
 10
101.6101105732164
 20
100.9999999999999
 30
0.0
 11
97.077110573216672
 21
100.9999999999999
 31
0.0
  0
LINE
  5
285
  8
2
 10
101.17711057321659
 20
101.43299999999969
 30
0.0
 11
95.077110573216672
 21
101.43299999999969
 31
0.0
  0
LINE
  5
286
  8
2
 10
95.077110573216615
 20
101.43299999999969
 30
0.0
 11
93.835131673686547
 21
103.4999999999999
 31
0.0
  0
LINE
  5
287
  8
2
 10
95.077110573216672
 20
101.43299999999969
 30
0.0
 11
95.077110573216672
 21
105.56700000000021
 31
0.0
  0
LINE
  5
288
  8
2
 10
97.077110573216672
 20
101.0000000000001
 30
0.0
 11
96.327132573539728
 21
101.43299999999989
 31
0.0
  0
LINE
  5
289
  8
2
 10
102.0771105732167
 20
100.5329999999996
 30
0.0
 11
101.17711057321659
 21
101.43299999999969
 31
0.0
  0
LINE
  5
28A
  8
2
 10
101.17711057321659
 20
101.43299999999969
 30
0.0
 11
101.17711057321659
 21
105.56700000000021
 31
0.0
  0
LINE
  5
28B
  8
2
 10
97.077110573216956
 20
100.9999999999999
 30
0.0
 11
97.077110573216956
 21
106.0
 31
0.0
  0
LINE
  5
28C
  8
0
 10
101.7771105732166
 20
99.999999999999943
 30
0.0
 11
102.0771105732166
 21
99.999999999999943
 31
0.0
  0
LINE
  5
28D
  8
2
 10
86.077110573216672
 20
111.4999999999999
 30
0.0
 11
88.677110573216694
 21
109.1999999999999
 31
0.0
  0
LINE
  5
28E
  8
2
 10
89.17711057321668
 20
109.1999999999999
 30
0.0
 11
88.677110573216694
 21
109.1999999999999
 31
0.0
  0
LINE
  5
28F
  8
2
 10
93.077110573216657
 20
107.0
 30
0.0
 11
92.077110573216643
 21
106.0
 31
0.0
  0
LINE
  5
290
  8
2
 10
101.7771105732166
 20
107.0
 30
0.0
 11
93.077110573216657
 21
107.0
 31
0.0
  0
LINE
  5
291
  8
2
 10
101.17711057321659
 20
105.56700000000021
 30
0.0
 11
95.077110573216672
 21
105.56700000000021
 31
0.0
  0
LINE
  5
292
  8
2
 10
95.077110573216615
 20
105.56700000000021
 30
0.0
 11
93.835131673686547
 21
103.4999999999999
 31
0.0
  0
LINE
  5
293
  8
2
 10
97.077110573216672
 20
105.9999999999998
 30
0.0
 11
96.327132573539728
 21
105.56699999999999
 31
0.0
  0
LINE
  5
294
  8
2
 10
101.6101105732164
 20
106.0
 30
0.0
 11
97.077110573216672
 21
106.0
 31
0.0
  0
LINE
  5
295
  8
2
 10
102.0771105732167
 20
106.4670000000002
 30
0.0
 11
101.17711057321659
 21
105.56700000000021
 31
0.0
  0
LINE
  5
296
  8
0
 10
86.92711057321668
 20
113.4698630136987
 30
0.0
 11
86.92711057321668
 21
112.8191336471489
 31
0.0
  0
LINE
  5
297
  8
0
 10
86.92711057321668
 20
104.9621756141772
 30
0.0
 11
94.414457092797846
 21
104.9621756141772
 31
0.0
  0
LINE
  5
298
  8
0
 10
86.92711057321668
 20
106.4748308442722
 30
0.0
 11
94.377111526890886
 21
106.4748308442722
 31
0.0
  0
LINE
  5
299
  8
0
 10
86.92711057321668
 20
109.1095802598318
 30
0.0
 11
94.420493412710613
 21
109.1095802598318
 31
0.0
  0
LINE
  5
29A
  8
0
 10
86.92711057321668
 20
110.32263557010749
 30
0.0
 11
94.377110573216555
 21
110.32263557010749
 31
0.0
  0
LINE
  5
29B
  8
0
 10
86.92711057321668
 20
112.1459387380396
 30
0.0
 11
94.443141534766525
 21
112.1459387380396
 31
0.0
  0
LINE
  5
29C
  8
0
 10
86.92711057321668
 20
112.8191336471489
 30
0.0
 11
94.377111247566106
 21
112.8191336471489
 31
0.0
  0
LINE
  5
29D
  8
0
 10
86.92711057321668
 20
113.4698630136987
 30
0.0
 11
94.377110293893125
 21
113.4698630136987
 31
0.0
  0
POLYLINE
  5
29E
  8
0
 66
     1
 10
0.0
 20
0.0
 30
0.0
  0
VERTEX
  5
29F
  8
0
 10
86.527110573216774
 20
105.6584530593765
 30
0.0
 42
0.0584700367089559
 50
89.999999999999986
  0
VERTEX
  5
2A0
  8
0
 10
86.559925366803682
 20
105.37880035168401
 30
0.0
 42
0.0720824478963223
 50
89.999999999999986
  0
VERTEX
  5
2A1
  8
0
 10
86.644267860742147
 20
105.1661105562888
 30
0.0
 42
0.1065647653260566
 70
     2
 50
299.8766627056379
  0
VERTEX
  5
2A2
  8
0
 10
86.796346632059766
 20
104.997459777505
 30
0.0
 42
0.182558189136383
 50
299.8766627056379
  0
VERTEX
  5
2A3
  8
0
 10
86.927110573216694
 20
104.9621756141772
 30
0.0
 42
0.1574556497505599
 50
89.999999999999986
  0
SEQEND
  5
2A4
  8
0
  0
POLYLINE
  5
2A5
  8
0
 66
     1
 10
0.0
 20
0.0
 30
0.0
  0
VERTEX
  5
2A6
  8
0
 10
86.927110573216638
 20
106.4748308442722
 30
0.0
 42
0.1772752497286819
 50
89.999999999999986
  0
VERTEX
  5
2A7
  8
0
 10
86.792218011939724
 20
106.4254528407719
 30
0.0
 42
0.1037184546977616
 50
89.999999999999986
  0
VERTEX
  5
2A8
  8
0
 10
86.644267860742104
 20
106.2357193270863
 30
0.0
 42
0.0639265016304787
 70
     2
 50
243.89656735805221
  0
VERTEX
  5
2A9
  8
0
 10
86.560305884439771
 20
105.9889125020851
 30
0.0
 42
0.0500999315019023
 50
243.89656735805221
  0
VERTEX
  5
2AA
  8
0
 10
86.527110573216774
 20
105.6584530593765
 30
0.0
 42
0.0500999315019139
 50
89.999999999999986
  0
SEQEND
  5
2AB
  8
0
  0
POLYLINE
  5
2AC
  8
0
 66
     1
 10
0.0
 20
0.0
 30
0.0
  0
VERTEX
  5
2AD
  8
0
 10
86.527110573216774
 20
109.5478510780304
 30
0.0
 42
0.0906057889765221
 50
89.999999999999986
  0
VERTEX
  5
2AE
  8
0
 10
86.558085253840858
 20
109.3783232964761
 30
0.0
 42
0.0948678514357048
 50
89.999999999999986
  0
VERTEX
  5
2AF
  8
0
 10
86.644267860742119
 20
109.23794681048599
 30
0.0
 42
0.1015910306527909
 70
     2
 50
312.38600612227208
  0
VERTEX
  5
2B0
  8
0
 10
86.786654976635646
 20
109.134449719831
 30
0.0
 42
0.1260613613634058
 50
312.38600612227208
  0
VERTEX
  5
2B1
  8
0
 10
86.92711057321668
 20
109.10958025983351
 30
0.0
 42
0.106916177055327
 50
89.999999999999986
  0
SEQEND
  5
2B2
  8
0
  0
POLYLINE
  5
2B3
  8
0
 66
     1
 10
0.0
 20
0.0
 30
0.0
  0
VERTEX
  5
2B4
  8
0
 10
86.92711057321668
 20
110.32263557010749
 30
0.0
 42
0.1706664605526735
 50
89.999999999999986
  0
VERTEX
  5
2B5
  8
0
 10
86.790649039025695
 20
110.2746593507263
 30
0.0
 42
0.10489829538605
 50
89.999999999999986
  0
VERTEX
  5
2B6
  8
0
 10
86.644267860743554
 20
110.09570644633629
 30
0.0
 42
0.066574804167348
 70
     2
 50
242.6939329161321
  0
VERTEX
  5
2B7
  8
0
 10
86.560191967734241
 20
109.8607416710593
 30
0.0
 42
0.0527172412625307
 50
242.6939329161321
  0
VERTEX
  5
2B8
  8
0
 10
86.527110573218806
 20
109.5478510780304
 30
0.0
 42
0.0527172412625443
 50
89.999999999999986
  0
SEQEND
  5
2B9
  8
0
  0
POLYLINE
  5
2BA
  8
0
 66
     1
 10
0.0
 20
0.0
 30
0.0
  0
VERTEX
  5
2BB
  8
0
 10
86.52711057321676
 20
112.2393980186545
 30
0.0
 50
89.999999999999986
  0
VERTEX
  5
2BC
  8
0
 10
86.542561528150344
 20
112.2129429254838
 30
0.0
 42
0.0711335724020575
 50
89.999999999999986
  0
VERTEX
  5
2BD
  8
0
 10
86.644267860742119
 20
112.1733123275669
 30
0.0
 42
0.033274958700216
 70
     2
 50
346.8488697635978
  0
VERTEX
  5
2BE
  8
0
 10
86.780022468572071
 20
112.1509855299678
 30
0.0
 42
0.0311009623782723
 50
346.8488697635978
  0
VERTEX
  5
2BF
  8
0
 10
86.92711057321668
 20
112.1459387380396
 30
0.0
 42
0.02412462334816
 50
89.999999999999986
  0
SEQEND
  5
2C0
  8
0
  0
POLYLINE
  5
2C1
  8
0
 66
     1
 10
0.0
 20
0.0
 30
0.0
  0
VERTEX
  5
2C2
  8
0
 10
86.92711057321668
 20
112.8191336471489
 30
0.0
 42
0.1359958379716637
 50
89.999999999999986
  0
VERTEX
  5
2C3
  8
0
 10
86.782467245903234
 20
112.7790505342592
 30
0.0
 42
0.1069468256299952
 50
89.999999999999986
  0
VERTEX
  5
2C4
  8
0
 10
86.644267860742119
 20
112.64933301285841
 30
0.0
 42
0.0815773277484804
 70
     2
 50
235.39550176240931
  0
VERTEX
  5
2C5
  8
0
 10
86.559344976902992
 20
112.4694910917237
 30
0.0
 42
0.069706093800654
 50
235.39550176240931
  0
VERTEX
  5
2C6
  8
0
 10
86.52711057321676
 20
112.2393980186545
 30
0.0
 42
0.0697060938006716
 50
89.999999999999986
  0
SEQEND
  5
2C7
  8
0
  0
POLYLINE
  5
2C8
  8
0
 66
     1
 10
0.0
 20
0.0
 30
0.0
  0
VERTEX
  5
2C9
  8
0
 10
86.527110573216774
 20
113.10000000000009
 30
0.0
 42
0.0916984344567795
 50
89.999999999999986
  0
VERTEX
  5
2CA
  8
0
 10
86.681609619200344
 20
113.128574916408
 30
0.0
 42
0.0954133203087169
 50
89.999999999999986
  0
VERTEX
  5
2CB
  8
0
 10
86.809953285691321
 20
113.2083303686023
 30
0.0
 42
0.1011842983975874
 70
     2
 50
42.758249336808582
  0
VERTEX
  5
2CC
  8
0
 10
86.904377320341524
 20
113.3398020632725
 30
0.0
 42
0.1246996945258645
 50
42.758249336808582
  0
VERTEX
  5
2CD
  8
0
 10
86.927110573207642
 20
113.4698630136987
 30
0.0
 42
0.1056807497133024
 50
89.999999999999986
  0
SEQEND
  5
2CE
  8
0
  0
LINE
  5
2CF
  8
0
 10
86.92711057321668
 20
109.1095802598318
 30
0.0
 11
86.92711057321668
 21
106.4748308442722
 31
0.0
  0
LINE
  5
2D0
  8
0
 10
86.92711057321668
 20
112.1459387380396
 30
0.0
 11
86.92711057321668
 21
110.32263557010749
 31
0.0
  0
POLYLINE
  5
2D1
  8
0
 66
     1
 10
0.0
 20
0.0
 30
0.0
  0
VERTEX
  5
2D2
  8
0
 10
94.377110573216555
 20
112.8191336471489
 30
0.0
 42
-0.1359958379716637
 50
89.999999999999986
  0
VERTEX
  5
2D3
  8
0
 10
94.521753900529987
 20
112.7790505342592
 30
0.0
 42
-0.1069468256299952
 50
89.999999999999986
  0
VERTEX
  5
2D4
  8
0
 10
94.659953285691103
 20
112.64933301285841
 30
0.0
 42
-0.0815773277484804
 70
     2
 50
304.60449823759069
  0
VERTEX
  5
2D5
  8
0
 10
94.74487616953023
 20
112.4694910917237
 30
0.0
 42
-0.069706093800654
 50
89.999999999999986
  0
VERTEX
  5
2D6
  8
0
 10
94.777110573216476
 20
112.2393980186545
 30
0.0
 42
-0.0697060938006716
 50
89.999999999999986
  0
SEQEND
  5
2D7
  8
0
  0
POLYLINE
  5
2D8
  8
0
 66
     1
 10
0.0
 20
0.0
 30
0.0
  0
VERTEX
  5
2D9
  8
0
 10
94.777110573216476
 20
112.2393980186545
 30
0.0
 50
89.999999999999986
  0
VERTEX
  5
2DA
  8
0
 10
94.761659618282877
 20
112.2129429254838
 30
0.0
 42
-0.0711335724020575
 50
89.999999999999986
  0
VERTEX
  5
2DB
  8
0
 10
94.659953285691103
 20
112.1733123275669
 30
0.0
 42
-0.033274958700216
 70
     2
 50
193.15113023640211
  0
VERTEX
  5
2DC
  8
0
 10
94.52419867786115
 20
112.1509855299678
 30
0.0
 42
-0.0311009623782723
 50
89.999999999999986
  0
VERTEX
  5
2DD
  8
0
 10
94.377110573216555
 20
112.1459387380396
 30
0.0
 42
-0.02412462334816
 50
89.999999999999986
  0
SEQEND
  5
2DE
  8
0
  0
POLYLINE
  5
2DF
  8
0
 66
     1
 10
0.0
 20
0.0
 30
0.0
  0
VERTEX
  5
2E0
  8
0
 10
94.377110573216555
 20
110.32263557010749
 30
0.0
 42
-0.1706664605526735
 50
89.999999999999986
  0
VERTEX
  5
2E1
  8
0
 10
94.513572107407541
 20
110.2746593507263
 30
0.0
 42
-0.10489829538605
 50
89.999999999999986
  0
VERTEX
  5
2E2
  8
0
 10
94.659953285689653
 20
110.09570644633629
 30
0.0
 42
-0.066574804167348
 70
     2
 50
297.30606708386779
  0
VERTEX
  5
2E3
  8
0
 10
94.74402917869898
 20
109.8607416710593
 30
0.0
 42
-0.0527172412625307
 50
89.999999999999986
  0
VERTEX
  5
2E4
  8
0
 10
94.777110573214415
 20
109.5478510780304
 30
0.0
 42
-0.0527172412625443
 50
89.999999999999986
  0
SEQEND
  5
2E5
  8
0
  0
POLYLINE
  5
2E6
  8
0
 66
     1
 10
0.0
 20
0.0
 30
0.0
  0
VERTEX
  5
2E7
  8
0
 10
94.777110573216447
 20
109.5478510780304
 30
0.0
 42
-0.0906057889765221
 50
89.999999999999986
  0
VERTEX
  5
2E8
  8
0
 10
94.746135892592335
 20
109.3783232964761
 30
0.0
 42
-0.0948678514357048
 50
89.999999999999986
  0
VERTEX
  5
2E9
  8
0
 10
94.659953285691088
 20
109.23794681048599
 30
0.0
 42
-0.1015910306527909
 70
     2
 50
227.61399387772789
  0
VERTEX
  5
2EA
  8
0
 10
94.517566169797576
 20
109.134449719831
 30
0.0
 42
-0.1260613613634058
 50
89.999999999999986
  0
VERTEX
  5
2EB
  8
0
 10
94.377110573216555
 20
109.10958025983351
 30
0.0
 42
-0.106916177055327
 50
89.999999999999986
  0
SEQEND
  5
2EC
  8
0
  0
POLYLINE
  5
2ED
  8
0
 66
     1
 10
0.0
 20
0.0
 30
0.0
  0
VERTEX
  5
2EE
  8
0
 10
94.377110573216555
 20
106.4748308442722
 30
0.0
 42
-0.1772752497286819
 50
89.999999999999986
  0
VERTEX
  5
2EF
  8
0
 10
94.512003134493455
 20
106.4254528407719
 30
0.0
 42
-0.1037184546977616
 50
89.999999999999986
  0
VERTEX
  5
2F0
  8
0
 10
94.659953285691103
 20
106.2357193270863
 30
0.0
 42
-0.0639265016304787
 70
     2
 50
296.10343264194768
  0
VERTEX
  5
2F1
  8
0
 10
94.743915261993465
 20
105.9889125020851
 30
0.0
 42
-0.0500999315019023
 50
89.999999999999986
  0
VERTEX
  5
2F2
  8
0
 10
94.777110573216433
 20
105.6584530593765
 30
0.0
 42
-0.0500999315019139
 50
89.999999999999986
  0
SEQEND
  5
2F3
  8
0
  0
POLYLINE
  5
2F4
  8
0
 66
     1
 10
0.0
 20
0.0
 30
0.0
  0
VERTEX
  5
2F5
  8
0
 10
94.777110573216433
 20
105.6584530593765
 30
0.0
 42
-0.0584700367089559
 50
89.999999999999986
  0
VERTEX
  5
2F6
  8
0
 10
94.744295779629525
 20
105.37880035168401
 30
0.0
 42
-0.0720824478963223
 50
89.999999999999986
  0
VERTEX
  5
2F7
  8
0
 10
94.659953285691074
 20
105.1661105562888
 30
0.0
 42
-0.1065647653260566
 70
     2
 50
240.12333729436199
  0
VERTEX
  5
2F8
  8
0
 10
94.507874514373441
 20
104.997459777505
 30
0.0
 42
-0.182558189136383
 50
89.999999999999986
  0
VERTEX
  5
2F9
  8
0
 10
94.377110573216513
 20
104.9621756141772
 30
0.0
 42
-0.1574556497505599
 50
89.999999999999986
  0
SEQEND
  5
2FA
  8
0
  0
POLYLINE
  5
2FB
  8
0
 66
     1
 10
0.0
 20
0.0
 30
0.0
  0
VERTEX
  5
2FC
  8
0
 10
94.377111247566106
 20
113.4698630136987
 30
0.0
 42
0.0077996076981731
 50
89.999999999999986
  0
VERTEX
  5
2FD
  8
0
 10
94.542699218422086
 20
113.47244621326909
 30
0.0
 42
0.0110011230913692
 50
89.999999999999986
  0
VERTEX
  5
2FE
  8
0
 10
94.659953483203523
 20
113.47868993262171
 30
0.0
 42
0.0261873620692712
 70
     2
 50
4.3086721530160412
  0
VERTEX
  5
2FF
  8
0
 10
94.773170809079318
 20
113.49321115573559
 30
0.0
 50
4.3086721530160412
  0
VERTEX
  5
300
  8
0
 10
94.777110573216362
 20
113.5
 30
0.0
 50
89.999999999999986
  0
SEQEND
  5
301
  8
0
  0
POLYLINE
  5
302
  8
0
 66
     1
 10
0.0
 20
0.0
 30
0.0
  0
VERTEX
  5
303
  8
0
 10
94.377111247566106
 20
93.530136986301244
 30
0.0
 42
-0.0077996076981731
 50
89.999999999999986
  0
VERTEX
  5
304
  8
0
 10
94.542699218422086
 20
93.527553786730806
 30
0.0
 42
-0.0110011230913692
 50
89.999999999999986
  0
VERTEX
  5
305
  8
0
 10
94.659953483203509
 20
93.521310067378195
 30
0.0
 42
-0.0261873620692712
 70
     2
 50
355.691327846984
  0
VERTEX
  5
306
  8
0
 10
94.773170809079303
 20
93.506788844264321
 30
0.0
 50
89.999999999999986
  0
VERTEX
  5
307
  8
0
 10
94.777110573216362
 20
93.499999999999986
 30
0.0
 50
89.999999999999986
  0
SEQEND
  5
308
  8
0
  0
POLYLINE
  5
309
  8
0
 66
     1
 10
0.0
 20
0.0
 30
0.0
  0
VERTEX
  5
30A
  8
0
 10
94.777110573216433
 20
101.3415469406234
 30
0.0
 42
0.0584700367089559
 50
89.999999999999986
  0
VERTEX
  5
30B
  8
0
 10
94.744295779629525
 20
101.62119964831579
 30
0.0
 42
0.0720824478963223
 50
89.999999999999986
  0
VERTEX
  5
30C
  8
0
 10
94.659953285691074
 20
101.8338894437111
 30
0.0
 42
0.1065647653260566
 70
     2
 50
119.8766627056379
  0
VERTEX
  5
30D
  8
0
 10
94.507874514373441
 20
102.0025402224949
 30
0.0
 42
0.182558189136383
 50
89.999999999999986
  0
VERTEX
  5
30E
  8
0
 10
94.377110573216513
 20
102.0378243858227
 30
0.0
 42
0.1574556497505599
 50
89.999999999999986
  0
SEQEND
  5
30F
  8
0
  0
POLYLINE
  5
310
  8
0
 66
     1
 10
0.0
 20
0.0
 30
0.0
  0
VERTEX
  5
311
  8
0
 10
94.377110573216555
 20
100.5251691557277
 30
0.0
 42
0.1772752497286819
 50
89.999999999999986
  0
VERTEX
  5
312
  8
0
 10
94.512003134493455
 20
100.574547159228
 30
0.0
 42
0.1037184546977616
 50
89.999999999999986
  0
VERTEX
  5
313
  8
0
 10
94.659953285691103
 20
100.7642806729136
 30
0.0
 42
0.0639265016304787
 70
     2
 50
63.896567358052259
  0
VERTEX
  5
314
  8
0
 10
94.743915261993465
 20
101.0110874979148
 30
0.0
 42
0.0500999315019023
 50
89.999999999999986
  0
VERTEX
  5
315
  8
0
 10
94.777110573216433
 20
101.3415469406234
 30
0.0
 42
0.0500999315019139
 50
89.999999999999986
  0
SEQEND
  5
316
  8
0
  0
POLYLINE
  5
317
  8
0
 66
     1
 10
0.0
 20
0.0
 30
0.0
  0
VERTEX
  5
318
  8
0
 10
94.777110573216447
 20
97.452148921969524
 30
0.0
 42
0.0906057889765221
 50
89.999999999999986
  0
VERTEX
  5
319
  8
0
 10
94.746135892592335
 20
97.621676703523804
 30
0.0
 42
0.0948678514357048
 50
89.999999999999986
  0
VERTEX
  5
31A
  8
0
 10
94.659953285691088
 20
97.762053189513921
 30
0.0
 42
0.1015910306527909
 70
     2
 50
132.38600612227211
  0
VERTEX
  5
31B
  8
0
 10
94.517566169797576
 20
97.865550280168947
 30
0.0
 42
0.1260613613634058
 50
89.999999999999986
  0
VERTEX
  5
31C
  8
0
 10
94.377110573216555
 20
97.890419740166465
 30
0.0
 42
0.106916177055327
 50
89.999999999999986
  0
SEQEND
  5
31D
  8
0
  0
POLYLINE
  5
31E
  8
0
 66
     1
 10
0.0
 20
0.0
 30
0.0
  0
VERTEX
  5
31F
  8
0
 10
94.377110573216555
 20
96.677364429892364
 30
0.0
 42
0.1706664605526735
 50
89.999999999999986
  0
VERTEX
  5
320
  8
0
 10
94.513572107407526
 20
96.725340649273605
 30
0.0
 42
0.10489829538605
 50
89.999999999999986
  0
VERTEX
  5
321
  8
0
 10
94.659953285689653
 20
96.904293553663607
 30
0.0
 42
0.066574804167348
 70
     2
 50
62.693932916132141
  0
VERTEX
  5
322
  8
0
 10
94.74402917869898
 20
97.139258328940684
 30
0.0
 42
0.0527172412625307
 50
89.999999999999986
  0
VERTEX
  5
323
  8
0
 10
94.777110573214415
 20
97.452148921969524
 30
0.0
 42
0.0527172412625443
 50
89.999999999999986
  0
SEQEND
  5
324
  8
0
  0
POLYLINE
  5
325
  8
0
 66
     1
 10
0.0
 20
0.0
 30
0.0
  0
VERTEX
  5
326
  8
0
 10
94.777110573216447
 20
94.760601981345374
 30
0.0
 50
89.999999999999986
  0
VERTEX
  5
327
  8
0
 10
94.761659618282877
 20
94.787057074516085
 30
0.0
 42
0.0711335724020575
 50
89.999999999999986
  0
VERTEX
  5
328
  8
0
 10
94.659953285691088
 20
94.826687672433025
 30
0.0
 42
0.033274958700216
 70
     2
 50
166.84886976359789
  0
VERTEX
  5
329
  8
0
 10
94.524198677861136
 20
94.849014470032145
 30
0.0
 42
0.0311009623782723
 50
89.999999999999986
  0
VERTEX
  5
32A
  8
0
 10
94.377110573216555
 20
94.854061261960297
 30
0.0
 42
0.02412462334816
 50
89.999999999999986
  0
SEQEND
  5
32B
  8
0
  0
POLYLINE
  5
32C
  8
0
 66
     1
 10
0.0
 20
0.0
 30
0.0
  0
VERTEX
  5
32D
  8
0
 10
94.377110573216555
 20
94.180866352850984
 30
0.0
 42
0.1359958379716637
 50
89.999999999999986
  0
VERTEX
  5
32E
  8
0
 10
94.521753900529987
 20
94.220949465740716
 30
0.0
 42
0.1069468256299952
 50
89.999999999999986
  0
VERTEX
  5
32F
  8
0
 10
94.659953285691103
 20
94.350666987141551
 30
0.0
 42
0.0815773277484804
 70
     2
 50
55.395501762409282
  0
VERTEX
  5
330
  8
0
 10
94.74487616953023
 20
94.530508908276204
 30
0.0
 42
0.069706093800654
 50
89.999999999999986
  0
VERTEX
  5
331
  8
0
 10
94.777110573216476
 20
94.760601981345374
 30
0.0
 42
0.0697060938006716
 50
89.999999999999986
  0
SEQEND
  5
332
  8
0
  0
LINE
  5
333
  8
0
 10
86.92711057321668
 20
94.854061261960297
 30
0.0
 11
86.92711057321668
 21
96.677364429892364
 31
0.0
  0
LINE
  5
334
  8
0
 10
86.92711057321668
 20
97.890419740168142
 30
0.0
 11
86.92711057321668
 21
100.5251691557277
 31
0.0
  0
POLYLINE
  5
335
  8
0
 66
     1
 10
0.0
 20
0.0
 30
0.0
  0
VERTEX
  5
336
  8
0
 10
86.527110573216774
 20
93.899999999999864
 30
0.0
 42
-0.0916984344567795
 50
89.999999999999986
  0
VERTEX
  5
337
  8
0
 10
86.681609619200344
 20
93.871425083591902
 30
0.0
 42
-0.0954133203087169
 50
89.999999999999986
  0
VERTEX
  5
338
  8
0
 10
86.809953285691321
 20
93.791669631397639
 30
0.0
 42
-0.1011842983975874
 70
     2
 50
317.24175066319151
  0
VERTEX
  5
339
  8
0
 10
86.904377320341524
 20
93.660197936727457
 30
0.0
 42
-0.1246996945258645
 50
89.999999999999986
  0
VERTEX
  5
33A
  8
0
 10
86.927110573207642
 20
93.530136986301244
 30
0.0
 42
-0.1056807497133024
 50
89.999999999999986
  0
SEQEND
  5
33B
  8
0
  0
POLYLINE
  5
33C
  8
0
 66
     1
 10
0.0
 20
0.0
 30
0.0
  0
VERTEX
  5
33D
  8
0
 10
86.92711057321668
 20
94.180866352850984
 30
0.0
 42
-0.1359958379716637
 50
89.999999999999986
  0
VERTEX
  5
33E
  8
0
 10
86.782467245903234
 20
94.220949465740716
 30
0.0
 42
-0.1069468256299952
 50
89.999999999999986
  0
VERTEX
  5
33F
  8
0
 10
86.644267860742119
 20
94.350666987141551
 30
0.0
 42
-0.0815773277484804
 70
     2
 50
124.6044982375907
  0
VERTEX
  5
340
  8
0
 10
86.559344976902992
 20
94.530508908276204
 30
0.0
 42
-0.069706093800654
 50
89.999999999999986
  0
VERTEX
  5
341
  8
0
 10
86.52711057321676
 20
94.760601981345374
 30
0.0
 42
-0.0697060938006716
 50
89.999999999999986
  0
SEQEND
  5
342
  8
0
  0
POLYLINE
  5
343
  8
0
 66
     1
 10
0.0
 20
0.0
 30
0.0
  0
VERTEX
  5
344
  8
0
 10
86.52711057321676
 20
94.760601981345374
 30
0.0
 50
89.999999999999986
  0
VERTEX
  5
345
  8
0
 10
86.542561528150344
 20
94.787057074516085
 30
0.0
 42
-0.0711335724020575
 50
89.999999999999986
  0
VERTEX
  5
346
  8
0
 10
86.644267860742119
 20
94.826687672433025
 30
0.0
 42
-0.033274958700216
 70
     2
 50
13.1511302364021
  0
VERTEX
  5
347
  8
0
 10
86.780022468572071
 20
94.849014470032145
 30
0.0
 42
-0.0311009623782723
 50
89.999999999999986
  0
VERTEX
  5
348
  8
0
 10
86.92711057321668
 20
94.854061261960297
 30
0.0
 42
-0.02412462334816
 50
89.999999999999986
  0
SEQEND
  5
349
  8
0
  0
POLYLINE
  5
34A
  8
0
 66
     1
 10
0.0
 20
0.0
 30
0.0
  0
VERTEX
  5
34B
  8
0
 10
86.92711057321668
 20
96.677364429892364
 30
0.0
 42
-0.1706664605526735
 50
89.999999999999986
  0
VERTEX
  5
34C
  8
0
 10
86.790649039025695
 20
96.725340649273605
 30
0.0
 42
-0.10489829538605
 50
89.999999999999986
  0
VERTEX
  5
34D
  8
0
 10
86.644267860743554
 20
96.904293553663607
 30
0.0
 42
-0.066574804167348
 70
     2
 50
117.3060670838679
  0
VERTEX
  5
34E
  8
0
 10
86.560191967734241
 20
97.139258328940684
 30
0.0
 42
-0.0527172412625307
 50
89.999999999999986
  0
VERTEX
  5
34F
  8
0
 10
86.527110573218806
 20
97.452148921969524
 30
0.0
 42
-0.0527172412625443
 50
89.999999999999986
  0
SEQEND
  5
350
  8
0
  0
POLYLINE
  5
351
  8
0
 66
     1
 10
0.0
 20
0.0
 30
0.0
  0
VERTEX
  5
352
  8
0
 10
86.527110573216774
 20
97.452148921969524
 30
0.0
 42
-0.0906057889765221
 50
89.999999999999986
  0
VERTEX
  5
353
  8
0
 10
86.558085253840858
 20
97.621676703523804
 30
0.0
 42
-0.0948678514357048
 50
89.999999999999986
  0
VERTEX
  5
354
  8
0
 10
86.644267860742119
 20
97.762053189513921
 30
0.0
 42
-0.1015910306527909
 70
     2
 50
47.613993877727957
  0
VERTEX
  5
355
  8
0
 10
86.786654976635646
 20
97.865550280168947
 30
0.0
 42
-0.1260613613634058
 50
89.999999999999986
  0
VERTEX
  5
356
  8
0
 10
86.92711057321668
 20
97.890419740166465
 30
0.0
 42
-0.106916177055327
 50
89.999999999999986
  0
SEQEND
  5
357
  8
0
  0
POLYLINE
  5
358
  8
0
 66
     1
 10
0.0
 20
0.0
 30
0.0
  0
VERTEX
  5
359
  8
0
 10
86.927110573216638
 20
100.5251691557277
 30
0.0
 42
-0.1772752497286819
 50
89.999999999999986
  0
VERTEX
  5
35A
  8
0
 10
86.792218011939724
 20
100.574547159228
 30
0.0
 42
-0.1037184546977616
 50
89.999999999999986
  0
VERTEX
  5
35B
  8
0
 10
86.644267860742104
 20
100.7642806729136
 30
0.0
 42
-0.0639265016304787
 70
     2
 50
116.10343264194771
  0
VERTEX
  5
35C
  8
0
 10
86.560305884439771
 20
101.0110874979148
 30
0.0
 42
-0.0500999315019023
 50
89.999999999999986
  0
VERTEX
  5
35D
  8
0
 10
86.527110573216774
 20
101.3415469406234
 30
0.0
 42
-0.0500999315019139
 50
89.999999999999986
  0
SEQEND
  5
35E
  8
0
  0
POLYLINE
  5
35F
  8
0
 66
     1
 10
0.0
 20
0.0
 30
0.0
  0
VERTEX
  5
360
  8
0
 10
86.527110573216774
 20
101.3415469406234
 30
0.0
 42
-0.0584700367089559
 50
89.999999999999986
  0
VERTEX
  5
361
  8
0
 10
86.559925366803682
 20
101.62119964831579
 30
0.0
 42
-0.0720824478963223
 50
89.999999999999986
  0
VERTEX
  5
362
  8
0
 10
86.644267860742147
 20
101.8338894437111
 30
0.0
 42
-0.1065647653260566
 70
     2
 50
60.123337294362067
  0
VERTEX
  5
363
  8
0
 10
86.796346632059766
 20
102.0025402224949
 30
0.0
 42
-0.182558189136383
 50
89.999999999999986
  0
VERTEX
  5
364
  8
0
 10
86.927110573216694
 20
102.0378243858227
 30
0.0
 42
-0.1574556497505599
 50
89.999999999999986
  0
SEQEND
  5
365
  8
0
  0
LINE
  5
366
  8
0
 10
86.92711057321668
 20
93.530136986301244
 30
0.0
 11
94.377110293893125
 21
93.530136986301244
 31
0.0
  0
LINE
  5
367
  8
0
 10
86.92711057321668
 20
94.180866352850984
 30
0.0
 11
94.377111247566106
 21
94.180866352850984
 31
0.0
  0
LINE
  5
368
  8
0
 10
86.92711057321668
 20
94.854061261960297
 30
0.0
 11
94.443141534766525
 21
94.854061261960283
 31
0.0
  0
LINE
  5
369
  8
0
 10
86.92711057321668
 20
96.677364429892364
 30
0.0
 11
94.377110573216555
 21
96.677364429892407
 31
0.0
  0
LINE
  5
36A
  8
0
 10
86.92711057321668
 20
97.890419740168113
 30
0.0
 11
94.420493412710613
 21
97.890419740168113
 31
0.0
  0
LINE
  5
36B
  8
0
 10
86.92711057321668
 20
100.5251691557277
 30
0.0
 11
94.377111526890886
 21
100.5251691557277
 31
0.0
  0
LINE
  5
36C
  8
0
 10
86.92711057321668
 20
102.0378243858227
 30
0.0
 11
94.414457092797846
 21
102.0378243858227
 31
0.0
  0
LINE
  5
36D
  8
0
 10
86.92711057321668
 20
93.530136986301244
 30
0.0
 11
86.92711057321668
 21
94.180866352850984
 31
0.0
  0
LINE
  5
36E
  8
0
 10
86.077110573216672
 20
94.349999999999994
 30
0.0
 11
86.527110573216774
 21
93.899999999999892
 31
0.0
  0
LINE
  5
36F
  8
0
 10
94.777110573216333
 20
93.499999999999986
 30
0.0
 11
95.227110573216706
 21
93.499999999999986
 31
0.0
  0
LINE
  5
370
  8
0
 10
86.927110573216694
 20
102.0378243858227
 30
0.0
 11
86.92711057321668
 21
104.9621756141772
 31
0.0
  0
LINE
  5
371
  8
1
 10
104.5771105732166
 20
103.4999999999999
 30
0.0
 11
83.577110573216672
 21
103.4999999999999
 31
0.0
  0
LINE
  5
372
  8
1
 10
143.5
 20
54.999999999999993
 30
0.0
 11
143.5
 21
79.999999999999986
 31
0.0
  0
LINE
  5
373
  8
1
 10
131.0
 20
67.5
 30
0.0
 11
155.99999999999989
 21
67.499999999999986
 31
0.0
  0
CIRCLE
  5
374
  8
0
 10
143.5
 20
67.499999999999986
 30
0.0
 40
10.0
  0
CIRCLE
  5
375
  8
0
 10
143.5
 20
67.499999999999986
 30
0.0
 40
2.0669999999999988
  0
CIRCLE
  5
376
  8
3
 10
143.5
 20
67.499999999999986
 30
0.0
 40
2.5
  0
CIRCLE
  5
377
  8
0
 10
143.5
 20
67.499999999999986
 30
0.0
 40
3.500000000000056
  0
CIRCLE
  5
378
  8
0
 10
143.5
 20
67.499999999999986
 30
0.0
 40
5.1499999999999631
  0
CIRCLE
  5
379
  8
0
 10
143.5
 20
67.499999999999986
 30
0.0
 40
5.9999999999999849
  0
CIRCLE
  5
37A
  8
0
 10
143.5
 20
67.499999999999986
 30
0.0
 40
9.1500000000000341
  0
ENDSEC
  0
EOF
