  0
SECTION
  2
HEADER
  9
$ACADVER
  1
AC1009
  9
$INSBASE
 10
0.0
 20
0.0
 30
0.0
  9
$EXTMIN
 10
15.0
 20
2.966667
 30
0.0
  9
$EXTMAX
 10
190.77
 20
105.0
 30
0.0
  9
$LIMMIN
 10
0.0
 20
0.0
  9
$LIMMAX
 10
220.0
 20
170.0
  9
$ORTHOMODE
 70
     1
  9
$REGENMODE
 70
     1
  9
$FILLMODE
 70
     1
  9
$QTEXTMODE
 70
     0
  9
$MIRRTEXT
 70
     1
  9
$DRAGMODE
 70
     2
  9
$LTSCALE
 40
1.0
  9
$OSMODE
 70
     0
  9
$ATTMODE
 70
     1
  9
$TEXTSIZE
 40
7.0
  9
$TRACEWID
 40
1.0
  9
$TEXTSTYLE
  7
STANDARD
  9
$CLAYER
  8
0
  9
$CELTYPE
  6
BYLAYER
  9
$CECOLOR
 62
   256
  9
$DIMSCALE
 40
1.0
  9
$DIMASZ
 40
2.5
  9
$DIMEXO
 40
0.625
  9
$DIMDLI
 40
3.75
  9
$DIMRND
 40
0.0
  9
$DIMDLE
 40
0.0
  9
$DIMEXE
 40
1.25
  9
$DIMTP
 40
0.0
  9
$DIMTM
 40
0.0
  9
$DIMTXT
 40
2.5
  9
$DIMCEN
 40
2.5
  9
$DIMTSZ
 40
0.0
  9
$DIMTOL
 70
     0
  9
$DIMLIM
 70
     0
  9
$DIMTIH
 70
     1
  9
$DIMTOH
 70
     0
  9
$DIMSE1
 70
     0
  9
$DIMSE2
 70
     0
  9
$DIMTAD
 70
     1
  9
$DIMZIN
 70
     8
  9
$DIMBLK
  1

  9
$DIMASO
 70
     1
  9
$DIMSHO
 70
     1
  9
$DIMPOST
  1

  9
$DIMAPOST
  1

  9
$DIMALT
 70
     0
  9
$DIMALTD
 70
     2
  9
$DIMALTF
 40
0.0394
  9
$DIMLFAC
 40
1.0
  9
$DIMTOFL
 70
     1
  9
$DIMTVP
 40
1.0
  9
$DIMTIX
 70
     0
  9
$DIMSOXD
 70
     0
  9
$DIMSAH
 70
     0
  9
$DIMBLK1
  1

  9
$DIMBLK2
  1

  9
$DIMSTYLE
  2
ISO-25
  9
$DIMCLRD
 70
     0
  9
$DIMCLRE
 70
     0
  9
$DIMCLRT
 70
     0
  9
$DIMTFAC
 40
1.0
  9
$DIMGAP
 40
0.625
  9
$LUNITS
 70
     2
  9
$LUPREC
 70
     4
  9
$SKETCHINC
 40
1.0
  9
$FILLETRAD
 40
0.5
  9
$AUNITS
 70
     0
  9
$AUPREC
 70
     0
  9
$MENU
  1
.
  9
$ELEVATION
 40
0.0
  9
$PELEVATION
 40
0.0
  9
$THICKNESS
 40
0.0
  9
$LIMCHECK
 70
     0
  9
$BLIPMODE
 70
     1
  9
$CHAMFERA
 40
0.5
  9
$CHAMFERB
 40
0.5
  9
$SKPOLY
 70
     0
  9
$TDCREATE
 40
2450687.604074
  9
$TDUPDATE
 40
2450687.604074
  9
$TDINDWG
 40
0.0
  9
$TDUSRTIMER
 40
0.0
  9
$USRTIMER
 70
     1
  9
$ANGBASE
 50
0.0
  9
$ANGDIR
 70
     0
  9
$PDMODE
 70
     0
  9
$PDSIZE
 40
0.0
  9
$PLINEWID
 40
0.0
  9
$COORDS
 70
     2
  9
$SPLFRAME
 70
     0
  9
$SPLINETYPE
 70
     6
  9
$SPLINESEGS
 70
     8
  9
$ATTDIA
 70
     0
  9
$ATTREQ
 70
     1
  9
$HANDLING
 70
     1
  9
$HANDSEED
  5
15C7
  9
$SURFTAB1
 70
     6
  9
$SURFTAB2
 70
     6
  9
$SURFTYPE
 70
     6
  9
$SURFU
 70
     6
  9
$SURFV
 70
     6
  9
$UCSNAME
  2

  9
$UCSORG
 10
0.0
 20
0.0
 30
0.0
  9
$UCSXDIR
 10
1.0
 20
0.0
 30
0.0
  9
$UCSYDIR
 10
0.0
 20
1.0
 30
0.0
  9
$PUCSNAME
  2

  9
$PUCSORG
 10
0.0
 20
0.0
 30
0.0
  9
$PUCSXDIR
 10
1.0
 20
0.0
 30
0.0
  9
$PUCSYDIR
 10
0.0
 20
1.0
 30
0.0
  9
$USERI1
 70
     0
  9
$USERI2
 70
     0
  9
$USERI3
 70
     0
  9
$USERI4
 70
     0
  9
$USERI5
 70
     0
  9
$USERR1
 40
0.0
  9
$USERR2
 40
0.0
  9
$USERR3
 40
0.0
  9
$USERR4
 40
0.0
  9
$USERR5
 40
0.0
  9
$WORLDVIEW
 70
     1
  9
$SHADEDGE
 70
     3
  9
$SHADEDIF
 70
    70
  9
$TILEMODE
 70
     1
  9
$MAXACTVP
 70
    16
  9
$PLIMCHECK
 70
     0
  9
$PEXTMIN
 10
1.000000E+020
 20
1.000000E+020
 30
1.000000E+020
  9
$PEXTMAX
 10
-1.000000E+020
 20
-1.000000E+020
 30
-1.000000E+020
  9
$PLIMMIN
 10
0.0
 20
0.0
  9
$PLIMMAX
 10
420.0
 20
297.0
  9
$UNITMODE
 70
     0
  9
$VISRETAIN
 70
     0
  9
$PLINEGEN
 70
     0
  9
$PSLTSCALE
 70
     1
  0
ENDSEC
  0
SECTION
  2
TABLES
  0
TABLE
  2
VPORT
 70
     2
  0
VPORT
  2
*ACTIVE
 70
     0
 10
0.0
 20
0.0
 11
1.0
 21
1.0
 12
131.824561
 22
97.390177
 13
0.0
 23
0.0
 14
0.25
 24
0.25
 15
0.5
 25
0.5
 16
0.0
 26
0.0
 36
1.0
 17
0.0
 27
0.0
 37
0.0
 40
194.780355
 41
1.353571
 42
50.0
 43
0.0
 44
0.0
 50
0.0
 51
0.0
 71
     0
 72
 20000
 73
     1
 74
     1
 75
     1
 76
     1
 77
     0
 78
     0
  0
ENDTAB
  0
TABLE
  2
LTYPE
 70
     3
  0
LTYPE
  2
CONTINUOUS
 70
     0
  3
Solid line
 72
    65
 73
     0
 40
0.0
  0
LTYPE
  2
TENSEN
 70
     0
  3

 72
    65
 73
     2
 40
2.5
 49
1.5
 49
-1.0
  0
LTYPE
  2
ITTEN
 70
     0
  3

 72
    65
 73
     4
 40
3.6
 49
2.0
 49
-0.5
 49
0.6
 49
-0.5
  0
ENDTAB
  0
TABLE
  2
LAYER
 70
     4
  0
LAYER
  2
0
 70
     0
 62
     7
  6
CONTINUOUS
  0
LAYER
  2
2
 70
     0
 62
     2
  6
TENSEN
  0
LAYER
  2
1
 70
     0
 62
     1
  6
ITTEN
  0
LAYER
  2
3
 70
     0
 62
     3
  6
CONTINUOUS
  0
ENDTAB
  0
TABLE
  2
STYLE
 70
     1
  0
STYLE
  2
STANDARD
 70
     0
 40
7.0
 41
0.8
 50
0.0
 71
     0
 42
7.0
  3
ISOCP
  4
B:\r13\com\fonts\bigfont.shx
  0
ENDTAB
  0
TABLE
  2
VIEW
 70
     0
  0
ENDTAB
  0
TABLE
  2
UCS
 70
     0
  0
ENDTAB
  0
TABLE
  2
APPID
 70
     1
  0
APPID
  2
ACAD
 70
     0
  0
ENDTAB
  0
TABLE
  2
DIMSTYLE
 70
     8
  0
DIMSTYLE
  2
STANDARD
 70
     0
  3

  4

  5

  6

  7

 40
1.0
 41
0.18
 42
0.0625
 43
0.38
 44
0.18
 45
0.0
 46
0.0
 47
0.0
 48
0.0
140
0.18
141
0.09
142
0.0
143
25.4
144
1.0
145
0.0
146
1.0
147
0.09
 71
     0
 72
     0
 73
     1
 74
     1
 75
     0
 76
     0
 77
     0
 78
     0
170
     0
171
     2
172
     0
173
     0
174
     0
175
     0
176
     0
177
     0
178
     0
  0
DIMSTYLE
  2
ISO-25
 70
     0
  3

  4

  5

  6

  7

 40
1.0
 41
2.5
 42
0.625
 43
3.75
 44
1.25
 45
0.0
 46
0.0
 47
0.0
 48
0.0
140
2.5
141
2.5
142
0.0
143
0.0394
144
1.0
145
1.0
146
1.0
147
0.625
 71
     0
 72
     0
 73
     1
 74
     0
 75
     0
 76
     0
 77
     1
 78
     8
170
     0
171
     2
172
     1
173
     0
174
     0
175
     0
176
     0
177
     0
178
     0
  0
DIMSTYLE
  2
ISO-35
 70
     0
  3

  4

  5

  6

  7

 40
1.0
 41
3.5
 42
0.875
 43
5.25
 44
1.75
 45
0.0
 46
0.0
 47
0.0
 48
0.0
140
3.5
141
3.5
142
0.0
143
0.0394
144
1.0
145
1.4
146
1.0
147
0.875
 71
     0
 72
     0
 73
     1
 74
     0
 75
     0
 76
     0
 77
     1
 78
     8
170
     0
171
     2
172
     1
173
     0
174
     0
175
     0
176
     0
177
     0
178
     0
  0
DIMSTYLE
  2
ISO-5
 70
     0
  3

  4

  5

  6

  7

 40
1.0
 41
5.0
 42
1.25
 43
7.5
 44
2.5
 45
0.0
 46
0.0
 47
0.0
 48
0.0
140
5.0
141
5.0
142
0.0
143
0.0394
144
1.0
145
2.0
146
1.0
147
1.25
 71
     0
 72
     0
 73
     1
 74
     0
 75
     0
 76
     0
 77
     1
 78
     8
170
     0
171
     2
172
     1
173
     0
174
     0
175
     0
176
     0
177
     0
178
     0
  0
DIMSTYLE
  2
ISO-7
 70
     0
  3

  4

  5

  6

  7

 40
1.0
 41
7.0
 42
1.75
 43
10.5
 44
3.5
 45
0.0
 46
0.0
 47
0.0
 48
0.0
140
7.0
141
7.0
142
0.0
143
0.0394
144
1.0
145
2.8
146
1.0
147
1.75
 71
     0
 72
     0
 73
     1
 74
     0
 75
     0
 76
     0
 77
     1
 78
     8
170
     0
171
     2
172
     1
173
     0
174
     0
175
     0
176
     0
177
     0
178
     0
  0
DIMSTYLE
  2
ISO1
 70
     0
  3

  4

  5

  6

  7

 40
1.0
 41
10.0
 42
2.5
 43
15.0
 44
5.0
 45
0.0
 46
0.0
 47
0.0
 48
0.0
140
10.0
141
10.0
142
0.0
143
0.0394
144
1.0
145
4.0
146
1.0
147
2.5
 71
     0
 72
     0
 73
     1
 74
     0
 75
     0
 76
     0
 77
     1
 78
     8
170
     0
171
     2
172
     1
173
     0
174
     0
175
     0
176
     0
177
     0
178
     0
  0
DIMSTYLE
  2
ISO1-4
 70
     0
  3

  4

  5

  6

  7

 40
1.0
 41
14.0
 42
3.5
 43
21.0
 44
7.0
 45
0.0
 46
0.0
 47
0.0
 48
0.0
140
14.0
141
14.0
142
0.0
143
0.0394
144
1.0
145
5.6
146
1.0
147
3.5
 71
     0
 72
     0
 73
     1
 74
     0
 75
     0
 76
     0
 77
     1
 78
     8
170
     0
171
     2
172
     1
173
     0
174
     0
175
     0
176
     0
177
     0
178
     0
  0
DIMSTYLE
  2
ISO2
 70
     0
  3

  4

  5

  6

  7

 40
1.0
 41
20.0
 42
5.0
 43
30.0
 44
10.0
 45
0.0
 46
0.0
 47
0.0
 48
0.0
140
20.0
141
20.0
142
0.0
143
0.0394
144
1.0
145
8.0
146
1.0
147
5.0
 71
     0
 72
     0
 73
     1
 74
     0
 75
     0
 76
     0
 77
     1
 78
     8
170
     0
171
     2
172
     1
173
     0
174
     0
175
     0
176
     0
177
     0
178
     0
  0
ENDTAB
  0
ENDSEC
  0
SECTION
  2
BLOCKS
  0
BLOCK
  8
0
  2
$MODEL_SPACE
 70
     0
 10
0.0
 20
0.0
 30
0.0
  3
$MODEL_SPACE
  1

  0
ENDBLK
  5
15C0
  8
0
  0
BLOCK
 67
     1
  8
0
  2
$PAPER_SPACE
 70
     0
 10
0.0
 20
0.0
 30
0.0
  3
$PAPER_SPACE
  1

  0
ENDBLK
  5
15BE
 67
     1
  8
0
  0
ENDSEC
  0
SECTION
  2
ENTITIES
  0
TEXT
  5
37
  8
0
 10
140.507298
 20
54.595271
 30
0.0
 40
4.55
  1
部品名称
 41
0.8
  0
TEXT
  5
38
  8
0
 10
140.507298
 20
38.635271
 30
0.0
 40
4.55
  1
品番
 41
0.8
  0
TEXT
  5
39
  8
0
 10
141.007298
 20
25.175271
 30
0.0
 40
4.55
  1
尺度
 41
0.8
  0
TEXT
  5
3A
  8
0
 10
141.507298
 20
10.715271
 30
0.0
 40
4.55
  1
図番
 41
0.8
  0
TEXT
  5
3F
  8
0
 10
140.6
 20
17.0
 30
0.0
 40
7.0
  1
１／１
 41
0.8
  0
TEXT
  5
ED2
  8
0
 10
140.75
 20
46.75
 30
0.0
 40
7.0
  1
ナールドナット
 41
0.8
  0
LINE
  5
1237
  8
1
 10
15.0
 20
90.0
 30
0.0
 11
45.75
 21
90.0
 31
0.0
  0
LINE
  5
1238
  8
1
 10
30.25
 20
105.0
 30
0.0
 11
30.25
 21
74.75
 31
0.0
  0
LINE
  5
1284
  8
0
 10
31.295869
 20
101.954336
 30
0.0
 11
31.529747
 21
101.68253
 31
0.0
  0
LINE
  5
1285
  8
0
 10
31.529747
 20
101.68253
 30
0.0
 11
31.840444
 21
101.887345
 31
0.0
  0
LINE
  5
1286
  8
0
 10
31.840444
 20
101.887345
 30
0.0
 11
32.005709
 21
101.603247
 31
0.0
  0
LINE
  5
1287
  8
0
 10
32.005709
 20
101.603247
 30
0.0
 11
32.333778
 21
101.817693
 31
0.0
  0
LINE
  5
1288
  8
0
 10
30.25
 20
102.0
 30
0.0
 11
30.506678
 21
101.749612
 31
0.0
  0
LINE
  5
1289
  8
0
 10
30.506678
 20
101.749612
 30
0.0
 11
30.798342
 21
101.980727
 31
0.0
  0
LINE
  5
128A
  8
0
 10
30.798342
 20
101.980727
 30
0.0
 11
30.987739
 21
101.712113
 31
0.0
  0
LINE
  5
128B
  8
0
 10
30.987739
 20
101.712113
 30
0.0
 11
31.295869
 21
101.954336
 31
0.0
  0
LINE
  5
128C
  8
0
 10
29.204131
 20
101.954336
 30
0.0
 11
29.481655
 21
101.727272
 31
0.0
  0
LINE
  5
128D
  8
0
 10
29.481655
 20
101.727272
 30
0.0
 11
29.752066
 21
101.982928
 31
0.0
  0
LINE
  5
128E
  8
0
 10
29.752066
 20
101.982928
 30
0.0
 11
29.964153
 21
101.731843
 31
0.0
  0
LINE
  5
128F
  8
0
 10
29.964153
 20
101.731843
 30
0.0
 11
30.25
 21
102.0
 31
0.0
  0
LINE
  5
1290
  8
0
 10
28.166222
 20
101.817693
 30
0.0
 11
28.46248
 21
101.61568
 31
0.0
  0
LINE
  5
1291
  8
0
 10
28.46248
 20
101.61568
 30
0.0
 11
28.70958
 21
101.893931
 31
0.0
  0
LINE
  5
1292
  8
0
 10
28.70958
 20
101.893931
 30
0.0
 11
28.942744
 21
101.662287
 31
0.0
  0
LINE
  5
1293
  8
0
 10
28.942744
 20
101.662287
 30
0.0
 11
29.204131
 21
101.954336
 31
0.0
  0
LINE
  5
1294
  8
0
 10
27.144171
 20
101.59111
 30
0.0
 11
27.456908
 21
101.415687
 31
0.0
  0
LINE
  5
1295
  8
0
 10
27.456908
 20
101.415687
 30
0.0
 11
27.678817
 21
101.714415
 31
0.0
  0
LINE
  5
1296
  8
0
 10
27.678817
 20
101.714415
 30
0.0
 11
27.931283
 21
101.503973
 31
0.0
  0
LINE
  5
1297
  8
0
 10
27.931283
 20
101.503973
 30
0.0
 11
28.166222
 21
101.817693
 31
0.0
  0
LINE
  5
1298
  8
0
 10
26.145758
 20
101.276311
 30
0.0
 11
26.472594
 21
101.128812
 31
0.0
  0
LINE
  5
1299
  8
0
 10
26.472594
 20
101.128812
 30
0.0
 11
26.667623
 21
101.445744
 31
0.0
  0
LINE
  5
129A
  8
0
 10
26.667623
 20
101.445744
 30
0.0
 11
26.937469
 21
101.258108
 31
0.0
  0
LINE
  5
129B
  8
0
 10
26.937469
 20
101.258108
 30
0.0
 11
27.144171
 21
101.59111
 31
0.0
  0
LINE
  5
129C
  8
0
 10
25.178581
 20
100.875693
 30
0.0
 11
25.517029
 21
100.757241
 31
0.0
  0
LINE
  5
129D
  8
0
 10
25.517029
 20
100.757241
 30
0.0
 11
25.683692
 21
101.089965
 31
0.0
  0
LINE
  5
129E
  8
0
 10
25.683692
 20
101.089965
 30
0.0
 11
25.968865
 21
100.926561
 31
0.0
  0
LINE
  5
129F
  8
0
 10
25.968865
 20
100.926561
 30
0.0
 11
26.145758
 21
101.276311
 31
0.0
  0
LINE
  5
12A0
  8
0
 10
24.25
 20
100.392305
 30
0.0
 11
24.597484
 21
100.303801
 31
0.0
  0
LINE
  5
12A1
  8
0
 10
24.597484
 20
100.303801
 30
0.0
 11
24.734515
 21
100.649785
 31
0.0
  0
LINE
  5
12A2
  8
0
 10
24.734515
 20
100.649785
 30
0.0
 11
25.032844
 21
100.511857
 31
0.0
  0
LINE
  5
12A3
  8
0
 10
25.032844
 20
100.511857
 30
0.0
 11
25.178581
 21
100.875693
 31
0.0
  0
LINE
  5
12A4
  8
0
 10
23.367083
 20
99.829825
 30
0.0
 11
23.720958
 21
99.771943
 31
0.0
  0
LINE
  5
12A5
  8
0
 10
23.720958
 20
99.771943
 30
0.0
 11
23.827313
 21
100.128553
 31
0.0
  0
LINE
  5
12A6
  8
0
 10
23.827313
 20
100.128553
 30
0.0
 11
24.136528
 21
100.017151
 31
0.0
  0
LINE
  5
12A7
  8
0
 10
24.136528
 20
100.017151
 30
0.0
 11
24.25
 21
100.392305
 31
0.0
  0
LINE
  5
12A8
  8
0
 10
22.536549
 20
99.192533
 30
0.0
 11
22.894122
 21
99.165714
 31
0.0
  0
LINE
  5
12A9
  8
0
 10
22.894122
 20
99.165714
 30
0.0
 11
22.968991
 21
99.530236
 31
0.0
  0
LINE
  5
12AA
  8
0
 10
22.968991
 20
99.530236
 30
0.0
 11
23.286739
 21
99.446208
 31
0.0
  0
LINE
  5
12AB
  8
0
 10
23.286739
 20
99.446208
 30
0.0
 11
23.367083
 21
99.829825
 31
0.0
  0
LINE
  5
12AC
  8
0
 10
21.764719
 20
98.485281
 30
0.0
 11
22.123268
 21
98.489729
 31
0.0
  0
LINE
  5
12AD
  8
0
 10
22.123268
 20
98.489729
 30
0.0
 11
22.166083
 21
98.859389
 31
0.0
  0
LINE
  5
12AE
  8
0
 10
22.166083
 20
98.859389
 30
0.0
 11
22.489945
 21
98.803375
 31
0.0
  0
LINE
  5
12AF
  8
0
 10
22.489945
 20
98.803375
 30
0.0
 11
22.536549
 21
99.192533
 31
0.0
  0
LINE
  5
12B0
  8
0
 10
21.057467
 20
97.713451
 30
0.0
 11
21.414264
 21
97.749131
 31
0.0
  0
LINE
  5
12B1
  8
0
 10
21.414264
 20
97.749131
 30
0.0
 11
21.424698
 21
98.121117
 31
0.0
  0
LINE
  5
12B2
  8
0
 10
21.424698
 20
98.121117
 30
0.0
 11
21.75221
 21
98.093542
 31
0.0
  0
LINE
  5
12B3
  8
0
 10
21.75221
 20
98.093542
 30
0.0
 11
21.764719
 21
98.485281
 31
0.0
  0
LINE
  5
12B4
  8
0
 10
20.420175
 20
96.882917
 30
0.0
 11
20.772506
 21
96.949559
 31
0.0
  0
LINE
  5
12B5
  8
0
 10
20.772506
 20
96.949559
 30
0.0
 11
20.750479
 21
97.321038
 31
0.0
  0
LINE
  5
12B6
  8
0
 10
20.750479
 20
97.321038
 30
0.0
 11
21.079148
 21
97.322112
 31
0.0
  0
LINE
  5
12B7
  8
0
 10
21.079148
 20
97.322112
 30
0.0
 11
21.057467
 21
97.713451
 31
0.0
  0
LINE
  5
12B8
  8
0
 10
19.857695
 20
96.0
 30
0.0
 11
20.202877
 21
96.097095
 31
0.0
  0
LINE
  5
12B9
  8
0
 10
20.202877
 20
96.097095
 30
0.0
 11
20.148557
 21
96.465241
 31
0.0
  0
LINE
  5
12BA
  8
0
 10
20.148557
 20
96.465241
 30
0.0
 11
20.475882
 21
96.494957
 31
0.0
  0
LINE
  5
12BB
  8
0
 10
20.475882
 20
96.494957
 30
0.0
 11
20.420175
 21
96.882917
 31
0.0
  0
LINE
  5
12BC
  8
0
 10
19.374307
 20
95.071419
 30
0.0
 11
19.709712
 21
95.19823
 31
0.0
  0
LINE
  5
12BD
  8
0
 10
19.709712
 20
95.19823
 30
0.0
 11
19.623513
 21
95.56024
 31
0.0
  0
LINE
  5
12BE
  8
0
 10
19.623513
 20
95.56024
 30
0.0
 11
19.947002
 21
95.618371
 31
0.0
  0
LINE
  5
12BF
  8
0
 10
19.947002
 20
95.618371
 30
0.0
 11
19.857695
 21
96.0
 31
0.0
  0
LINE
  5
12C0
  8
0
 10
18.973689
 20
94.104242
 30
0.0
 11
19.296765
 21
94.259802
 31
0.0
  0
LINE
  5
12C1
  8
0
 10
19.296765
 20
94.259802
 30
0.0
 11
19.179343
 21
94.612923
 31
0.0
  0
LINE
  5
12C2
  8
0
 10
19.179343
 20
94.612923
 30
0.0
 11
19.496535
 21
94.699026
 31
0.0
  0
LINE
  5
12C3
  8
0
 10
19.496535
 20
94.699026
 30
0.0
 11
19.374307
 21
95.071419
 31
0.0
  0
LINE
  5
12C4
  8
0
 10
18.65889
 20
93.105829
 30
0.0
 11
18.96718
 21
93.288955
 31
0.0
  0
LINE
  5
12C5
  8
0
 10
18.96718
 20
93.288955
 30
0.0
 11
18.819428
 21
93.630498
 31
0.0
  0
LINE
  5
12C6
  8
0
 10
18.819428
 20
93.630498
 30
0.0
 11
19.127908
 21
93.743919
 31
0.0
  0
LINE
  5
12C7
  8
0
 10
19.127908
 20
93.743919
 30
0.0
 11
18.973689
 21
94.104242
 31
0.0
  0
LINE
  5
12C8
  8
0
 10
18.432307
 20
92.083778
 30
0.0
 11
18.723463
 21
92.293077
 31
0.0
  0
LINE
  5
12C9
  8
0
 10
18.723463
 20
92.293077
 30
0.0
 11
18.546506
 21
92.620443
 31
0.0
  0
LINE
  5
12CA
  8
0
 10
18.546506
 20
92.620443
 30
0.0
 11
18.843927
 21
92.760318
 31
0.0
  0
LINE
  5
12CB
  8
0
 10
18.843927
 20
92.760318
 30
0.0
 11
18.65889
 21
93.105829
 31
0.0
  0
LINE
  5
12CC
  8
0
 10
18.295664
 20
91.045869
 30
0.0
 11
18.56747
 21
91.279747
 31
0.0
  0
LINE
  5
12CD
  8
0
 10
18.56747
 20
91.279747
 30
0.0
 11
18.362655
 21
91.590444
 31
0.0
  0
LINE
  5
12CE
  8
0
 10
18.362655
 20
91.590444
 30
0.0
 11
18.646753
 21
91.755709
 31
0.0
  0
LINE
  5
12CF
  8
0
 10
18.646753
 20
91.755709
 30
0.0
 11
18.432307
 21
92.083778
 31
0.0
  0
LINE
  5
12D0
  8
0
 10
18.25
 20
90.0
 30
0.0
 11
18.500388
 21
90.256678
 31
0.0
  0
LINE
  5
12D1
  8
0
 10
18.500388
 20
90.256678
 30
0.0
 11
18.269273
 21
90.548342
 31
0.0
  0
LINE
  5
12D2
  8
0
 10
18.269273
 20
90.548342
 30
0.0
 11
18.537887
 21
90.737739
 31
0.0
  0
LINE
  5
12D3
  8
0
 10
18.537887
 20
90.737739
 30
0.0
 11
18.295664
 21
91.045869
 31
0.0
  0
LINE
  5
12D4
  8
0
 10
18.295664
 20
88.954131
 30
0.0
 11
18.522728
 21
89.231655
 31
0.0
  0
LINE
  5
12D5
  8
0
 10
18.522728
 20
89.231655
 30
0.0
 11
18.267072
 21
89.502066
 31
0.0
  0
LINE
  5
12D6
  8
0
 10
18.267072
 20
89.502066
 30
0.0
 11
18.518157
 21
89.714153
 31
0.0
  0
LINE
  5
12D7
  8
0
 10
18.518157
 20
89.714153
 30
0.0
 11
18.25
 21
90.0
 31
0.0
  0
LINE
  5
12D8
  8
0
 10
18.432307
 20
87.916222
 30
0.0
 11
18.63432
 21
88.21248
 31
0.0
  0
LINE
  5
12D9
  8
0
 10
18.63432
 20
88.21248
 30
0.0
 11
18.356069
 21
88.45958
 31
0.0
  0
LINE
  5
12DA
  8
0
 10
18.356069
 20
88.45958
 30
0.0
 11
18.587713
 21
88.692744
 31
0.0
  0
LINE
  5
12DB
  8
0
 10
18.587713
 20
88.692744
 30
0.0
 11
18.295664
 21
88.954131
 31
0.0
  0
LINE
  5
12DC
  8
0
 10
18.65889
 20
86.894171
 30
0.0
 11
18.834313
 21
87.206908
 31
0.0
  0
LINE
  5
12DD
  8
0
 10
18.834313
 20
87.206908
 30
0.0
 11
18.535585
 21
87.428817
 31
0.0
  0
LINE
  5
12DE
  8
0
 10
18.535585
 20
87.428817
 30
0.0
 11
18.746027
 21
87.681283
 31
0.0
  0
LINE
  5
12DF
  8
0
 10
18.746027
 20
87.681283
 30
0.0
 11
18.432307
 21
87.916222
 31
0.0
  0
LINE
  5
12E0
  8
0
 10
18.973689
 20
85.895758
 30
0.0
 11
19.121188
 21
86.222594
 31
0.0
  0
LINE
  5
12E1
  8
0
 10
19.121188
 20
86.222594
 30
0.0
 11
18.804256
 21
86.417623
 31
0.0
  0
LINE
  5
12E2
  8
0
 10
18.804256
 20
86.417623
 30
0.0
 11
18.991892
 21
86.687469
 31
0.0
  0
LINE
  5
12E3
  8
0
 10
18.991892
 20
86.687469
 30
0.0
 11
18.65889
 21
86.894171
 31
0.0
  0
LINE
  5
12E4
  8
0
 10
19.374307
 20
84.928581
 30
0.0
 11
19.492759
 21
85.267029
 31
0.0
  0
LINE
  5
12E5
  8
0
 10
19.492759
 20
85.267029
 30
0.0
 11
19.160035
 21
85.433692
 31
0.0
  0
LINE
  5
12E6
  8
0
 10
19.160035
 20
85.433692
 30
0.0
 11
19.323439
 21
85.718865
 31
0.0
  0
LINE
  5
12E7
  8
0
 10
19.323439
 20
85.718865
 30
0.0
 11
18.973689
 21
85.895758
 31
0.0
  0
LINE
  5
12E8
  8
0
 10
19.857695
 20
84.0
 30
0.0
 11
19.946199
 21
84.347484
 31
0.0
  0
LINE
  5
12E9
  8
0
 10
19.946199
 20
84.347484
 30
0.0
 11
19.600215
 21
84.484515
 31
0.0
  0
LINE
  5
12EA
  8
0
 10
19.600215
 20
84.484515
 30
0.0
 11
19.738143
 21
84.782844
 31
0.0
  0
LINE
  5
12EB
  8
0
 10
19.738143
 20
84.782844
 30
0.0
 11
19.374307
 21
84.928581
 31
0.0
  0
LINE
  5
12EC
  8
0
 10
20.420175
 20
83.117083
 30
0.0
 11
20.478057
 21
83.470958
 31
0.0
  0
LINE
  5
12ED
  8
0
 10
20.478057
 20
83.470958
 30
0.0
 11
20.121447
 21
83.577313
 31
0.0
  0
LINE
  5
12EE
  8
0
 10
20.121447
 20
83.577313
 30
0.0
 11
20.232849
 21
83.886528
 31
0.0
  0
LINE
  5
12EF
  8
0
 10
20.232849
 20
83.886528
 30
0.0
 11
19.857695
 21
84.0
 31
0.0
  0
LINE
  5
12F0
  8
0
 10
21.057467
 20
82.286549
 30
0.0
 11
21.084286
 21
82.644122
 31
0.0
  0
LINE
  5
12F1
  8
0
 10
21.084286
 20
82.644122
 30
0.0
 11
20.719764
 21
82.718991
 31
0.0
  0
LINE
  5
12F2
  8
0
 10
20.719764
 20
82.718991
 30
0.0
 11
20.803792
 21
83.036739
 31
0.0
  0
LINE
  5
12F3
  8
0
 10
20.803792
 20
83.036739
 30
0.0
 11
20.420175
 21
83.117083
 31
0.0
  0
LINE
  5
12F4
  8
0
 10
21.764719
 20
81.514719
 30
0.0
 11
21.760271
 21
81.873268
 31
0.0
  0
LINE
  5
12F5
  8
0
 10
21.760271
 20
81.873268
 30
0.0
 11
21.390611
 21
81.916083
 31
0.0
  0
LINE
  5
12F6
  8
0
 10
21.390611
 20
81.916083
 30
0.0
 11
21.446625
 21
82.239945
 31
0.0
  0
LINE
  5
12F7
  8
0
 10
21.446625
 20
82.239945
 30
0.0
 11
21.057467
 21
82.286549
 31
0.0
  0
LINE
  5
12F8
  8
0
 10
22.536549
 20
80.807467
 30
0.0
 11
22.500869
 21
81.164264
 31
0.0
  0
LINE
  5
12F9
  8
0
 10
22.500869
 20
81.164264
 30
0.0
 11
22.128883
 21
81.174698
 31
0.0
  0
LINE
  5
12FA
  8
0
 10
22.128883
 20
81.174698
 30
0.0
 11
22.156458
 21
81.50221
 31
0.0
  0
LINE
  5
12FB
  8
0
 10
22.156458
 20
81.50221
 30
0.0
 11
21.764719
 21
81.514719
 31
0.0
  0
LINE
  5
12FC
  8
0
 10
23.367083
 20
80.170175
 30
0.0
 11
23.300441
 21
80.522506
 31
0.0
  0
LINE
  5
12FD
  8
0
 10
23.300441
 20
80.522506
 30
0.0
 11
22.928962
 21
80.500479
 31
0.0
  0
LINE
  5
12FE
  8
0
 10
22.928962
 20
80.500479
 30
0.0
 11
22.927888
 21
80.829148
 31
0.0
  0
LINE
  5
12FF
  8
0
 10
22.927888
 20
80.829148
 30
0.0
 11
22.536549
 21
80.807467
 31
0.0
  0
LINE
  5
1300
  8
0
 10
24.25
 20
79.607695
 30
0.0
 11
24.152905
 21
79.952877
 31
0.0
  0
LINE
  5
1301
  8
0
 10
24.152905
 20
79.952877
 30
0.0
 11
23.784759
 21
79.898557
 31
0.0
  0
LINE
  5
1302
  8
0
 10
23.784759
 20
79.898557
 30
0.0
 11
23.755043
 21
80.225882
 31
0.0
  0
LINE
  5
1303
  8
0
 10
23.755043
 20
80.225882
 30
0.0
 11
23.367083
 21
80.170175
 31
0.0
  0
LINE
  5
1304
  8
0
 10
25.178581
 20
79.124307
 30
0.0
 11
25.05177
 21
79.459712
 31
0.0
  0
LINE
  5
1305
  8
0
 10
25.05177
 20
79.459712
 30
0.0
 11
24.68976
 21
79.373513
 31
0.0
  0
LINE
  5
1306
  8
0
 10
24.68976
 20
79.373513
 30
0.0
 11
24.631629
 21
79.697002
 31
0.0
  0
LINE
  5
1307
  8
0
 10
24.631629
 20
79.697002
 30
0.0
 11
24.25
 21
79.607695
 31
0.0
  0
LINE
  5
1308
  8
0
 10
26.145758
 20
78.723689
 30
0.0
 11
25.990198
 21
79.046765
 31
0.0
  0
LINE
  5
1309
  8
0
 10
25.990198
 20
79.046765
 30
0.0
 11
25.637077
 21
78.929343
 31
0.0
  0
LINE
  5
130A
  8
0
 10
25.637077
 20
78.929343
 30
0.0
 11
25.550974
 21
79.246535
 31
0.0
  0
LINE
  5
130B
  8
0
 10
25.550974
 20
79.246535
 30
0.0
 11
25.178581
 21
79.124307
 31
0.0
  0
LINE
  5
130C
  8
0
 10
27.144171
 20
78.40889
 30
0.0
 11
26.961045
 21
78.71718
 31
0.0
  0
LINE
  5
130D
  8
0
 10
26.961045
 20
78.71718
 30
0.0
 11
26.619502
 21
78.569428
 31
0.0
  0
LINE
  5
130E
  8
0
 10
26.619502
 20
78.569428
 30
0.0
 11
26.506081
 21
78.877908
 31
0.0
  0
LINE
  5
130F
  8
0
 10
26.506081
 20
78.877908
 30
0.0
 11
26.145758
 21
78.723689
 31
0.0
  0
LINE
  5
1310
  8
0
 10
28.166222
 20
78.182307
 30
0.0
 11
27.956923
 21
78.473463
 31
0.0
  0
LINE
  5
1311
  8
0
 10
27.956923
 20
78.473463
 30
0.0
 11
27.629557
 21
78.296506
 31
0.0
  0
LINE
  5
1312
  8
0
 10
27.629557
 20
78.296506
 30
0.0
 11
27.489682
 21
78.593927
 31
0.0
  0
LINE
  5
1313
  8
0
 10
27.489682
 20
78.593927
 30
0.0
 11
27.144171
 21
78.40889
 31
0.0
  0
LINE
  5
1314
  8
0
 10
29.204131
 20
78.045664
 30
0.0
 11
28.970253
 21
78.31747
 31
0.0
  0
LINE
  5
1315
  8
0
 10
28.970253
 20
78.31747
 30
0.0
 11
28.659556
 21
78.112655
 31
0.0
  0
LINE
  5
1316
  8
0
 10
28.659556
 20
78.112655
 30
0.0
 11
28.494291
 21
78.396753
 31
0.0
  0
LINE
  5
1317
  8
0
 10
28.494291
 20
78.396753
 30
0.0
 11
28.166222
 21
78.182307
 31
0.0
  0
LINE
  5
1318
  8
0
 10
30.25
 20
78.0
 30
0.0
 11
29.993322
 21
78.250388
 31
0.0
  0
LINE
  5
1319
  8
0
 10
29.993322
 20
78.250388
 30
0.0
 11
29.701658
 21
78.019273
 31
0.0
  0
LINE
  5
131A
  8
0
 10
29.701658
 20
78.019273
 30
0.0
 11
29.512261
 21
78.287887
 31
0.0
  0
LINE
  5
131B
  8
0
 10
29.512261
 20
78.287887
 30
0.0
 11
29.204131
 21
78.045664
 31
0.0
  0
LINE
  5
131C
  8
0
 10
31.295869
 20
78.045664
 30
0.0
 11
31.018345
 21
78.272728
 31
0.0
  0
LINE
  5
131D
  8
0
 10
31.018345
 20
78.272728
 30
0.0
 11
30.747934
 21
78.017072
 31
0.0
  0
LINE
  5
131E
  8
0
 10
30.747934
 20
78.017072
 30
0.0
 11
30.535847
 21
78.268157
 31
0.0
  0
LINE
  5
131F
  8
0
 10
30.535847
 20
78.268157
 30
0.0
 11
30.25
 21
78.0
 31
0.0
  0
LINE
  5
1320
  8
0
 10
32.333778
 20
78.182307
 30
0.0
 11
32.03752
 21
78.38432
 31
0.0
  0
LINE
  5
1321
  8
0
 10
32.03752
 20
78.38432
 30
0.0
 11
31.79042
 21
78.106069
 31
0.0
  0
LINE
  5
1322
  8
0
 10
31.79042
 20
78.106069
 30
0.0
 11
31.557256
 21
78.337713
 31
0.0
  0
LINE
  5
1323
  8
0
 10
31.557256
 20
78.337713
 30
0.0
 11
31.295869
 21
78.045664
 31
0.0
  0
LINE
  5
1324
  8
0
 10
33.355829
 20
78.40889
 30
0.0
 11
33.043092
 21
78.584313
 31
0.0
  0
LINE
  5
1325
  8
0
 10
33.043092
 20
78.584313
 30
0.0
 11
32.821183
 21
78.285585
 31
0.0
  0
LINE
  5
1326
  8
0
 10
32.821183
 20
78.285585
 30
0.0
 11
32.568717
 21
78.496027
 31
0.0
  0
LINE
  5
1327
  8
0
 10
32.568717
 20
78.496027
 30
0.0
 11
32.333778
 21
78.182307
 31
0.0
  0
LINE
  5
1328
  8
0
 10
34.354242
 20
78.723689
 30
0.0
 11
34.027406
 21
78.871188
 31
0.0
  0
LINE
  5
1329
  8
0
 10
34.027406
 20
78.871188
 30
0.0
 11
33.832377
 21
78.554256
 31
0.0
  0
LINE
  5
132A
  8
0
 10
33.832377
 20
78.554256
 30
0.0
 11
33.562531
 21
78.741892
 31
0.0
  0
LINE
  5
132B
  8
0
 10
33.562531
 20
78.741892
 30
0.0
 11
33.355829
 21
78.40889
 31
0.0
  0
LINE
  5
132C
  8
0
 10
35.321419
 20
79.124307
 30
0.0
 11
34.982971
 21
79.242759
 31
0.0
  0
LINE
  5
132D
  8
0
 10
34.982971
 20
79.242759
 30
0.0
 11
34.816308
 21
78.910035
 31
0.0
  0
LINE
  5
132E
  8
0
 10
34.816308
 20
78.910035
 30
0.0
 11
34.531135
 21
79.073439
 31
0.0
  0
LINE
  5
132F
  8
0
 10
34.531135
 20
79.073439
 30
0.0
 11
34.354242
 21
78.723689
 31
0.0
  0
LINE
  5
1330
  8
0
 10
36.25
 20
79.607695
 30
0.0
 11
35.902516
 21
79.696199
 31
0.0
  0
LINE
  5
1331
  8
0
 10
35.902516
 20
79.696199
 30
0.0
 11
35.765485
 21
79.350215
 31
0.0
  0
LINE
  5
1332
  8
0
 10
35.765485
 20
79.350215
 30
0.0
 11
35.467156
 21
79.488143
 31
0.0
  0
LINE
  5
1333
  8
0
 10
35.467156
 20
79.488143
 30
0.0
 11
35.321419
 21
79.124307
 31
0.0
  0
LINE
  5
1334
  8
0
 10
37.132917
 20
80.170175
 30
0.0
 11
36.779042
 21
80.228057
 31
0.0
  0
LINE
  5
1335
  8
0
 10
36.779042
 20
80.228057
 30
0.0
 11
36.672687
 21
79.871447
 31
0.0
  0
LINE
  5
1336
  8
0
 10
36.672687
 20
79.871447
 30
0.0
 11
36.363472
 21
79.982849
 31
0.0
  0
LINE
  5
1337
  8
0
 10
36.363472
 20
79.982849
 30
0.0
 11
36.25
 21
79.607695
 31
0.0
  0
LINE
  5
1338
  8
0
 10
37.963451
 20
80.807467
 30
0.0
 11
37.605878
 21
80.834286
 31
0.0
  0
LINE
  5
1339
  8
0
 10
37.605878
 20
80.834286
 30
0.0
 11
37.531009
 21
80.469764
 31
0.0
  0
LINE
  5
133A
  8
0
 10
37.531009
 20
80.469764
 30
0.0
 11
37.213261
 21
80.553792
 31
0.0
  0
LINE
  5
133B
  8
0
 10
37.213261
 20
80.553792
 30
0.0
 11
37.132917
 21
80.170175
 31
0.0
  0
LINE
  5
133C
  8
0
 10
38.735281
 20
81.514719
 30
0.0
 11
38.376732
 21
81.510271
 31
0.0
  0
LINE
  5
133D
  8
0
 10
38.376732
 20
81.510271
 30
0.0
 11
38.333917
 21
81.140611
 31
0.0
  0
LINE
  5
133E
  8
0
 10
38.333917
 20
81.140611
 30
0.0
 11
38.010055
 21
81.196625
 31
0.0
  0
LINE
  5
133F
  8
0
 10
38.010055
 20
81.196625
 30
0.0
 11
37.963451
 21
80.807467
 31
0.0
  0
LINE
  5
1340
  8
0
 10
39.442533
 20
82.286549
 30
0.0
 11
39.085736
 21
82.250869
 31
0.0
  0
LINE
  5
1341
  8
0
 10
39.085736
 20
82.250869
 30
0.0
 11
39.075302
 21
81.878883
 31
0.0
  0
LINE
  5
1342
  8
0
 10
39.075302
 20
81.878883
 30
0.0
 11
38.74779
 21
81.906458
 31
0.0
  0
LINE
  5
1343
  8
0
 10
38.74779
 20
81.906458
 30
0.0
 11
38.735281
 21
81.514719
 31
0.0
  0
LINE
  5
1344
  8
0
 10
40.079825
 20
83.117083
 30
0.0
 11
39.727494
 21
83.050441
 31
0.0
  0
LINE
  5
1345
  8
0
 10
39.727494
 20
83.050441
 30
0.0
 11
39.749521
 21
82.678962
 31
0.0
  0
LINE
  5
1346
  8
0
 10
39.749521
 20
82.678962
 30
0.0
 11
39.420852
 21
82.677888
 31
0.0
  0
LINE
  5
1347
  8
0
 10
39.420852
 20
82.677888
 30
0.0
 11
39.442533
 21
82.286549
 31
0.0
  0
LINE
  5
1348
  8
0
 10
40.642305
 20
84.0
 30
0.0
 11
40.297123
 21
83.902905
 31
0.0
  0
LINE
  5
1349
  8
0
 10
40.297123
 20
83.902905
 30
0.0
 11
40.351443
 21
83.534759
 31
0.0
  0
LINE
  5
134A
  8
0
 10
40.351443
 20
83.534759
 30
0.0
 11
40.024118
 21
83.505043
 31
0.0
  0
LINE
  5
134B
  8
0
 10
40.024118
 20
83.505043
 30
0.0
 11
40.079825
 21
83.117083
 31
0.0
  0
LINE
  5
134C
  8
0
 10
41.125693
 20
84.928581
 30
0.0
 11
40.790288
 21
84.80177
 31
0.0
  0
LINE
  5
134D
  8
0
 10
40.790288
 20
84.80177
 30
0.0
 11
40.876487
 21
84.43976
 31
0.0
  0
LINE
  5
134E
  8
0
 10
40.876487
 20
84.43976
 30
0.0
 11
40.552998
 21
84.381629
 31
0.0
  0
LINE
  5
134F
  8
0
 10
40.552998
 20
84.381629
 30
0.0
 11
40.642305
 21
84.0
 31
0.0
  0
LINE
  5
1350
  8
0
 10
41.526311
 20
85.895758
 30
0.0
 11
41.203235
 21
85.740198
 31
0.0
  0
LINE
  5
1351
  8
0
 10
41.203235
 20
85.740198
 30
0.0
 11
41.320657
 21
85.387077
 31
0.0
  0
LINE
  5
1352
  8
0
 10
41.320657
 20
85.387077
 30
0.0
 11
41.003465
 21
85.300974
 31
0.0
  0
LINE
  5
1353
  8
0
 10
41.003465
 20
85.300974
 30
0.0
 11
41.125693
 21
84.928581
 31
0.0
  0
LINE
  5
1354
  8
0
 10
41.84111
 20
86.894171
 30
0.0
 11
41.53282
 21
86.711045
 31
0.0
  0
LINE
  5
1355
  8
0
 10
41.53282
 20
86.711045
 30
0.0
 11
41.680572
 21
86.369502
 31
0.0
  0
LINE
  5
1356
  8
0
 10
41.680572
 20
86.369502
 30
0.0
 11
41.372092
 21
86.256081
 31
0.0
  0
LINE
  5
1357
  8
0
 10
41.372092
 20
86.256081
 30
0.0
 11
41.526311
 21
85.895758
 31
0.0
  0
LINE
  5
1358
  8
0
 10
42.067693
 20
87.916222
 30
0.0
 11
41.776537
 21
87.706923
 31
0.0
  0
LINE
  5
1359
  8
0
 10
41.776537
 20
87.706923
 30
0.0
 11
41.953494
 21
87.379557
 31
0.0
  0
LINE
  5
135A
  8
0
 10
41.953494
 20
87.379557
 30
0.0
 11
41.656073
 21
87.239682
 31
0.0
  0
LINE
  5
135B
  8
0
 10
41.656073
 20
87.239682
 30
0.0
 11
41.84111
 21
86.894171
 31
0.0
  0
LINE
  5
135C
  8
0
 10
42.204336
 20
88.954131
 30
0.0
 11
41.93253
 21
88.720253
 31
0.0
  0
LINE
  5
135D
  8
0
 10
41.93253
 20
88.720253
 30
0.0
 11
42.137345
 21
88.409556
 31
0.0
  0
LINE
  5
135E
  8
0
 10
42.137345
 20
88.409556
 30
0.0
 11
41.853247
 21
88.244291
 31
0.0
  0
LINE
  5
135F
  8
0
 10
41.853247
 20
88.244291
 30
0.0
 11
42.067693
 21
87.916222
 31
0.0
  0
LINE
  5
1360
  8
0
 10
42.25
 20
90.0
 30
0.0
 11
41.999612
 21
89.743322
 31
0.0
  0
LINE
  5
1361
  8
0
 10
41.999612
 20
89.743322
 30
0.0
 11
42.230727
 21
89.451658
 31
0.0
  0
LINE
  5
1362
  8
0
 10
42.230727
 20
89.451658
 30
0.0
 11
41.962113
 21
89.262261
 31
0.0
  0
LINE
  5
1363
  8
0
 10
41.962113
 20
89.262261
 30
0.0
 11
42.204336
 21
88.954131
 31
0.0
  0
LINE
  5
1364
  8
0
 10
42.204336
 20
91.045869
 30
0.0
 11
41.977272
 21
90.768345
 31
0.0
  0
LINE
  5
1365
  8
0
 10
41.977272
 20
90.768345
 30
0.0
 11
42.232928
 21
90.497934
 31
0.0
  0
LINE
  5
1366
  8
0
 10
42.232928
 20
90.497934
 30
0.0
 11
41.981843
 21
90.285847
 31
0.0
  0
LINE
  5
1367
  8
0
 10
41.981843
 20
90.285847
 30
0.0
 11
42.25
 21
90.0
 31
0.0
  0
LINE
  5
1368
  8
0
 10
42.067693
 20
92.083778
 30
0.0
 11
41.86568
 21
91.78752
 31
0.0
  0
LINE
  5
1369
  8
0
 10
41.86568
 20
91.78752
 30
0.0
 11
42.143931
 21
91.54042
 31
0.0
  0
LINE
  5
136A
  8
0
 10
42.143931
 20
91.54042
 30
0.0
 11
41.912287
 21
91.307256
 31
0.0
  0
LINE
  5
136B
  8
0
 10
41.912287
 20
91.307256
 30
0.0
 11
42.204336
 21
91.045869
 31
0.0
  0
LINE
  5
136C
  8
0
 10
41.84111
 20
93.105829
 30
0.0
 11
41.665687
 21
92.793092
 31
0.0
  0
LINE
  5
136D
  8
0
 10
41.665687
 20
92.793092
 30
0.0
 11
41.964415
 21
92.571183
 31
0.0
  0
LINE
  5
136E
  8
0
 10
41.964415
 20
92.571183
 30
0.0
 11
41.753973
 21
92.318717
 31
0.0
  0
LINE
  5
136F
  8
0
 10
41.753973
 20
92.318717
 30
0.0
 11
42.067693
 21
92.083778
 31
0.0
  0
LINE
  5
1370
  8
0
 10
41.526311
 20
94.104242
 30
0.0
 11
41.378812
 21
93.777406
 31
0.0
  0
LINE
  5
1371
  8
0
 10
41.378812
 20
93.777406
 30
0.0
 11
41.695744
 21
93.582377
 31
0.0
  0
LINE
  5
1372
  8
0
 10
41.695744
 20
93.582377
 30
0.0
 11
41.508108
 21
93.312531
 31
0.0
  0
LINE
  5
1373
  8
0
 10
41.508108
 20
93.312531
 30
0.0
 11
41.84111
 21
93.105829
 31
0.0
  0
LINE
  5
1374
  8
0
 10
41.125693
 20
95.071419
 30
0.0
 11
41.007241
 21
94.732971
 31
0.0
  0
LINE
  5
1375
  8
0
 10
41.007241
 20
94.732971
 30
0.0
 11
41.339965
 21
94.566308
 31
0.0
  0
LINE
  5
1376
  8
0
 10
41.339965
 20
94.566308
 30
0.0
 11
41.176561
 21
94.281135
 31
0.0
  0
LINE
  5
1377
  8
0
 10
41.176561
 20
94.281135
 30
0.0
 11
41.526311
 21
94.104242
 31
0.0
  0
LINE
  5
1378
  8
0
 10
40.642305
 20
96.0
 30
0.0
 11
40.553801
 21
95.652516
 31
0.0
  0
LINE
  5
1379
  8
0
 10
40.553801
 20
95.652516
 30
0.0
 11
40.899785
 21
95.515485
 31
0.0
  0
LINE
  5
137A
  8
0
 10
40.899785
 20
95.515485
 30
0.0
 11
40.761857
 21
95.217156
 31
0.0
  0
LINE
  5
137B
  8
0
 10
40.761857
 20
95.217156
 30
0.0
 11
41.125693
 21
95.071419
 31
0.0
  0
LINE
  5
137C
  8
0
 10
40.079825
 20
96.882917
 30
0.0
 11
40.021943
 21
96.529042
 31
0.0
  0
LINE
  5
137D
  8
0
 10
40.021943
 20
96.529042
 30
0.0
 11
40.378553
 21
96.422687
 31
0.0
  0
LINE
  5
137E
  8
0
 10
40.378553
 20
96.422687
 30
0.0
 11
40.267151
 21
96.113472
 31
0.0
  0
LINE
  5
137F
  8
0
 10
40.267151
 20
96.113472
 30
0.0
 11
40.642305
 21
96.0
 31
0.0
  0
LINE
  5
1380
  8
0
 10
39.442533
 20
97.713451
 30
0.0
 11
39.415714
 21
97.355878
 31
0.0
  0
LINE
  5
1381
  8
0
 10
39.415714
 20
97.355878
 30
0.0
 11
39.780236
 21
97.281009
 31
0.0
  0
LINE
  5
1382
  8
0
 10
39.780236
 20
97.281009
 30
0.0
 11
39.696208
 21
96.963261
 31
0.0
  0
LINE
  5
1383
  8
0
 10
39.696208
 20
96.963261
 30
0.0
 11
40.079825
 21
96.882917
 31
0.0
  0
LINE
  5
1384
  8
0
 10
38.735281
 20
98.485281
 30
0.0
 11
38.739729
 21
98.126732
 31
0.0
  0
LINE
  5
1385
  8
0
 10
38.739729
 20
98.126732
 30
0.0
 11
39.109389
 21
98.083917
 31
0.0
  0
LINE
  5
1386
  8
0
 10
39.109389
 20
98.083917
 30
0.0
 11
39.053375
 21
97.760055
 31
0.0
  0
LINE
  5
1387
  8
0
 10
39.053375
 20
97.760055
 30
0.0
 11
39.442533
 21
97.713451
 31
0.0
  0
LINE
  5
1388
  8
0
 10
37.963451
 20
99.192533
 30
0.0
 11
37.999131
 21
98.835736
 31
0.0
  0
LINE
  5
1389
  8
0
 10
37.999131
 20
98.835736
 30
0.0
 11
38.371117
 21
98.825302
 31
0.0
  0
LINE
  5
138A
  8
0
 10
38.371117
 20
98.825302
 30
0.0
 11
38.343542
 21
98.49779
 31
0.0
  0
LINE
  5
138B
  8
0
 10
38.343542
 20
98.49779
 30
0.0
 11
38.735281
 21
98.485281
 31
0.0
  0
LINE
  5
138C
  8
0
 10
37.132917
 20
99.829825
 30
0.0
 11
37.199559
 21
99.477494
 31
0.0
  0
LINE
  5
138D
  8
0
 10
37.199559
 20
99.477494
 30
0.0
 11
37.571038
 21
99.499521
 31
0.0
  0
LINE
  5
138E
  8
0
 10
37.571038
 20
99.499521
 30
0.0
 11
37.572112
 21
99.170852
 31
0.0
  0
LINE
  5
138F
  8
0
 10
37.572112
 20
99.170852
 30
0.0
 11
37.963451
 21
99.192533
 31
0.0
  0
LINE
  5
1390
  8
0
 10
36.25
 20
100.392305
 30
0.0
 11
36.347095
 21
100.047123
 31
0.0
  0
LINE
  5
1391
  8
0
 10
36.347095
 20
100.047123
 30
0.0
 11
36.715241
 21
100.101443
 31
0.0
  0
LINE
  5
1392
  8
0
 10
36.715241
 20
100.101443
 30
0.0
 11
36.744957
 21
99.774118
 31
0.0
  0
LINE
  5
1393
  8
0
 10
36.744957
 20
99.774118
 30
0.0
 11
37.132917
 21
99.829825
 31
0.0
  0
LINE
  5
1394
  8
0
 10
35.321419
 20
100.875693
 30
0.0
 11
35.44823
 21
100.540288
 31
0.0
  0
LINE
  5
1395
  8
0
 10
35.44823
 20
100.540288
 30
0.0
 11
35.81024
 21
100.626487
 31
0.0
  0
LINE
  5
1396
  8
0
 10
35.81024
 20
100.626487
 30
0.0
 11
35.868371
 21
100.302998
 31
0.0
  0
LINE
  5
1397
  8
0
 10
35.868371
 20
100.302998
 30
0.0
 11
36.25
 21
100.392305
 31
0.0
  0
LINE
  5
1398
  8
0
 10
34.354242
 20
101.276311
 30
0.0
 11
34.509802
 21
100.953235
 31
0.0
  0
LINE
  5
1399
  8
0
 10
34.509802
 20
100.953235
 30
0.0
 11
34.862923
 21
101.070657
 31
0.0
  0
LINE
  5
139A
  8
0
 10
34.862923
 20
101.070657
 30
0.0
 11
34.949026
 21
100.753465
 31
0.0
  0
LINE
  5
139B
  8
0
 10
34.949026
 20
100.753465
 30
0.0
 11
35.321419
 21
100.875693
 31
0.0
  0
LINE
  5
139C
  8
0
 10
33.355829
 20
101.59111
 30
0.0
 11
33.538955
 21
101.28282
 31
0.0
  0
LINE
  5
139D
  8
0
 10
33.538955
 20
101.28282
 30
0.0
 11
33.880498
 21
101.430572
 31
0.0
  0
LINE
  5
139E
  8
0
 10
33.880498
 20
101.430572
 30
0.0
 11
33.993919
 21
101.122092
 31
0.0
  0
LINE
  5
139F
  8
0
 10
33.993919
 20
101.122092
 30
0.0
 11
34.354242
 21
101.276311
 31
0.0
  0
LINE
  5
13A0
  8
0
 10
32.333778
 20
101.817693
 30
0.0
 11
32.543077
 21
101.526537
 31
0.0
  0
LINE
  5
13A1
  8
0
 10
32.543077
 20
101.526537
 30
0.0
 11
32.870443
 21
101.703494
 31
0.0
  0
LINE
  5
13A2
  8
0
 10
32.870443
 20
101.703494
 30
0.0
 11
33.010318
 21
101.406073
 31
0.0
  0
LINE
  5
13A3
  8
0
 10
33.010318
 20
101.406073
 30
0.0
 11
33.355829
 21
101.59111
 31
0.0
  0
CIRCLE
  5
13A4
  8
0
 10
30.25
 20
90.0
 30
0.0
 40
9.0
  0
CIRCLE
  5
13A5
  8
0
 10
30.25
 20
90.0
 30
0.0
 40
2.5
  0
CIRCLE
  5
13A6
  8
0
 10
30.25
 20
90.0
 30
0.0
 40
3.0
  0
LINE
  5
13A7
  8
1
 10
59.5
 20
90.0
 30
0.0
 11
82.5
 21
90.0
 31
0.0
  0
LINE
  5
13A8
  8
0
 10
64.0
 20
90.0
 30
0.0
 11
64.0
 21
101.5
 31
0.0
  0
LINE
  5
13A9
  8
0
 10
64.5
 20
102.0
 30
0.0
 11
73.5
 21
102.0
 31
0.0
  0
LINE
  5
13AA
  8
0
 10
74.0
 20
101.5
 30
0.0
 11
74.0
 21
90.0
 31
0.0
  0
LINE
  5
13AB
  8
0
 10
74.0
 20
90.0
 30
0.0
 11
74.0
 21
98.0
 31
0.0
  0
LINE
  5
13AC
  8
0
 10
74.0
 20
98.0
 30
0.0
 11
77.5
 21
98.0
 31
0.0
  0
LINE
  5
13AD
  8
0
 10
78.0
 20
97.5
 30
0.0
 11
78.0
 21
90.0
 31
0.0
  0
ARC
  5
13AE
  8
0
 10
77.5
 20
97.5
 30
0.0
 40
0.5
 50
0.0
 51
90.0
  0
ARC
  5
13AF
  8
0
 10
73.5
 20
101.5
 30
0.0
 40
0.5
 50
0.0
 51
90.0
  0
ARC
  5
13B0
  8
0
 10
64.5
 20
101.5
 30
0.0
 40
0.5
 50
90.0
 51
180.0
  0
LINE
  5
13B1
  8
0
 10
64.75
 20
90.5
 30
0.0
 11
73.5
 21
90.5
 31
0.0
  0
LINE
  5
13B2
  8
0
 10
64.75
 20
91.5
 30
0.0
 11
73.5
 21
91.5
 31
0.0
  0
LINE
  5
13B3
  8
0
 10
64.75
 20
92.5
 30
0.0
 11
73.5
 21
92.5
 31
0.0
  0
LINE
  5
13B4
  8
0
 10
64.75
 20
93.5
 30
0.0
 11
73.5
 21
93.5
 31
0.0
  0
LINE
  5
13B5
  8
0
 10
64.75
 20
94.5
 30
0.0
 11
73.5
 21
94.5
 31
0.0
  0
LINE
  5
13B6
  8
0
 10
64.75
 20
95.5
 30
0.0
 11
73.5
 21
95.5
 31
0.0
  0
LINE
  5
13B7
  8
0
 10
64.75
 20
96.5
 30
0.0
 11
73.5
 21
96.5
 31
0.0
  0
LINE
  5
13B8
  8
0
 10
64.75
 20
97.5
 30
0.0
 11
73.5
 21
97.5
 31
0.0
  0
LINE
  5
13B9
  8
0
 10
64.75
 20
98.5
 30
0.0
 11
73.5
 21
98.5
 31
0.0
  0
LINE
  5
13BA
  8
0
 10
64.75
 20
99.5
 30
0.0
 11
73.5
 21
99.5
 31
0.0
  0
LINE
  5
13BB
  8
0
 10
64.75
 20
100.5
 30
0.0
 11
73.5
 21
100.5
 31
0.0
  0
LINE
  5
13BC
  8
0
 10
64.75
 20
101.5
 30
0.0
 11
73.5
 21
101.5
 31
0.0
  0
LINE
  5
13C0
  8
2
 10
78.0
 20
93.5
 30
0.0
 11
77.5
 21
92.5
 31
0.0
  0
LINE
  5
13C2
  8
2
 10
70.0
 20
90.0
 30
0.0
 11
70.0
 21
99.0
 31
0.0
  0
LINE
  5
13C3
  8
2
 10
70.0
 20
99.0
 30
0.0
 11
64.0
 21
99.0
 31
0.0
  0
LINE
  5
13C4
  8
2
 10
77.5
 20
92.5
 30
0.0
 11
77.5
 21
90.0
 31
0.0
  0
LINE
  5
13C5
  8
2
 10
77.5
 20
92.5
 30
0.0
 11
70.0
 21
92.5
 31
0.0
  0
LINE
  5
13C6
  8
2
 10
77.75
 20
93.0
 30
0.0
 11
70.0
 21
93.0
 31
0.0
  0
LINE
  5
13C7
  8
2
 10
77.75
 20
87.0
 30
0.0
 11
70.0
 21
87.0
 31
0.0
  0
LINE
  5
13C8
  8
2
 10
77.5
 20
87.5
 30
0.0
 11
70.0
 21
87.5
 31
0.0
  0
LINE
  5
13C9
  8
0
 10
74.0
 20
82.0
 30
0.0
 11
77.5
 21
82.0
 31
0.0
  0
LINE
  5
13CA
  8
2
 10
70.0
 20
90.0
 30
0.0
 11
70.0
 21
81.0
 31
0.0
  0
LINE
  5
13CB
  8
0
 10
64.0
 20
90.0
 30
0.0
 11
64.0
 21
78.5
 31
0.0
  0
LINE
  5
13CC
  8
0
 10
74.0
 20
78.5
 30
0.0
 11
74.0
 21
90.0
 31
0.0
  0
LINE
  5
13CD
  8
0
 10
64.75
 20
82.5
 30
0.0
 11
73.5
 21
82.5
 31
0.0
  0
LINE
  5
13CE
  8
0
 10
64.75
 20
83.5
 30
0.0
 11
73.5
 21
83.5
 31
0.0
  0
LINE
  5
13CF
  8
0
 10
64.75
 20
84.5
 30
0.0
 11
73.5
 21
84.5
 31
0.0
  0
LINE
  5
13D0
  8
0
 10
64.75
 20
85.5
 30
0.0
 11
73.5
 21
85.5
 31
0.0
  0
LINE
  5
13D1
  8
0
 10
64.75
 20
86.5
 30
0.0
 11
73.5
 21
86.5
 31
0.0
  0
LINE
  5
13D2
  8
0
 10
64.75
 20
87.5
 30
0.0
 11
73.5
 21
87.5
 31
0.0
  0
LINE
  5
13D3
  8
0
 10
64.75
 20
88.5
 30
0.0
 11
73.5
 21
88.5
 31
0.0
  0
LINE
  5
13D4
  8
0
 10
64.75
 20
89.5
 30
0.0
 11
73.5
 21
89.5
 31
0.0
  0
LINE
  5
13D5
  8
0
 10
74.0
 20
90.0
 30
0.0
 11
74.0
 21
82.0
 31
0.0
  0
LINE
  5
13D6
  8
2
 10
70.0
 20
81.0
 30
0.0
 11
64.0
 21
81.0
 31
0.0
  0
LINE
  5
13D7
  8
0
 10
64.75
 20
78.5
 30
0.0
 11
73.5
 21
78.5
 31
0.0
  0
LINE
  5
13D8
  8
0
 10
64.75
 20
79.5
 30
0.0
 11
73.5
 21
79.5
 31
0.0
  0
LINE
  5
13D9
  8
0
 10
64.75
 20
80.5
 30
0.0
 11
73.5
 21
80.5
 31
0.0
  0
LINE
  5
13DA
  8
0
 10
64.75
 20
81.5
 30
0.0
 11
73.5
 21
81.5
 31
0.0
  0
LINE
  5
13DB
  8
0
 10
64.5
 20
78.0
 30
0.0
 11
73.5
 21
78.0
 31
0.0
  0
ARC
  5
13DC
  8
0
 10
64.5
 20
78.5
 30
0.0
 40
0.5
 50
180.0
 51
270.0
  0
ARC
  5
13DD
  8
0
 10
73.5
 20
78.5
 30
0.0
 40
0.5
 50
270.0
 51
0.0
  0
LINE
  5
13DE
  8
2
 10
77.5
 20
87.5
 30
0.0
 11
77.5
 21
90.0
 31
0.0
  0
LINE
  5
13DF
  8
0
 10
78.0
 20
82.5
 30
0.0
 11
78.0
 21
90.0
 31
0.0
  0
LINE
  5
13E0
  8
2
 10
78.0
 20
86.5
 30
0.0
 11
77.5
 21
87.5
 31
0.0
  0
ARC
  5
13E1
  8
0
 10
77.5
 20
82.5
 30
0.0
 40
0.5
 50
270.0
 51
0.0
  0
LINE
  5
13E3
  8
0
 10
124.503465
 20
85.300974
 30
0.0
 11
124.625693
 21
84.928581
 31
0.0
  0
LINE
  5
13E4
  8
0
 10
102.874307
 20
84.928581
 30
0.0
 11
102.992759
 21
85.267029
 31
0.0
  0
LINE
  5
13E5
  8
1
 10
113.75
 20
105.0
 30
0.0
 11
113.75
 21
74.75
 31
0.0
  0
LINE
  5
13E6
  8
0
 10
112.159556
 20
78.112655
 30
0.0
 11
111.994291
 21
78.396753
 31
0.0
  0
LINE
  5
13E7
  8
0
 10
103.732849
 20
83.886528
 30
0.0
 11
103.357695
 21
84.0
 31
0.0
  0
LINE
  5
13E8
  8
0
 10
103.446199
 20
84.347484
 30
0.0
 11
103.100215
 21
84.484515
 31
0.0
  0
LINE
  5
13E9
  8
0
 10
103.357695
 20
84.0
 30
0.0
 11
103.446199
 21
84.347484
 31
0.0
  0
LINE
  5
13EA
  8
0
 10
103.238143
 20
84.782844
 30
0.0
 11
102.874307
 21
84.928581
 31
0.0
  0
LINE
  5
13EB
  8
0
 10
103.100215
 20
84.484515
 30
0.0
 11
103.238143
 21
84.782844
 31
0.0
  0
LINE
  5
13EC
  8
0
 10
111.994291
 20
78.396753
 30
0.0
 11
111.666222
 21
78.182307
 31
0.0
  0
LINE
  5
13ED
  8
0
 10
111.129557
 20
78.296506
 30
0.0
 11
110.989682
 21
78.593927
 31
0.0
  0
LINE
  5
13EE
  8
0
 10
111.456923
 20
78.473463
 30
0.0
 11
111.129557
 21
78.296506
 31
0.0
  0
LINE
  5
13EF
  8
0
 10
111.666222
 20
78.182307
 30
0.0
 11
111.456923
 21
78.473463
 31
0.0
  0
LINE
  5
13F0
  8
0
 10
107.75
 20
79.607695
 30
0.0
 11
107.652905
 21
79.952877
 31
0.0
  0
LINE
  5
13F1
  8
0
 10
105.264719
 20
81.514719
 30
0.0
 11
105.260271
 21
81.873268
 31
0.0
  0
LINE
  5
13F2
  8
0
 10
105.656458
 20
81.50221
 30
0.0
 11
105.264719
 21
81.514719
 31
0.0
  0
LINE
  5
13F3
  8
0
 10
107.255043
 20
80.225882
 30
0.0
 11
106.867083
 21
80.170175
 31
0.0
  0
LINE
  5
13F4
  8
0
 10
107.284759
 20
79.898557
 30
0.0
 11
107.255043
 21
80.225882
 31
0.0
  0
LINE
  5
13F5
  8
0
 10
107.652905
 20
79.952877
 30
0.0
 11
107.284759
 21
79.898557
 31
0.0
  0
LINE
  5
13F6
  8
0
 10
106.427888
 20
80.829148
 30
0.0
 11
106.036549
 21
80.807467
 31
0.0
  0
LINE
  5
13F7
  8
0
 10
106.428962
 20
80.500479
 30
0.0
 11
106.427888
 21
80.829148
 31
0.0
  0
LINE
  5
13F8
  8
0
 10
106.800441
 20
80.522506
 30
0.0
 11
106.428962
 21
80.500479
 31
0.0
  0
LINE
  5
13F9
  8
0
 10
106.867083
 20
80.170175
 30
0.0
 11
106.800441
 21
80.522506
 31
0.0
  0
LINE
  5
13FA
  8
0
 10
105.628883
 20
81.174698
 30
0.0
 11
105.656458
 21
81.50221
 31
0.0
  0
LINE
  5
13FB
  8
0
 10
106.000869
 20
81.164264
 30
0.0
 11
105.628883
 21
81.174698
 31
0.0
  0
LINE
  5
13FC
  8
0
 10
106.036549
 20
80.807467
 30
0.0
 11
106.000869
 21
81.164264
 31
0.0
  0
LINE
  5
13FD
  8
0
 10
104.946625
 20
82.239945
 30
0.0
 11
104.557467
 21
82.286549
 31
0.0
  0
LINE
  5
13FE
  8
0
 10
104.890611
 20
81.916083
 30
0.0
 11
104.946625
 21
82.239945
 31
0.0
  0
LINE
  5
13FF
  8
0
 10
105.260271
 20
81.873268
 30
0.0
 11
104.890611
 21
81.916083
 31
0.0
  0
LINE
  5
1400
  8
0
 10
104.303792
 20
83.036739
 30
0.0
 11
103.920175
 21
83.117083
 31
0.0
  0
LINE
  5
1401
  8
0
 10
104.219764
 20
82.718991
 30
0.0
 11
104.303792
 21
83.036739
 31
0.0
  0
LINE
  5
1402
  8
0
 10
104.584286
 20
82.644122
 30
0.0
 11
104.219764
 21
82.718991
 31
0.0
  0
LINE
  5
1403
  8
0
 10
104.557467
 20
82.286549
 30
0.0
 11
104.584286
 21
82.644122
 31
0.0
  0
LINE
  5
1404
  8
0
 10
103.621447
 20
83.577313
 30
0.0
 11
103.732849
 21
83.886528
 31
0.0
  0
LINE
  5
1405
  8
0
 10
103.978057
 20
83.470958
 30
0.0
 11
103.621447
 21
83.577313
 31
0.0
  0
LINE
  5
1406
  8
0
 10
103.920175
 20
83.117083
 30
0.0
 11
103.978057
 21
83.470958
 31
0.0
  0
LINE
  5
1407
  8
0
 10
110.006081
 20
78.877908
 30
0.0
 11
109.645758
 21
78.723689
 31
0.0
  0
LINE
  5
1408
  8
0
 10
109.050974
 20
79.246535
 30
0.0
 11
108.678581
 21
79.124307
 31
0.0
  0
LINE
  5
1409
  8
0
 10
109.137077
 20
78.929343
 30
0.0
 11
109.050974
 21
79.246535
 31
0.0
  0
LINE
  5
140A
  8
0
 10
109.490198
 20
79.046765
 30
0.0
 11
109.137077
 21
78.929343
 31
0.0
  0
LINE
  5
140B
  8
0
 10
109.645758
 20
78.723689
 30
0.0
 11
109.490198
 21
79.046765
 31
0.0
  0
LINE
  5
140C
  8
0
 10
108.131629
 20
79.697002
 30
0.0
 11
107.75
 21
79.607695
 31
0.0
  0
LINE
  5
140D
  8
0
 10
108.18976
 20
79.373513
 30
0.0
 11
108.131629
 21
79.697002
 31
0.0
  0
LINE
  5
140E
  8
0
 10
108.55177
 20
79.459712
 30
0.0
 11
108.18976
 21
79.373513
 31
0.0
  0
LINE
  5
140F
  8
0
 10
108.678581
 20
79.124307
 30
0.0
 11
108.55177
 21
79.459712
 31
0.0
  0
LINE
  5
1410
  8
0
 10
110.989682
 20
78.593927
 30
0.0
 11
110.644171
 21
78.40889
 31
0.0
  0
LINE
  5
1411
  8
0
 10
110.119502
 20
78.569428
 30
0.0
 11
110.006081
 21
78.877908
 31
0.0
  0
LINE
  5
1412
  8
0
 10
110.461045
 20
78.71718
 30
0.0
 11
110.119502
 21
78.569428
 31
0.0
  0
LINE
  5
1413
  8
0
 10
110.644171
 20
78.40889
 30
0.0
 11
110.461045
 21
78.71718
 31
0.0
  0
LINE
  5
1414
  8
0
 10
120.632917
 20
80.170175
 30
0.0
 11
120.279042
 21
80.228057
 31
0.0
  0
LINE
  5
1415
  8
0
 10
116.068717
 20
78.496027
 30
0.0
 11
115.833778
 21
78.182307
 31
0.0
  0
LINE
  5
1416
  8
0
 10
116.321183
 20
78.285585
 30
0.0
 11
116.068717
 21
78.496027
 31
0.0
  0
LINE
  5
1417
  8
0
 10
116.543092
 20
78.584313
 30
0.0
 11
116.321183
 21
78.285585
 31
0.0
  0
LINE
  5
1418
  8
0
 10
115.53752
 20
78.38432
 30
0.0
 11
115.29042
 21
78.106069
 31
0.0
  0
LINE
  5
1419
  8
0
 10
115.833778
 20
78.182307
 30
0.0
 11
115.53752
 21
78.38432
 31
0.0
  0
LINE
  5
141A
  8
0
 10
114.247934
 20
78.017072
 30
0.0
 11
114.035847
 21
78.268157
 31
0.0
  0
LINE
  5
141B
  8
0
 10
114.035847
 20
78.268157
 30
0.0
 11
113.75
 21
78.0
 31
0.0
  0
LINE
  5
141C
  8
0
 10
113.012261
 20
78.287887
 30
0.0
 11
112.704131
 21
78.045664
 31
0.0
  0
LINE
  5
141D
  8
0
 10
113.201658
 20
78.019273
 30
0.0
 11
113.012261
 21
78.287887
 31
0.0
  0
LINE
  5
141E
  8
0
 10
113.493322
 20
78.250388
 30
0.0
 11
113.201658
 21
78.019273
 31
0.0
  0
LINE
  5
141F
  8
0
 10
113.75
 20
78.0
 30
0.0
 11
113.493322
 21
78.250388
 31
0.0
  0
LINE
  5
1420
  8
0
 10
112.470253
 20
78.31747
 30
0.0
 11
112.159556
 21
78.112655
 31
0.0
  0
LINE
  5
1421
  8
0
 10
112.704131
 20
78.045664
 30
0.0
 11
112.470253
 21
78.31747
 31
0.0
  0
LINE
  5
1422
  8
0
 10
115.057256
 20
78.337713
 30
0.0
 11
114.795869
 21
78.045664
 31
0.0
  0
LINE
  5
1423
  8
0
 10
115.29042
 20
78.106069
 30
0.0
 11
115.057256
 21
78.337713
 31
0.0
  0
LINE
  5
1424
  8
0
 10
114.518345
 20
78.272728
 30
0.0
 11
114.247934
 21
78.017072
 31
0.0
  0
LINE
  5
1425
  8
0
 10
114.795869
 20
78.045664
 30
0.0
 11
114.518345
 21
78.272728
 31
0.0
  0
LINE
  5
1426
  8
0
 10
118.482971
 20
79.242759
 30
0.0
 11
118.316308
 21
78.910035
 31
0.0
  0
LINE
  5
1427
  8
0
 10
118.031135
 20
79.073439
 30
0.0
 11
117.854242
 21
78.723689
 31
0.0
  0
LINE
  5
1428
  8
0
 10
118.316308
 20
78.910035
 30
0.0
 11
118.031135
 21
79.073439
 31
0.0
  0
LINE
  5
1429
  8
0
 10
117.062531
 20
78.741892
 30
0.0
 11
116.855829
 21
78.40889
 31
0.0
  0
LINE
  5
142A
  8
0
 10
117.332377
 20
78.554256
 30
0.0
 11
117.062531
 21
78.741892
 31
0.0
  0
LINE
  5
142B
  8
0
 10
117.527406
 20
78.871188
 30
0.0
 11
117.332377
 21
78.554256
 31
0.0
  0
LINE
  5
142C
  8
0
 10
117.854242
 20
78.723689
 30
0.0
 11
117.527406
 21
78.871188
 31
0.0
  0
LINE
  5
142D
  8
0
 10
116.855829
 20
78.40889
 30
0.0
 11
116.543092
 21
78.584313
 31
0.0
  0
LINE
  5
142E
  8
0
 10
119.863472
 20
79.982849
 30
0.0
 11
119.75
 21
79.607695
 31
0.0
  0
LINE
  5
142F
  8
0
 10
120.172687
 20
79.871447
 30
0.0
 11
119.863472
 21
79.982849
 31
0.0
  0
LINE
  5
1430
  8
0
 10
120.279042
 20
80.228057
 30
0.0
 11
120.172687
 21
79.871447
 31
0.0
  0
LINE
  5
1431
  8
0
 10
118.967156
 20
79.488143
 30
0.0
 11
118.821419
 21
79.124307
 31
0.0
  0
LINE
  5
1432
  8
0
 10
119.265485
 20
79.350215
 30
0.0
 11
118.967156
 21
79.488143
 31
0.0
  0
LINE
  5
1433
  8
0
 10
119.402516
 20
79.696199
 30
0.0
 11
119.265485
 21
79.350215
 31
0.0
  0
LINE
  5
1434
  8
0
 10
119.75
 20
79.607695
 30
0.0
 11
119.402516
 21
79.696199
 31
0.0
  0
LINE
  5
1435
  8
0
 10
118.821419
 20
79.124307
 30
0.0
 11
118.482971
 21
79.242759
 31
0.0
  0
LINE
  5
1436
  8
0
 10
122.24779
 20
81.906458
 30
0.0
 11
122.235281
 21
81.514719
 31
0.0
  0
LINE
  5
1437
  8
0
 10
121.510055
 20
81.196625
 30
0.0
 11
121.463451
 21
80.807467
 31
0.0
  0
LINE
  5
1438
  8
0
 10
121.833917
 20
81.140611
 30
0.0
 11
121.510055
 21
81.196625
 31
0.0
  0
LINE
  5
1439
  8
0
 10
121.876732
 20
81.510271
 30
0.0
 11
121.833917
 21
81.140611
 31
0.0
  0
LINE
  5
143A
  8
0
 10
122.235281
 20
81.514719
 30
0.0
 11
121.876732
 21
81.510271
 31
0.0
  0
LINE
  5
143B
  8
0
 10
120.713261
 20
80.553792
 30
0.0
 11
120.632917
 21
80.170175
 31
0.0
  0
LINE
  5
143C
  8
0
 10
121.031009
 20
80.469764
 30
0.0
 11
120.713261
 21
80.553792
 31
0.0
  0
LINE
  5
143D
  8
0
 10
121.105878
 20
80.834286
 30
0.0
 11
121.031009
 21
80.469764
 31
0.0
  0
LINE
  5
143E
  8
0
 10
121.463451
 20
80.807467
 30
0.0
 11
121.105878
 21
80.834286
 31
0.0
  0
LINE
  5
143F
  8
0
 10
122.942533
 20
82.286549
 30
0.0
 11
122.585736
 21
82.250869
 31
0.0
  0
LINE
  5
1440
  8
0
 10
122.575302
 20
81.878883
 30
0.0
 11
122.24779
 21
81.906458
 31
0.0
  0
LINE
  5
1441
  8
0
 10
122.585736
 20
82.250869
 30
0.0
 11
122.575302
 21
81.878883
 31
0.0
  0
LINE
  5
1442
  8
0
 10
124.052998
 20
84.381629
 30
0.0
 11
124.142305
 21
84.0
 31
0.0
  0
LINE
  5
1443
  8
0
 10
124.376487
 20
84.43976
 30
0.0
 11
124.052998
 21
84.381629
 31
0.0
  0
LINE
  5
1444
  8
0
 10
124.290288
 20
84.80177
 30
0.0
 11
124.376487
 21
84.43976
 31
0.0
  0
LINE
  5
1445
  8
0
 10
124.625693
 20
84.928581
 30
0.0
 11
124.290288
 21
84.80177
 31
0.0
  0
LINE
  5
1446
  8
0
 10
123.524118
 20
83.505043
 30
0.0
 11
123.579825
 21
83.117083
 31
0.0
  0
LINE
  5
1447
  8
0
 10
123.851443
 20
83.534759
 30
0.0
 11
123.524118
 21
83.505043
 31
0.0
  0
LINE
  5
1448
  8
0
 10
123.797123
 20
83.902905
 30
0.0
 11
123.851443
 21
83.534759
 31
0.0
  0
LINE
  5
1449
  8
0
 10
124.142305
 20
84.0
 30
0.0
 11
123.797123
 21
83.902905
 31
0.0
  0
LINE
  5
144A
  8
0
 10
122.920852
 20
82.677888
 30
0.0
 11
122.942533
 21
82.286549
 31
0.0
  0
LINE
  5
144B
  8
0
 10
123.249521
 20
82.678962
 30
0.0
 11
122.920852
 21
82.677888
 31
0.0
  0
LINE
  5
144C
  8
0
 10
123.227494
 20
83.050441
 30
0.0
 11
123.249521
 21
82.678962
 31
0.0
  0
LINE
  5
144D
  8
0
 10
123.579825
 20
83.117083
 30
0.0
 11
123.227494
 21
83.050441
 31
0.0
  0
CIRCLE
  5
144E
  8
0
 10
113.75
 20
90.0
 30
0.0
 40
3.0
  0
CIRCLE
  5
144F
  8
0
 10
113.75
 20
90.0
 30
0.0
 40
2.5
  0
LINE
  5
1450
  8
0
 10
111.96248
 20
101.61568
 30
0.0
 11
112.20958
 21
101.893931
 31
0.0
  0
LINE
  5
1451
  8
1
 10
98.5
 20
90.0
 30
0.0
 11
129.25
 21
90.0
 31
0.0
  0
LINE
  5
1452
  8
0
 10
105.25221
 20
98.093542
 30
0.0
 11
105.264719
 21
98.485281
 31
0.0
  0
LINE
  5
1453
  8
0
 10
103.447002
 20
95.618371
 30
0.0
 11
103.357695
 21
96.0
 31
0.0
  0
LINE
  5
1454
  8
0
 10
103.123513
 20
95.56024
 30
0.0
 11
103.447002
 21
95.618371
 31
0.0
  0
LINE
  5
1455
  8
0
 10
103.357695
 20
96.0
 30
0.0
 11
103.702877
 21
96.097095
 31
0.0
  0
LINE
  5
1456
  8
0
 10
101.862655
 20
91.590444
 30
0.0
 11
102.146753
 21
91.755709
 31
0.0
  0
LINE
  5
1457
  8
0
 10
102.13432
 20
88.21248
 30
0.0
 11
101.856069
 21
88.45958
 31
0.0
  0
LINE
  5
1458
  8
0
 10
102.823439
 20
85.718865
 30
0.0
 11
102.473689
 21
85.895758
 31
0.0
  0
LINE
  5
1459
  8
0
 10
102.660035
 20
85.433692
 30
0.0
 11
102.823439
 21
85.718865
 31
0.0
  0
LINE
  5
145A
  8
0
 10
102.992759
 20
85.267029
 30
0.0
 11
102.660035
 21
85.433692
 31
0.0
  0
LINE
  5
145B
  8
0
 10
102.491892
 20
86.687469
 30
0.0
 11
102.15889
 21
86.894171
 31
0.0
  0
LINE
  5
145C
  8
0
 10
102.304256
 20
86.417623
 30
0.0
 11
102.491892
 21
86.687469
 31
0.0
  0
LINE
  5
145D
  8
0
 10
102.621188
 20
86.222594
 30
0.0
 11
102.304256
 21
86.417623
 31
0.0
  0
LINE
  5
145E
  8
0
 10
102.473689
 20
85.895758
 30
0.0
 11
102.621188
 21
86.222594
 31
0.0
  0
LINE
  5
145F
  8
0
 10
102.246027
 20
87.681283
 30
0.0
 11
101.932307
 21
87.916222
 31
0.0
  0
LINE
  5
1460
  8
0
 10
102.035585
 20
87.428817
 30
0.0
 11
102.246027
 21
87.681283
 31
0.0
  0
LINE
  5
1461
  8
0
 10
102.334313
 20
87.206908
 30
0.0
 11
102.035585
 21
87.428817
 31
0.0
  0
LINE
  5
1462
  8
0
 10
102.15889
 20
86.894171
 30
0.0
 11
102.334313
 21
87.206908
 31
0.0
  0
LINE
  5
1463
  8
0
 10
101.932307
 20
87.916222
 30
0.0
 11
102.13432
 21
88.21248
 31
0.0
  0
LINE
  5
1464
  8
0
 10
102.087713
 20
88.692744
 30
0.0
 11
101.795664
 21
88.954131
 31
0.0
  0
LINE
  5
1465
  8
0
 10
101.856069
 20
88.45958
 30
0.0
 11
102.087713
 21
88.692744
 31
0.0
  0
LINE
  5
1466
  8
0
 10
102.018157
 20
89.714153
 30
0.0
 11
101.75
 21
90.0
 31
0.0
  0
LINE
  5
1467
  8
0
 10
101.767072
 20
89.502066
 30
0.0
 11
102.018157
 21
89.714153
 31
0.0
  0
LINE
  5
1468
  8
0
 10
102.022728
 20
89.231655
 30
0.0
 11
101.767072
 21
89.502066
 31
0.0
  0
LINE
  5
1469
  8
0
 10
101.795664
 20
88.954131
 30
0.0
 11
102.022728
 21
89.231655
 31
0.0
  0
LINE
  5
146A
  8
0
 10
102.037887
 20
90.737739
 30
0.0
 11
101.795664
 21
91.045869
 31
0.0
  0
LINE
  5
146B
  8
0
 10
101.769273
 20
90.548342
 30
0.0
 11
102.037887
 21
90.737739
 31
0.0
  0
LINE
  5
146C
  8
0
 10
102.000388
 20
90.256678
 30
0.0
 11
101.769273
 21
90.548342
 31
0.0
  0
LINE
  5
146D
  8
0
 10
101.75
 20
90.0
 30
0.0
 11
102.000388
 21
90.256678
 31
0.0
  0
LINE
  5
146E
  8
0
 10
102.06747
 20
91.279747
 30
0.0
 11
101.862655
 21
91.590444
 31
0.0
  0
LINE
  5
146F
  8
0
 10
101.795664
 20
91.045869
 30
0.0
 11
102.06747
 21
91.279747
 31
0.0
  0
LINE
  5
1470
  8
0
 10
102.996535
 20
94.699026
 30
0.0
 11
102.874307
 21
95.071419
 31
0.0
  0
LINE
  5
1471
  8
0
 10
102.146753
 20
91.755709
 30
0.0
 11
101.932307
 21
92.083778
 31
0.0
  0
LINE
  5
1472
  8
0
 10
102.343927
 20
92.760318
 30
0.0
 11
102.15889
 21
93.105829
 31
0.0
  0
LINE
  5
1473
  8
0
 10
102.046506
 20
92.620443
 30
0.0
 11
102.343927
 21
92.760318
 31
0.0
  0
LINE
  5
1474
  8
0
 10
102.223463
 20
92.293077
 30
0.0
 11
102.046506
 21
92.620443
 31
0.0
  0
LINE
  5
1475
  8
0
 10
101.932307
 20
92.083778
 30
0.0
 11
102.223463
 21
92.293077
 31
0.0
  0
LINE
  5
1476
  8
0
 10
102.627908
 20
93.743919
 30
0.0
 11
102.473689
 21
94.104242
 31
0.0
  0
LINE
  5
1477
  8
0
 10
102.319428
 20
93.630498
 30
0.0
 11
102.627908
 21
93.743919
 31
0.0
  0
LINE
  5
1478
  8
0
 10
102.46718
 20
93.288955
 30
0.0
 11
102.319428
 21
93.630498
 31
0.0
  0
LINE
  5
1479
  8
0
 10
102.15889
 20
93.105829
 30
0.0
 11
102.46718
 21
93.288955
 31
0.0
  0
LINE
  5
147A
  8
0
 10
102.679343
 20
94.612923
 30
0.0
 11
102.996535
 21
94.699026
 31
0.0
  0
LINE
  5
147B
  8
0
 10
102.796765
 20
94.259802
 30
0.0
 11
102.679343
 21
94.612923
 31
0.0
  0
LINE
  5
147C
  8
0
 10
102.473689
 20
94.104242
 30
0.0
 11
102.796765
 21
94.259802
 31
0.0
  0
LINE
  5
147D
  8
0
 10
103.209712
 20
95.19823
 30
0.0
 11
103.123513
 21
95.56024
 31
0.0
  0
LINE
  5
147E
  8
0
 10
102.874307
 20
95.071419
 30
0.0
 11
103.209712
 21
95.19823
 31
0.0
  0
LINE
  5
147F
  8
0
 10
103.975882
 20
96.494957
 30
0.0
 11
103.920175
 21
96.882917
 31
0.0
  0
LINE
  5
1480
  8
0
 10
103.648557
 20
96.465241
 30
0.0
 11
103.975882
 21
96.494957
 31
0.0
  0
LINE
  5
1481
  8
0
 10
103.702877
 20
96.097095
 30
0.0
 11
103.648557
 21
96.465241
 31
0.0
  0
LINE
  5
1482
  8
0
 10
104.579148
 20
97.322112
 30
0.0
 11
104.557467
 21
97.713451
 31
0.0
  0
LINE
  5
1483
  8
0
 10
104.250479
 20
97.321038
 30
0.0
 11
104.579148
 21
97.322112
 31
0.0
  0
LINE
  5
1484
  8
0
 10
104.272506
 20
96.949559
 30
0.0
 11
104.250479
 21
97.321038
 31
0.0
  0
LINE
  5
1485
  8
0
 10
103.920175
 20
96.882917
 30
0.0
 11
104.272506
 21
96.949559
 31
0.0
  0
LINE
  5
1486
  8
0
 10
104.924698
 20
98.121117
 30
0.0
 11
105.25221
 21
98.093542
 31
0.0
  0
LINE
  5
1487
  8
0
 10
104.914264
 20
97.749131
 30
0.0
 11
104.924698
 21
98.121117
 31
0.0
  0
LINE
  5
1488
  8
0
 10
104.557467
 20
97.713451
 30
0.0
 11
104.914264
 21
97.749131
 31
0.0
  0
LINE
  5
1489
  8
0
 10
107.636528
 20
100.017151
 30
0.0
 11
107.75
 21
100.392305
 31
0.0
  0
LINE
  5
148A
  8
0
 10
105.264719
 20
98.485281
 30
0.0
 11
105.623268
 21
98.489729
 31
0.0
  0
LINE
  5
148B
  8
0
 10
105.989945
 20
98.803375
 30
0.0
 11
106.036549
 21
99.192533
 31
0.0
  0
LINE
  5
148C
  8
0
 10
105.666083
 20
98.859389
 30
0.0
 11
105.989945
 21
98.803375
 31
0.0
  0
LINE
  5
148D
  8
0
 10
105.623268
 20
98.489729
 30
0.0
 11
105.666083
 21
98.859389
 31
0.0
  0
LINE
  5
148E
  8
0
 10
106.786739
 20
99.446208
 30
0.0
 11
106.867083
 21
99.829825
 31
0.0
  0
LINE
  5
148F
  8
0
 10
106.468991
 20
99.530236
 30
0.0
 11
106.786739
 21
99.446208
 31
0.0
  0
LINE
  5
1490
  8
0
 10
106.394122
 20
99.165714
 30
0.0
 11
106.468991
 21
99.530236
 31
0.0
  0
LINE
  5
1491
  8
0
 10
106.036549
 20
99.192533
 30
0.0
 11
106.394122
 21
99.165714
 31
0.0
  0
LINE
  5
1492
  8
0
 10
107.327313
 20
100.128553
 30
0.0
 11
107.636528
 21
100.017151
 31
0.0
  0
LINE
  5
1493
  8
0
 10
107.220958
 20
99.771943
 30
0.0
 11
107.327313
 21
100.128553
 31
0.0
  0
LINE
  5
1494
  8
0
 10
106.867083
 20
99.829825
 30
0.0
 11
107.220958
 21
99.771943
 31
0.0
  0
LINE
  5
1495
  8
0
 10
111.431283
 20
101.503973
 30
0.0
 11
111.666222
 21
101.817693
 31
0.0
  0
LINE
  5
1496
  8
0
 10
111.178817
 20
101.714415
 30
0.0
 11
111.431283
 21
101.503973
 31
0.0
  0
LINE
  5
1497
  8
0
 10
110.956908
 20
101.415687
 30
0.0
 11
111.178817
 21
101.714415
 31
0.0
  0
LINE
  5
1498
  8
0
 10
109.645758
 20
101.276311
 30
0.0
 11
109.972594
 21
101.128812
 31
0.0
  0
LINE
  5
1499
  8
0
 10
108.532844
 20
100.511857
 30
0.0
 11
108.678581
 21
100.875693
 31
0.0
  0
LINE
  5
149A
  8
0
 10
108.234515
 20
100.649785
 30
0.0
 11
108.532844
 21
100.511857
 31
0.0
  0
LINE
  5
149B
  8
0
 10
108.097484
 20
100.303801
 30
0.0
 11
108.234515
 21
100.649785
 31
0.0
  0
LINE
  5
149C
  8
0
 10
107.75
 20
100.392305
 30
0.0
 11
108.097484
 21
100.303801
 31
0.0
  0
LINE
  5
149D
  8
0
 10
109.468865
 20
100.926561
 30
0.0
 11
109.645758
 21
101.276311
 31
0.0
  0
LINE
  5
149E
  8
0
 10
109.183692
 20
101.089965
 30
0.0
 11
109.468865
 21
100.926561
 31
0.0
  0
LINE
  5
149F
  8
0
 10
109.017029
 20
100.757241
 30
0.0
 11
109.183692
 21
101.089965
 31
0.0
  0
LINE
  5
14A0
  8
0
 10
108.678581
 20
100.875693
 30
0.0
 11
109.017029
 21
100.757241
 31
0.0
  0
LINE
  5
14A1
  8
0
 10
110.437469
 20
101.258108
 30
0.0
 11
110.644171
 21
101.59111
 31
0.0
  0
LINE
  5
14A2
  8
0
 10
110.167623
 20
101.445744
 30
0.0
 11
110.437469
 21
101.258108
 31
0.0
  0
LINE
  5
14A3
  8
0
 10
109.972594
 20
101.128812
 30
0.0
 11
110.167623
 21
101.445744
 31
0.0
  0
LINE
  5
14A4
  8
0
 10
110.644171
 20
101.59111
 30
0.0
 11
110.956908
 21
101.415687
 31
0.0
  0
LINE
  5
14A5
  8
0
 10
111.666222
 20
101.817693
 30
0.0
 11
111.96248
 21
101.61568
 31
0.0
  0
LINE
  5
14A6
  8
0
 10
122.235281
 20
98.485281
 30
0.0
 11
122.239729
 21
98.126732
 31
0.0
  0
LINE
  5
14A7
  8
0
 10
125.36568
 20
91.78752
 30
0.0
 11
125.643931
 21
91.54042
 31
0.0
  0
LINE
  5
14A8
  8
0
 10
124.872092
 20
86.256081
 30
0.0
 11
125.026311
 21
85.895758
 31
0.0
  0
LINE
  5
14A9
  8
0
 10
125.180572
 20
86.369502
 30
0.0
 11
124.872092
 21
86.256081
 31
0.0
  0
LINE
  5
14AA
  8
0
 10
125.026311
 20
85.895758
 30
0.0
 11
124.703235
 21
85.740198
 31
0.0
  0
LINE
  5
14AB
  8
0
 10
124.820657
 20
85.387077
 30
0.0
 11
124.503465
 21
85.300974
 31
0.0
  0
LINE
  5
14AC
  8
0
 10
124.703235
 20
85.740198
 30
0.0
 11
124.820657
 21
85.387077
 31
0.0
  0
LINE
  5
14AD
  8
0
 10
125.637345
 20
88.409556
 30
0.0
 11
125.353247
 21
88.244291
 31
0.0
  0
LINE
  5
14AE
  8
0
 10
125.353247
 20
88.244291
 30
0.0
 11
125.567693
 21
87.916222
 31
0.0
  0
LINE
  5
14AF
  8
0
 10
125.156073
 20
87.239682
 30
0.0
 11
125.34111
 21
86.894171
 31
0.0
  0
LINE
  5
14B0
  8
0
 10
125.453494
 20
87.379557
 30
0.0
 11
125.156073
 21
87.239682
 31
0.0
  0
LINE
  5
14B1
  8
0
 10
125.276537
 20
87.706923
 30
0.0
 11
125.453494
 21
87.379557
 31
0.0
  0
LINE
  5
14B2
  8
0
 10
125.567693
 20
87.916222
 30
0.0
 11
125.276537
 21
87.706923
 31
0.0
  0
LINE
  5
14B3
  8
0
 10
125.03282
 20
86.711045
 30
0.0
 11
125.180572
 21
86.369502
 31
0.0
  0
LINE
  5
14B4
  8
0
 10
125.34111
 20
86.894171
 30
0.0
 11
125.03282
 21
86.711045
 31
0.0
  0
LINE
  5
14B5
  8
0
 10
125.412287
 20
91.307256
 30
0.0
 11
125.704336
 21
91.045869
 31
0.0
  0
LINE
  5
14B6
  8
0
 10
125.643931
 20
91.54042
 30
0.0
 11
125.412287
 21
91.307256
 31
0.0
  0
LINE
  5
14B7
  8
0
 10
125.481843
 20
90.285847
 30
0.0
 11
125.75
 21
90.0
 31
0.0
  0
LINE
  5
14B8
  8
0
 10
125.732928
 20
90.497934
 30
0.0
 11
125.481843
 21
90.285847
 31
0.0
  0
LINE
  5
14B9
  8
0
 10
125.477272
 20
90.768345
 30
0.0
 11
125.732928
 21
90.497934
 31
0.0
  0
LINE
  5
14BA
  8
0
 10
125.704336
 20
91.045869
 30
0.0
 11
125.477272
 21
90.768345
 31
0.0
  0
LINE
  5
14BB
  8
0
 10
125.462113
 20
89.262261
 30
0.0
 11
125.704336
 21
88.954131
 31
0.0
  0
LINE
  5
14BC
  8
0
 10
125.730727
 20
89.451658
 30
0.0
 11
125.462113
 21
89.262261
 31
0.0
  0
LINE
  5
14BD
  8
0
 10
125.499612
 20
89.743322
 30
0.0
 11
125.730727
 21
89.451658
 31
0.0
  0
LINE
  5
14BE
  8
0
 10
125.75
 20
90.0
 30
0.0
 11
125.499612
 21
89.743322
 31
0.0
  0
LINE
  5
14BF
  8
0
 10
125.43253
 20
88.720253
 30
0.0
 11
125.637345
 21
88.409556
 31
0.0
  0
LINE
  5
14C0
  8
0
 10
125.704336
 20
88.954131
 30
0.0
 11
125.43253
 21
88.720253
 31
0.0
  0
LINE
  5
14C1
  8
0
 10
124.676561
 20
94.281135
 30
0.0
 11
125.026311
 21
94.104242
 31
0.0
  0
LINE
  5
14C2
  8
0
 10
124.878812
 20
93.777406
 30
0.0
 11
125.195744
 21
93.582377
 31
0.0
  0
LINE
  5
14C3
  8
0
 10
125.026311
 20
94.104242
 30
0.0
 11
124.878812
 21
93.777406
 31
0.0
  0
LINE
  5
14C4
  8
0
 10
124.625693
 20
95.071419
 30
0.0
 11
124.507241
 21
94.732971
 31
0.0
  0
LINE
  5
14C5
  8
0
 10
124.839965
 20
94.566308
 30
0.0
 11
124.676561
 21
94.281135
 31
0.0
  0
LINE
  5
14C6
  8
0
 10
124.507241
 20
94.732971
 30
0.0
 11
124.839965
 21
94.566308
 31
0.0
  0
LINE
  5
14C7
  8
0
 10
122.553375
 20
97.760055
 30
0.0
 11
122.942533
 21
97.713451
 31
0.0
  0
LINE
  5
14C8
  8
0
 10
122.609389
 20
98.083917
 30
0.0
 11
122.553375
 21
97.760055
 31
0.0
  0
LINE
  5
14C9
  8
0
 10
122.239729
 20
98.126732
 30
0.0
 11
122.609389
 21
98.083917
 31
0.0
  0
LINE
  5
14CA
  8
0
 10
123.196208
 20
96.963261
 30
0.0
 11
123.579825
 21
96.882917
 31
0.0
  0
LINE
  5
14CB
  8
0
 10
123.280236
 20
97.281009
 30
0.0
 11
123.196208
 21
96.963261
 31
0.0
  0
LINE
  5
14CC
  8
0
 10
122.915714
 20
97.355878
 30
0.0
 11
123.280236
 21
97.281009
 31
0.0
  0
LINE
  5
14CD
  8
0
 10
122.942533
 20
97.713451
 30
0.0
 11
122.915714
 21
97.355878
 31
0.0
  0
LINE
  5
14CE
  8
0
 10
123.767151
 20
96.113472
 30
0.0
 11
124.142305
 21
96.0
 31
0.0
  0
LINE
  5
14CF
  8
0
 10
123.878553
 20
96.422687
 30
0.0
 11
123.767151
 21
96.113472
 31
0.0
  0
LINE
  5
14D0
  8
0
 10
123.521943
 20
96.529042
 30
0.0
 11
123.878553
 21
96.422687
 31
0.0
  0
LINE
  5
14D1
  8
0
 10
123.579825
 20
96.882917
 30
0.0
 11
123.521943
 21
96.529042
 31
0.0
  0
LINE
  5
14D2
  8
0
 10
124.261857
 20
95.217156
 30
0.0
 11
124.625693
 21
95.071419
 31
0.0
  0
LINE
  5
14D3
  8
0
 10
124.399785
 20
95.515485
 30
0.0
 11
124.261857
 21
95.217156
 31
0.0
  0
LINE
  5
14D4
  8
0
 10
124.053801
 20
95.652516
 30
0.0
 11
124.399785
 21
95.515485
 31
0.0
  0
LINE
  5
14D5
  8
0
 10
124.142305
 20
96.0
 30
0.0
 11
124.053801
 21
95.652516
 31
0.0
  0
LINE
  5
14D6
  8
0
 10
125.008108
 20
93.312531
 30
0.0
 11
125.34111
 21
93.105829
 31
0.0
  0
LINE
  5
14D7
  8
0
 10
125.195744
 20
93.582377
 30
0.0
 11
125.008108
 21
93.312531
 31
0.0
  0
LINE
  5
14D8
  8
0
 10
125.253973
 20
92.318717
 30
0.0
 11
125.567693
 21
92.083778
 31
0.0
  0
LINE
  5
14D9
  8
0
 10
125.464415
 20
92.571183
 30
0.0
 11
125.253973
 21
92.318717
 31
0.0
  0
LINE
  5
14DA
  8
0
 10
125.165687
 20
92.793092
 30
0.0
 11
125.464415
 21
92.571183
 31
0.0
  0
LINE
  5
14DB
  8
0
 10
125.34111
 20
93.105829
 30
0.0
 11
125.165687
 21
92.793092
 31
0.0
  0
LINE
  5
14DC
  8
0
 10
125.567693
 20
92.083778
 30
0.0
 11
125.36568
 21
91.78752
 31
0.0
  0
LINE
  5
14DD
  8
0
 10
120.244957
 20
99.774118
 30
0.0
 11
120.632917
 21
99.829825
 31
0.0
  0
LINE
  5
14DE
  8
0
 10
116.043077
 20
101.526537
 30
0.0
 11
116.370443
 21
101.703494
 31
0.0
  0
LINE
  5
14DF
  8
0
 10
115.833778
 20
101.817693
 30
0.0
 11
116.043077
 21
101.526537
 31
0.0
  0
LINE
  5
14E0
  8
0
 10
114.006678
 20
101.749612
 30
0.0
 11
114.298342
 21
101.980727
 31
0.0
  0
LINE
  5
14E1
  8
0
 10
112.442744
 20
101.662287
 30
0.0
 11
112.704131
 21
101.954336
 31
0.0
  0
LINE
  5
14E2
  8
0
 10
112.20958
 20
101.893931
 30
0.0
 11
112.442744
 21
101.662287
 31
0.0
  0
LINE
  5
14E3
  8
0
 10
113.464153
 20
101.731843
 30
0.0
 11
113.75
 21
102.0
 31
0.0
  0
LINE
  5
14E4
  8
0
 10
113.252066
 20
101.982928
 30
0.0
 11
113.464153
 21
101.731843
 31
0.0
  0
LINE
  5
14E5
  8
0
 10
112.981655
 20
101.727272
 30
0.0
 11
113.252066
 21
101.982928
 31
0.0
  0
LINE
  5
14E6
  8
0
 10
112.704131
 20
101.954336
 30
0.0
 11
112.981655
 21
101.727272
 31
0.0
  0
LINE
  5
14E7
  8
0
 10
113.75
 20
102.0
 30
0.0
 11
114.006678
 21
101.749612
 31
0.0
  0
LINE
  5
14E8
  8
0
 10
114.487739
 20
101.712113
 30
0.0
 11
114.795869
 21
101.954336
 31
0.0
  0
LINE
  5
14E9
  8
0
 10
114.298342
 20
101.980727
 30
0.0
 11
114.487739
 21
101.712113
 31
0.0
  0
LINE
  5
14EA
  8
0
 10
115.505709
 20
101.603247
 30
0.0
 11
115.833778
 21
101.817693
 31
0.0
  0
LINE
  5
14EB
  8
0
 10
115.340444
 20
101.887345
 30
0.0
 11
115.505709
 21
101.603247
 31
0.0
  0
LINE
  5
14EC
  8
0
 10
115.029747
 20
101.68253
 30
0.0
 11
115.340444
 21
101.887345
 31
0.0
  0
LINE
  5
14ED
  8
0
 10
114.795869
 20
101.954336
 30
0.0
 11
115.029747
 21
101.68253
 31
0.0
  0
LINE
  5
14EE
  8
0
 10
116.370443
 20
101.703494
 30
0.0
 11
116.510318
 21
101.406073
 31
0.0
  0
LINE
  5
14EF
  8
0
 10
118.362923
 20
101.070657
 30
0.0
 11
118.449026
 21
100.753465
 31
0.0
  0
LINE
  5
14F0
  8
0
 10
116.510318
 20
101.406073
 30
0.0
 11
116.855829
 21
101.59111
 31
0.0
  0
LINE
  5
14F1
  8
0
 10
117.493919
 20
101.122092
 30
0.0
 11
117.854242
 21
101.276311
 31
0.0
  0
LINE
  5
14F2
  8
0
 10
117.380498
 20
101.430572
 30
0.0
 11
117.493919
 21
101.122092
 31
0.0
  0
LINE
  5
14F3
  8
0
 10
117.038955
 20
101.28282
 30
0.0
 11
117.380498
 21
101.430572
 31
0.0
  0
LINE
  5
14F4
  8
0
 10
116.855829
 20
101.59111
 30
0.0
 11
117.038955
 21
101.28282
 31
0.0
  0
LINE
  5
14F5
  8
0
 10
118.009802
 20
100.953235
 30
0.0
 11
118.362923
 21
101.070657
 31
0.0
  0
LINE
  5
14F6
  8
0
 10
117.854242
 20
101.276311
 30
0.0
 11
118.009802
 21
100.953235
 31
0.0
  0
LINE
  5
14F7
  8
0
 10
118.449026
 20
100.753465
 30
0.0
 11
118.821419
 21
100.875693
 31
0.0
  0
LINE
  5
14F8
  8
0
 10
119.368371
 20
100.302998
 30
0.0
 11
119.75
 21
100.392305
 31
0.0
  0
LINE
  5
14F9
  8
0
 10
119.31024
 20
100.626487
 30
0.0
 11
119.368371
 21
100.302998
 31
0.0
  0
LINE
  5
14FA
  8
0
 10
118.94823
 20
100.540288
 30
0.0
 11
119.31024
 21
100.626487
 31
0.0
  0
LINE
  5
14FB
  8
0
 10
118.821419
 20
100.875693
 30
0.0
 11
118.94823
 21
100.540288
 31
0.0
  0
LINE
  5
14FC
  8
0
 10
120.215241
 20
100.101443
 30
0.0
 11
120.244957
 21
99.774118
 31
0.0
  0
LINE
  5
14FD
  8
0
 10
119.847095
 20
100.047123
 30
0.0
 11
120.215241
 21
100.101443
 31
0.0
  0
LINE
  5
14FE
  8
0
 10
119.75
 20
100.392305
 30
0.0
 11
119.847095
 21
100.047123
 31
0.0
  0
LINE
  5
14FF
  8
0
 10
121.072112
 20
99.170852
 30
0.0
 11
121.463451
 21
99.192533
 31
0.0
  0
LINE
  5
1500
  8
0
 10
121.071038
 20
99.499521
 30
0.0
 11
121.072112
 21
99.170852
 31
0.0
  0
LINE
  5
1501
  8
0
 10
120.699559
 20
99.477494
 30
0.0
 11
121.071038
 21
99.499521
 31
0.0
  0
LINE
  5
1502
  8
0
 10
120.632917
 20
99.829825
 30
0.0
 11
120.699559
 21
99.477494
 31
0.0
  0
LINE
  5
1503
  8
0
 10
121.843542
 20
98.49779
 30
0.0
 11
122.235281
 21
98.485281
 31
0.0
  0
LINE
  5
1504
  8
0
 10
121.871117
 20
98.825302
 30
0.0
 11
121.843542
 21
98.49779
 31
0.0
  0
LINE
  5
1505
  8
0
 10
121.499131
 20
98.835736
 30
0.0
 11
121.871117
 21
98.825302
 31
0.0
  0
LINE
  5
1506
  8
0
 10
121.463451
 20
99.192533
 30
0.0
 11
121.499131
 21
98.835736
 31
0.0
  0
CIRCLE
  5
1507
  8
0
 10
113.75
 20
90.0
 30
0.0
 40
8.0
  0
TEXT
  5
1579
  8
0
 10
140.75
 20
30.5
 30
0.0
 40
7.0
  1
ＫＮＴＢ－６
 41
0.8
  0
LINE
  5
157A
  8
2
 10
30.75
 20
87.55051
 30
0.0
 11
30.75
 21
78.25
 31
0.0
  0
LINE
  5
157B
  8
2
 10
29.75
 20
87.55051
 30
0.0
 11
29.75
 21
78.25
 31
0.0
  0
LINE
  5
157C
  8
1
 10
75.0
 20
90.0
 30
0.0
 11
75.0
 21
80.0
 31
0.0
  0
LINE
  5
157D
  8
2
 10
75.5
 20
90.0
 30
0.0
 11
75.5
 21
82.0
 31
0.0
  0
LINE
  5
157E
  8
2
 10
74.5
 20
90.0
 30
0.0
 11
74.5
 21
82.0
 31
0.0
  0
LINE
  5
157F
  8
2
 10
114.25
 20
87.55051
 30
0.0
 11
114.25
 21
78.25
 31
0.0
  0
LINE
  5
1580
  8
2
 10
113.25
 20
87.55051
 30
0.0
 11
113.25
 21
78.25
 31
0.0
  0
TEXT
  5
1589
  8
0
 10
139.25
 20
2.5
 30
0.0
 40
7.0
  1
ＫＮＴＢ０００６
 41
0.8
  0
VIEWPORT
  5
22
 67
     1
  8
0
 10
261.517699
 20
148.5
 30
0.0
 40
523.035398
 41
297.0
 68
    -1
 69
     1
1001
ACAD
1000
MVIEW
1002
{
1070
    16
1010
0.0
1020
0.0
1030
0.0
1010
0.0
1020
0.0
1030
1.0
1040
0.0
1040
297.0
1040
261.517699
1040
148.5
1040
50.0
1040
0.0
1040
0.0
1070
     0
1070
   100
1070
     1
1070
     1
1070
     0
1070
     0
1070
     0
1070
     0
1040
0.0
1040
0.0
1040
0.0
1040
1.0
1040
1.0
1040
10.0
1040
10.0
1070
     0
1002
{
1002
}
1002
}
  0
ENDSEC
  0
EOF
