  0
SECTION
  2
HEADER
  9
$ACADVER
  1
AC1009
  9
$INSBASE
 10
0.0
 20
0.0
 30
0.0
  9
$EXTMIN
 10
11.25
 20
2.997315
 30
0.0
  9
$EXTMAX
 10
191.686003
 20
117.5
 30
0.0
  9
$LIMMIN
 10
0.0
 20
0.0
  9
$LIMMAX
 10
220.0
 20
170.0
  9
$ORTHOMODE
 70
     0
  9
$REGENMODE
 70
     1
  9
$FILLMODE
 70
     1
  9
$QTEXTMODE
 70
     0
  9
$MIRRTEXT
 70
     1
  9
$DRAGMODE
 70
     2
  9
$LTSCALE
 40
1.0
  9
$OSMODE
 70
     0
  9
$ATTMODE
 70
     1
  9
$TEXTSIZE
 40
7.0
  9
$TRACEWID
 40
1.0
  9
$TEXTSTYLE
  7
STANDARD
  9
$CLAYER
  8
0
  9
$CELTYPE
  6
BYLAYER
  9
$CECOLOR
 62
   256
  9
$DIMSCALE
 40
1.0
  9
$DIMASZ
 40
2.5
  9
$DIMEXO
 40
0.625
  9
$DIMDLI
 40
3.75
  9
$DIMRND
 40
0.0
  9
$DIMDLE
 40
0.0
  9
$DIMEXE
 40
1.25
  9
$DIMTP
 40
0.0
  9
$DIMTM
 40
0.0
  9
$DIMTXT
 40
2.5
  9
$DIMCEN
 40
2.5
  9
$DIMTSZ
 40
0.0
  9
$DIMTOL
 70
     0
  9
$DIMLIM
 70
     0
  9
$DIMTIH
 70
     1
  9
$DIMTOH
 70
     0
  9
$DIMSE1
 70
     0
  9
$DIMSE2
 70
     0
  9
$DIMTAD
 70
     1
  9
$DIMZIN
 70
     8
  9
$DIMBLK
  1

  9
$DIMASO
 70
     1
  9
$DIMSHO
 70
     1
  9
$DIMPOST
  1

  9
$DIMAPOST
  1

  9
$DIMALT
 70
     0
  9
$DIMALTD
 70
     2
  9
$DIMALTF
 40
0.0394
  9
$DIMLFAC
 40
1.0
  9
$DIMTOFL
 70
     1
  9
$DIMTVP
 40
1.0
  9
$DIMTIX
 70
     0
  9
$DIMSOXD
 70
     0
  9
$DIMSAH
 70
     0
  9
$DIMBLK1
  1

  9
$DIMBLK2
  1

  9
$DIMSTYLE
  2
ISO-25
  9
$DIMCLRD
 70
     0
  9
$DIMCLRE
 70
     0
  9
$DIMCLRT
 70
     0
  9
$DIMTFAC
 40
1.0
  9
$DIMGAP
 40
0.625
  9
$LUNITS
 70
     2
  9
$LUPREC
 70
     4
  9
$SKETCHINC
 40
1.0
  9
$FILLETRAD
 40
1.0
  9
$AUNITS
 70
     0
  9
$AUPREC
 70
     0
  9
$MENU
  1
.
  9
$ELEVATION
 40
0.0
  9
$PELEVATION
 40
0.0
  9
$THICKNESS
 40
0.0
  9
$LIMCHECK
 70
     0
  9
$BLIPMODE
 70
     1
  9
$CHAMFERA
 40
0.5
  9
$CHAMFERB
 40
0.5
  9
$SKPOLY
 70
     0
  9
$TDCREATE
 40
2450687.604861
  9
$TDUPDATE
 40
2450687.604861
  9
$TDINDWG
 40
0.0
  9
$TDUSRTIMER
 40
0.0
  9
$USRTIMER
 70
     1
  9
$ANGBASE
 50
0.0
  9
$ANGDIR
 70
     0
  9
$PDMODE
 70
     0
  9
$PDSIZE
 40
0.0
  9
$PLINEWID
 40
0.0
  9
$COORDS
 70
     2
  9
$SPLFRAME
 70
     0
  9
$SPLINETYPE
 70
     6
  9
$SPLINESEGS
 70
     8
  9
$ATTDIA
 70
     0
  9
$ATTREQ
 70
     1
  9
$HANDLING
 70
     1
  9
$HANDSEED
  5
2012
  9
$SURFTAB1
 70
     6
  9
$SURFTAB2
 70
     6
  9
$SURFTYPE
 70
     6
  9
$SURFU
 70
     6
  9
$SURFV
 70
     6
  9
$UCSNAME
  2

  9
$UCSORG
 10
0.0
 20
0.0
 30
0.0
  9
$UCSXDIR
 10
1.0
 20
0.0
 30
0.0
  9
$UCSYDIR
 10
0.0
 20
1.0
 30
0.0
  9
$PUCSNAME
  2

  9
$PUCSORG
 10
0.0
 20
0.0
 30
0.0
  9
$PUCSXDIR
 10
1.0
 20
0.0
 30
0.0
  9
$PUCSYDIR
 10
0.0
 20
1.0
 30
0.0
  9
$USERI1
 70
     0
  9
$USERI2
 70
     0
  9
$USERI3
 70
     0
  9
$USERI4
 70
     0
  9
$USERI5
 70
     0
  9
$USERR1
 40
0.0
  9
$USERR2
 40
0.0
  9
$USERR3
 40
0.0
  9
$USERR4
 40
0.0
  9
$USERR5
 40
0.0
  9
$WORLDVIEW
 70
     1
  9
$SHADEDGE
 70
     3
  9
$SHADEDIF
 70
    70
  9
$TILEMODE
 70
     1
  9
$MAXACTVP
 70
    16
  9
$PLIMCHECK
 70
     0
  9
$PEXTMIN
 10
1.000000E+020
 20
1.000000E+020
 30
1.000000E+020
  9
$PEXTMAX
 10
-1.000000E+020
 20
-1.000000E+020
 30
-1.000000E+020
  9
$PLIMMIN
 10
0.0
 20
0.0
  9
$PLIMMAX
 10
420.0
 20
297.0
  9
$UNITMODE
 70
     0
  9
$VISRETAIN
 70
     0
  9
$PLINEGEN
 70
     0
  9
$PSLTSCALE
 70
     1
  0
ENDSEC
  0
SECTION
  2
TABLES
  0
TABLE
  2
VPORT
 70
     2
  0
VPORT
  2
*ACTIVE
 70
     0
 10
0.0
 20
0.0
 11
1.0
 21
1.0
 12
131.824561
 22
97.390177
 13
0.0
 23
0.0
 14
0.25
 24
0.25
 15
0.5
 25
0.5
 16
0.0
 26
0.0
 36
1.0
 17
0.0
 27
0.0
 37
0.0
 40
194.780355
 41
1.353571
 42
50.0
 43
0.0
 44
0.0
 50
0.0
 51
0.0
 71
     0
 72
 20000
 73
     1
 74
     1
 75
     0
 76
     0
 77
     0
 78
     0
  0
ENDTAB
  0
TABLE
  2
LTYPE
 70
     3
  0
LTYPE
  2
CONTINUOUS
 70
     0
  3
Solid line
 72
    65
 73
     0
 40
0.0
  0
LTYPE
  2
TENSEN
 70
     0
  3

 72
    65
 73
     2
 40
2.5
 49
1.5
 49
-1.0
  0
LTYPE
  2
ITTEN
 70
     0
  3

 72
    65
 73
     4
 40
3.6
 49
2.0
 49
-0.5
 49
0.6
 49
-0.5
  0
ENDTAB
  0
TABLE
  2
LAYER
 70
     4
  0
LAYER
  2
0
 70
     0
 62
     7
  6
CONTINUOUS
  0
LAYER
  2
2
 70
     0
 62
     2
  6
TENSEN
  0
LAYER
  2
1
 70
     0
 62
     1
  6
ITTEN
  0
LAYER
  2
3
 70
     0
 62
     3
  6
CONTINUOUS
  0
ENDTAB
  0
TABLE
  2
STYLE
 70
     1
  0
STYLE
  2
STANDARD
 70
     0
 40
7.0
 41
0.8
 50
0.0
 71
     0
 42
7.0
  3
ISOCP
  4
B:\r13\com\fonts\bigfont.shx
  0
ENDTAB
  0
TABLE
  2
VIEW
 70
     0
  0
ENDTAB
  0
TABLE
  2
UCS
 70
     0
  0
ENDTAB
  0
TABLE
  2
APPID
 70
     1
  0
APPID
  2
ACAD
 70
     0
  0
ENDTAB
  0
TABLE
  2
DIMSTYLE
 70
     8
  0
DIMSTYLE
  2
STANDARD
 70
     0
  3

  4

  5

  6

  7

 40
1.0
 41
0.18
 42
0.0625
 43
0.38
 44
0.18
 45
0.0
 46
0.0
 47
0.0
 48
0.0
140
0.18
141
0.09
142
0.0
143
25.4
144
1.0
145
0.0
146
1.0
147
0.09
 71
     0
 72
     0
 73
     1
 74
     1
 75
     0
 76
     0
 77
     0
 78
     0
170
     0
171
     2
172
     0
173
     0
174
     0
175
     0
176
     0
177
     0
178
     0
  0
DIMSTYLE
  2
ISO-25
 70
     0
  3

  4

  5

  6

  7

 40
1.0
 41
2.5
 42
0.625
 43
3.75
 44
1.25
 45
0.0
 46
0.0
 47
0.0
 48
0.0
140
2.5
141
2.5
142
0.0
143
0.0394
144
1.0
145
1.0
146
1.0
147
0.625
 71
     0
 72
     0
 73
     1
 74
     0
 75
     0
 76
     0
 77
     1
 78
     8
170
     0
171
     2
172
     1
173
     0
174
     0
175
     0
176
     0
177
     0
178
     0
  0
DIMSTYLE
  2
ISO-35
 70
     0
  3

  4

  5

  6

  7

 40
1.0
 41
3.5
 42
0.875
 43
5.25
 44
1.75
 45
0.0
 46
0.0
 47
0.0
 48
0.0
140
3.5
141
3.5
142
0.0
143
0.0394
144
1.0
145
1.4
146
1.0
147
0.875
 71
     0
 72
     0
 73
     1
 74
     0
 75
     0
 76
     0
 77
     1
 78
     8
170
     0
171
     2
172
     1
173
     0
174
     0
175
     0
176
     0
177
     0
178
     0
  0
DIMSTYLE
  2
ISO-5
 70
     0
  3

  4

  5

  6

  7

 40
1.0
 41
5.0
 42
1.25
 43
7.5
 44
2.5
 45
0.0
 46
0.0
 47
0.0
 48
0.0
140
5.0
141
5.0
142
0.0
143
0.0394
144
1.0
145
2.0
146
1.0
147
1.25
 71
     0
 72
     0
 73
     1
 74
     0
 75
     0
 76
     0
 77
     1
 78
     8
170
     0
171
     2
172
     1
173
     0
174
     0
175
     0
176
     0
177
     0
178
     0
  0
DIMSTYLE
  2
ISO-7
 70
     0
  3

  4

  5

  6

  7

 40
1.0
 41
7.0
 42
1.75
 43
10.5
 44
3.5
 45
0.0
 46
0.0
 47
0.0
 48
0.0
140
7.0
141
7.0
142
0.0
143
0.0394
144
1.0
145
2.8
146
1.0
147
1.75
 71
     0
 72
     0
 73
     1
 74
     0
 75
     0
 76
     0
 77
     1
 78
     8
170
     0
171
     2
172
     1
173
     0
174
     0
175
     0
176
     0
177
     0
178
     0
  0
DIMSTYLE
  2
ISO1
 70
     0
  3

  4

  5

  6

  7

 40
1.0
 41
10.0
 42
2.5
 43
15.0
 44
5.0
 45
0.0
 46
0.0
 47
0.0
 48
0.0
140
10.0
141
10.0
142
0.0
143
0.0394
144
1.0
145
4.0
146
1.0
147
2.5
 71
     0
 72
     0
 73
     1
 74
     0
 75
     0
 76
     0
 77
     1
 78
     8
170
     0
171
     2
172
     1
173
     0
174
     0
175
     0
176
     0
177
     0
178
     0
  0
DIMSTYLE
  2
ISO1-4
 70
     0
  3

  4

  5

  6

  7

 40
1.0
 41
14.0
 42
3.5
 43
21.0
 44
7.0
 45
0.0
 46
0.0
 47
0.0
 48
0.0
140
14.0
141
14.0
142
0.0
143
0.0394
144
1.0
145
5.6
146
1.0
147
3.5
 71
     0
 72
     0
 73
     1
 74
     0
 75
     0
 76
     0
 77
     1
 78
     8
170
     0
171
     2
172
     1
173
     0
174
     0
175
     0
176
     0
177
     0
178
     0
  0
DIMSTYLE
  2
ISO2
 70
     0
  3

  4

  5

  6

  7

 40
1.0
 41
20.0
 42
5.0
 43
30.0
 44
10.0
 45
0.0
 46
0.0
 47
0.0
 48
0.0
140
20.0
141
20.0
142
0.0
143
0.0394
144
1.0
145
8.0
146
1.0
147
5.0
 71
     0
 72
     0
 73
     1
 74
     0
 75
     0
 76
     0
 77
     1
 78
     8
170
     0
171
     2
172
     1
173
     0
174
     0
175
     0
176
     0
177
     0
178
     0
  0
ENDTAB
  0
ENDSEC
  0
SECTION
  2
BLOCKS
  0
BLOCK
  8
0
  2
$MODEL_SPACE
 70
     0
 10
0.0
 20
0.0
 30
0.0
  3
$MODEL_SPACE
  1

  0
ENDBLK
  5
200B
  8
0
  0
BLOCK
 67
     1
  8
0
  2
$PAPER_SPACE
 70
     0
 10
0.0
 20
0.0
 30
0.0
  3
$PAPER_SPACE
  1

  0
ENDBLK
  5
2009
 67
     1
  8
0
  0
ENDSEC
  0
SECTION
  2
ENTITIES
  0
TEXT
  5
37
  8
0
 10
140.507298
 20
54.595271
 30
0.0
 40
4.55
  1
部品名称
 41
0.8
  0
TEXT
  5
38
  8
0
 10
140.507298
 20
38.635271
 30
0.0
 40
4.55
  1
品番
 41
0.8
  0
TEXT
  5
39
  8
0
 10
141.007298
 20
25.175271
 30
0.0
 40
4.55
  1
尺度
 41
0.8
  0
TEXT
  5
3A
  8
0
 10
141.507298
 20
10.715271
 30
0.0
 40
4.55
  1
図番
 41
0.8
  0
TEXT
  5
3F
  8
0
 10
140.6
 20
17.0
 30
0.0
 40
7.0
  1
１／１
 41
0.8
  0
TEXT
  5
ED2
  8
0
 10
140.75
 20
46.75
 30
0.0
 40
7.0
  1
ナールドナット
 41
0.8
  0
LINE
  5
1C55
  8
1
 10
11.25
 20
93.0
 30
0.0
 11
61.0
 21
93.0
 31
0.0
  0
LINE
  5
1C56
  8
1
 10
35.5
 20
117.5
 30
0.0
 11
35.5
 21
68.0
 31
0.0
  0
LINE
  5
1CA1
  8
0
 10
37.243115
 20
112.923894
 30
0.0
 11
37.618315
 21
112.394046
 31
0.0
  0
LINE
  5
1CA2
  8
0
 10
37.618315
 20
112.394046
 30
0.0
 11
38.109829
 21
112.817863
 31
0.0
  0
LINE
  5
1CA3
  8
0
 10
38.109829
 20
112.817863
 30
0.0
 11
38.437505
 21
112.288091
 31
0.0
  0
LINE
  5
1CA4
  8
0
 10
38.437505
 20
112.288091
 30
0.0
 11
38.972964
 21
112.696155
 31
0.0
  0
LINE
  5
1CA5
  8
0
 10
35.5
 20
113.0
 30
0.0
 11
35.919952
 21
112.504869
 31
0.0
  0
LINE
  5
1CA6
  8
0
 10
35.919952
 20
112.504869
 30
0.0
 11
36.372657
 21
112.969912
 31
0.0
  0
LINE
  5
1CA7
  8
0
 10
36.372657
 20
112.969912
 30
0.0
 11
36.745259
 21
112.470714
 31
0.0
  0
LINE
  5
1CA8
  8
0
 10
36.745259
 20
112.470714
 30
0.0
 11
37.243115
 21
112.923894
 31
0.0
  0
LINE
  5
1CA9
  8
0
 10
33.756885
 20
112.923894
 30
0.0
 11
34.218393
 21
112.467248
 31
0.0
  0
LINE
  5
1CAA
  8
0
 10
34.218393
 20
112.467248
 30
0.0
 11
34.628844
 21
112.969977
 31
0.0
  0
LINE
  5
1CAB
  8
0
 10
34.628844
 20
112.969977
 30
0.0
 11
35.043536
 21
112.505154
 31
0.0
  0
LINE
  5
1CAC
  8
0
 10
35.043536
 20
112.505154
 30
0.0
 11
35.5
 21
113.0
 31
0.0
  0
LINE
  5
1CAD
  8
0
 10
32.027036
 20
112.696155
 30
0.0
 11
32.526587
 21
112.28147
 31
0.0
  0
LINE
  5
1CAE
  8
0
 10
32.526587
 20
112.28147
 30
0.0
 11
32.891661
 21
112.818059
 31
0.0
  0
LINE
  5
1CAF
  8
0
 10
32.891661
 20
112.818059
 30
0.0
 11
33.345287
 21
112.391147
 31
0.0
  0
LINE
  5
1CB0
  8
0
 10
33.345287
 20
112.391147
 30
0.0
 11
33.756885
 21
112.923894
 31
0.0
  0
LINE
  5
1CB1
  8
0
 10
30.323619
 20
112.318517
 30
0.0
 11
30.857411
 21
111.948948
 31
0.0
  0
LINE
  5
1CB2
  8
0
 10
30.857411
 20
111.948948
 30
0.0
 11
31.174328
 21
112.515314
 31
0.0
  0
LINE
  5
1CB3
  8
0
 10
31.174328
 20
112.515314
 30
0.0
 11
31.663436
 21
112.129563
 31
0.0
  0
LINE
  5
1CB4
  8
0
 10
31.663436
 20
112.129563
 30
0.0
 11
32.027036
 21
112.696155
 31
0.0
  0
LINE
  5
1CB5
  8
0
 10
28.659597
 20
111.793852
 30
0.0
 11
29.223568
 21
111.472213
 31
0.0
  0
LINE
  5
1CB6
  8
0
 10
29.223568
 20
111.472213
 30
0.0
 11
29.489917
 21
112.064045
 31
0.0
  0
LINE
  5
1CB7
  8
0
 10
29.489917
 20
112.064045
 30
0.0
 11
30.010784
 21
111.72239
 31
0.0
  0
LINE
  5
1CB8
  8
0
 10
30.010784
 20
111.72239
 30
0.0
 11
30.323619
 21
112.318517
 31
0.0
  0
LINE
  5
1CB9
  8
0
 10
27.047635
 20
111.126156
 30
0.0
 11
27.637492
 21
110.854894
 31
0.0
  0
LINE
  5
1CBA
  8
0
 10
27.637492
 20
110.854894
 30
0.0
 11
27.851246
 21
111.467687
 31
0.0
  0
LINE
  5
1CBB
  8
0
 10
27.851246
 20
111.467687
 30
0.0
 11
28.399909
 21
111.172729
 31
0.0
  0
LINE
  5
1CBC
  8
0
 10
28.399909
 20
111.172729
 30
0.0
 11
28.659597
 21
111.793852
 31
0.0
  0
LINE
  5
1CBD
  8
0
 10
25.5
 20
110.320508
 30
0.0
 11
26.111255
 21
110.101688
 31
0.0
  0
LINE
  5
1CBE
  8
0
 10
26.111255
 20
110.101688
 30
0.0
 11
26.270787
 21
110.73078
 31
0.0
  0
LINE
  5
1CBF
  8
0
 10
26.270787
 20
110.73078
 30
0.0
 11
26.843069
 21
110.484763
 31
0.0
  0
LINE
  5
1CC0
  8
0
 10
26.843069
 20
110.484763
 30
0.0
 11
27.047635
 21
111.126156
 31
0.0
  0
LINE
  5
1CC1
  8
0
 10
24.028471
 20
109.383041
 30
0.0
 11
24.656471
 21
109.218328
 31
0.0
  0
LINE
  5
1CC2
  8
0
 10
24.656471
 20
109.218328
 30
0.0
 11
24.760568
 21
109.85893
 31
0.0
  0
LINE
  5
1CC3
  8
0
 10
24.760568
 20
109.85893
 30
0.0
 11
25.352114
 21
109.663727
 31
0.0
  0
LINE
  5
1CC4
  8
0
 10
25.352114
 20
109.663727
 30
0.0
 11
25.5
 21
110.320508
 31
0.0
  0
LINE
  5
1CC5
  8
0
 10
22.644248
 20
108.320889
 30
0.0
 11
23.284214
 21
108.211536
 31
0.0
  0
LINE
  5
1CC6
  8
0
 10
23.284214
 20
108.211536
 30
0.0
 11
23.332082
 21
108.858773
 31
0.0
  0
LINE
  5
1CC7
  8
0
 10
23.332082
 20
108.858773
 30
0.0
 11
23.93839
 21
108.71587
 31
0.0
  0
LINE
  5
1CC8
  8
0
 10
23.93839
 20
108.71587
 30
0.0
 11
24.028471
 21
109.383041
 31
0.0
  0
LINE
  5
1CC9
  8
0
 10
21.357864
 20
107.142136
 30
0.0
 11
22.004926
 21
107.088976
 31
0.0
  0
LINE
  5
1CCA
  8
0
 10
22.004926
 20
107.088976
 30
0.0
 11
21.996202
 21
107.737922
 31
0.0
  0
LINE
  5
1CCB
  8
0
 10
21.996202
 20
107.737922
 30
0.0
 11
22.612657
 21
107.648405
 31
0.0
  0
LINE
  5
1CCC
  8
0
 10
22.612657
 20
107.648405
 30
0.0
 11
22.644248
 21
108.320889
 31
0.0
  0
LINE
  5
1CCD
  8
0
 10
20.179111
 20
105.855752
 30
0.0
 11
20.828344
 21
105.85919
 31
0.0
  0
LINE
  5
1CCE
  8
0
 10
20.828344
 20
105.85919
 30
0.0
 11
20.763093
 21
106.504906
 31
0.0
  0
LINE
  5
1CCF
  8
0
 10
20.763093
 20
106.504906
 30
0.0
 11
21.385005
 21
106.469458
 31
0.0
  0
LINE
  5
1CD0
  8
0
 10
21.385005
 20
106.469458
 30
0.0
 11
21.357864
 21
107.142136
 31
0.0
  0
LINE
  5
1CD1
  8
0
 10
19.116959
 20
104.471529
 30
0.0
 11
19.763421
 21
104.531538
 31
0.0
  0
LINE
  5
1CD2
  8
0
 10
19.763421
 20
104.531538
 30
0.0
 11
19.642141
 21
105.16911
 31
0.0
  0
LINE
  5
1CD3
  8
0
 10
19.642141
 20
105.16911
 30
0.0
 11
20.264776
 21
105.188
 31
0.0
  0
LINE
  5
1CD4
  8
0
 10
20.264776
 20
105.188
 30
0.0
 11
20.179111
 21
105.855752
 31
0.0
  0
LINE
  5
1CD5
  8
0
 10
18.179492
 20
103.0
 30
0.0
 11
18.818264
 21
103.116123
 31
0.0
  0
LINE
  5
1CD6
  8
0
 10
18.818264
 20
103.116123
 30
0.0
 11
18.641877
 21
103.740699
 31
0.0
  0
LINE
  5
1CD7
  8
0
 10
18.641877
 20
103.740699
 30
0.0
 11
19.260496
 21
103.813783
 31
0.0
  0
LINE
  5
1CD8
  8
0
 10
19.260496
 20
103.813783
 30
0.0
 11
19.116959
 21
104.471529
 31
0.0
  0
LINE
  5
1CD9
  8
0
 10
17.373844
 20
101.452365
 30
0.0
 11
18.000065
 21
101.623719
 31
0.0
  0
LINE
  5
1CDA
  8
0
 10
18.000065
 20
101.623719
 30
0.0
 11
17.769914
 21
102.230545
 31
0.0
  0
LINE
  5
1CDB
  8
0
 10
17.769914
 20
102.230545
 30
0.0
 11
18.379809
 21
102.357267
 31
0.0
  0
LINE
  5
1CDC
  8
0
 10
18.379809
 20
102.357267
 30
0.0
 11
18.179492
 21
103.0
 31
0.0
  0
LINE
  5
1CDD
  8
0
 10
16.706148
 20
99.840403
 30
0.0
 11
17.315051
 21
100.065684
 31
0.0
  0
LINE
  5
1CDE
  8
0
 10
17.315051
 20
100.065684
 30
0.0
 11
17.032887
 21
100.650141
 31
0.0
  0
LINE
  5
1CDF
  8
0
 10
17.032887
 20
100.650141
 30
0.0
 11
17.629417
 21
100.829537
 31
0.0
  0
LINE
  5
1CE0
  8
0
 10
17.629417
 20
100.829537
 30
0.0
 11
17.373844
 21
101.452365
 31
0.0
  0
LINE
  5
1CE1
  8
0
 10
16.181483
 20
98.176381
 30
0.0
 11
16.768435
 21
98.453874
 31
0.0
  0
LINE
  5
1CE2
  8
0
 10
16.768435
 20
98.453874
 30
0.0
 11
16.436407
 21
99.011515
 31
0.0
  0
LINE
  5
1CE3
  8
0
 10
16.436407
 20
99.011515
 30
0.0
 11
17.015031
 21
99.24222
 31
0.0
  0
LINE
  5
1CE4
  8
0
 10
17.015031
 20
99.24222
 30
0.0
 11
16.706148
 21
99.840403
 31
0.0
  0
LINE
  5
1CE5
  8
0
 10
15.803845
 20
96.472964
 30
0.0
 11
16.364378
 21
96.800557
 31
0.0
  0
LINE
  5
1CE6
  8
0
 10
16.364378
 20
96.800557
 30
0.0
 11
15.985011
 21
97.327138
 31
0.0
  0
LINE
  5
1CE7
  8
0
 10
15.985011
 20
97.327138
 30
0.0
 11
16.541326
 21
97.607395
 31
0.0
  0
LINE
  5
1CE8
  8
0
 10
16.541326
 20
97.607395
 30
0.0
 11
16.181483
 21
98.176381
 31
0.0
  0
LINE
  5
1CE9
  8
0
 10
15.576106
 20
94.743115
 30
0.0
 11
16.105954
 21
95.118315
 31
0.0
  0
LINE
  5
1CEA
  8
0
 10
16.105954
 20
95.118315
 30
0.0
 11
15.682137
 21
95.609829
 31
0.0
  0
LINE
  5
1CEB
  8
0
 10
15.682137
 20
95.609829
 30
0.0
 11
16.211909
 21
95.937505
 31
0.0
  0
LINE
  5
1CEC
  8
0
 10
16.211909
 20
95.937505
 30
0.0
 11
15.803845
 21
96.472964
 31
0.0
  0
LINE
  5
1CED
  8
0
 10
15.5
 20
93.0
 30
0.0
 11
15.995131
 21
93.419952
 31
0.0
  0
LINE
  5
1CEE
  8
0
 10
15.995131
 20
93.419952
 30
0.0
 11
15.530088
 21
93.872657
 31
0.0
  0
LINE
  5
1CEF
  8
0
 10
15.530088
 20
93.872657
 30
0.0
 11
16.029286
 21
94.245259
 31
0.0
  0
LINE
  5
1CF0
  8
0
 10
16.029286
 20
94.245259
 30
0.0
 11
15.576106
 21
94.743115
 31
0.0
  0
LINE
  5
1CF1
  8
0
 10
15.576106
 20
91.256885
 30
0.0
 11
16.032752
 21
91.718393
 31
0.0
  0
LINE
  5
1CF2
  8
0
 10
16.032752
 20
91.718393
 30
0.0
 11
15.530023
 21
92.128844
 31
0.0
  0
LINE
  5
1CF3
  8
0
 10
15.530023
 20
92.128844
 30
0.0
 11
15.994846
 21
92.543536
 31
0.0
  0
LINE
  5
1CF4
  8
0
 10
15.994846
 20
92.543536
 30
0.0
 11
15.5
 21
93.0
 31
0.0
  0
LINE
  5
1CF5
  8
0
 10
15.803845
 20
89.527036
 30
0.0
 11
16.21853
 21
90.026587
 31
0.0
  0
LINE
  5
1CF6
  8
0
 10
16.21853
 20
90.026587
 30
0.0
 11
15.681941
 21
90.391661
 31
0.0
  0
LINE
  5
1CF7
  8
0
 10
15.681941
 20
90.391661
 30
0.0
 11
16.108853
 21
90.845287
 31
0.0
  0
LINE
  5
1CF8
  8
0
 10
16.108853
 20
90.845287
 30
0.0
 11
15.576106
 21
91.256885
 31
0.0
  0
LINE
  5
1CF9
  8
0
 10
16.181483
 20
87.823619
 30
0.0
 11
16.551052
 21
88.357411
 31
0.0
  0
LINE
  5
1CFA
  8
0
 10
16.551052
 20
88.357411
 30
0.0
 11
15.984686
 21
88.674328
 31
0.0
  0
LINE
  5
1CFB
  8
0
 10
15.984686
 20
88.674328
 30
0.0
 11
16.370437
 21
89.163436
 31
0.0
  0
LINE
  5
1CFC
  8
0
 10
16.370437
 20
89.163436
 30
0.0
 11
15.803845
 21
89.527036
 31
0.0
  0
LINE
  5
1CFD
  8
0
 10
16.706148
 20
86.159597
 30
0.0
 11
17.027787
 21
86.723568
 31
0.0
  0
LINE
  5
1CFE
  8
0
 10
17.027787
 20
86.723568
 30
0.0
 11
16.435955
 21
86.989917
 31
0.0
  0
LINE
  5
1CFF
  8
0
 10
16.435955
 20
86.989917
 30
0.0
 11
16.77761
 21
87.510784
 31
0.0
  0
LINE
  5
1D00
  8
0
 10
16.77761
 20
87.510784
 30
0.0
 11
16.181483
 21
87.823619
 31
0.0
  0
LINE
  5
1D01
  8
0
 10
17.373844
 20
84.547635
 30
0.0
 11
17.645106
 21
85.137492
 31
0.0
  0
LINE
  5
1D02
  8
0
 10
17.645106
 20
85.137492
 30
0.0
 11
17.032313
 21
85.351246
 31
0.0
  0
LINE
  5
1D03
  8
0
 10
17.032313
 20
85.351246
 30
0.0
 11
17.327271
 21
85.899909
 31
0.0
  0
LINE
  5
1D04
  8
0
 10
17.327271
 20
85.899909
 30
0.0
 11
16.706148
 21
86.159597
 31
0.0
  0
LINE
  5
1D05
  8
0
 10
18.179492
 20
83.0
 30
0.0
 11
18.398312
 21
83.611255
 31
0.0
  0
LINE
  5
1D06
  8
0
 10
18.398312
 20
83.611255
 30
0.0
 11
17.76922
 21
83.770787
 31
0.0
  0
LINE
  5
1D07
  8
0
 10
17.76922
 20
83.770787
 30
0.0
 11
18.015237
 21
84.343069
 31
0.0
  0
LINE
  5
1D08
  8
0
 10
18.015237
 20
84.343069
 30
0.0
 11
17.373844
 21
84.547635
 31
0.0
  0
LINE
  5
1D09
  8
0
 10
19.116959
 20
81.528471
 30
0.0
 11
19.281672
 21
82.156471
 31
0.0
  0
LINE
  5
1D0A
  8
0
 10
19.281672
 20
82.156471
 30
0.0
 11
18.64107
 21
82.260568
 31
0.0
  0
LINE
  5
1D0B
  8
0
 10
18.64107
 20
82.260568
 30
0.0
 11
18.836273
 21
82.852114
 31
0.0
  0
LINE
  5
1D0C
  8
0
 10
18.836273
 20
82.852114
 30
0.0
 11
18.179492
 21
83.0
 31
0.0
  0
LINE
  5
1D0D
  8
0
 10
20.179111
 20
80.144248
 30
0.0
 11
20.288464
 21
80.784214
 31
0.0
  0
LINE
  5
1D0E
  8
0
 10
20.288464
 20
80.784214
 30
0.0
 11
19.641227
 21
80.832082
 31
0.0
  0
LINE
  5
1D0F
  8
0
 10
19.641227
 20
80.832082
 30
0.0
 11
19.78413
 21
81.43839
 31
0.0
  0
LINE
  5
1D10
  8
0
 10
19.78413
 20
81.43839
 30
0.0
 11
19.116959
 21
81.528471
 31
0.0
  0
LINE
  5
1D11
  8
0
 10
21.357864
 20
78.857864
 30
0.0
 11
21.411024
 21
79.504926
 31
0.0
  0
LINE
  5
1D12
  8
0
 10
21.411024
 20
79.504926
 30
0.0
 11
20.762078
 21
79.496202
 31
0.0
  0
LINE
  5
1D13
  8
0
 10
20.762078
 20
79.496202
 30
0.0
 11
20.851595
 21
80.112657
 31
0.0
  0
LINE
  5
1D14
  8
0
 10
20.851595
 20
80.112657
 30
0.0
 11
20.179111
 21
80.144248
 31
0.0
  0
LINE
  5
1D15
  8
0
 10
22.644248
 20
77.679111
 30
0.0
 11
22.64081
 21
78.328344
 31
0.0
  0
LINE
  5
1D16
  8
0
 10
22.64081
 20
78.328344
 30
0.0
 11
21.995094
 21
78.263093
 31
0.0
  0
LINE
  5
1D17
  8
0
 10
21.995094
 20
78.263093
 30
0.0
 11
22.030542
 21
78.885005
 31
0.0
  0
LINE
  5
1D18
  8
0
 10
22.030542
 20
78.885005
 30
0.0
 11
21.357864
 21
78.857864
 31
0.0
  0
LINE
  5
1D19
  8
0
 10
24.028471
 20
76.616959
 30
0.0
 11
23.968462
 21
77.263421
 31
0.0
  0
LINE
  5
1D1A
  8
0
 10
23.968462
 20
77.263421
 30
0.0
 11
23.33089
 21
77.142141
 31
0.0
  0
LINE
  5
1D1B
  8
0
 10
23.33089
 20
77.142141
 30
0.0
 11
23.312
 21
77.764776
 31
0.0
  0
LINE
  5
1D1C
  8
0
 10
23.312
 20
77.764776
 30
0.0
 11
22.644248
 21
77.679111
 31
0.0
  0
LINE
  5
1D1D
  8
0
 10
25.5
 20
75.679492
 30
0.0
 11
25.383877
 21
76.318264
 31
0.0
  0
LINE
  5
1D1E
  8
0
 10
25.383877
 20
76.318264
 30
0.0
 11
24.759301
 21
76.141877
 31
0.0
  0
LINE
  5
1D1F
  8
0
 10
24.759301
 20
76.141877
 30
0.0
 11
24.686217
 21
76.760496
 31
0.0
  0
LINE
  5
1D20
  8
0
 10
24.686217
 20
76.760496
 30
0.0
 11
24.028471
 21
76.616959
 31
0.0
  0
LINE
  5
1D21
  8
0
 10
27.047635
 20
74.873844
 30
0.0
 11
26.876281
 21
75.500065
 31
0.0
  0
LINE
  5
1D22
  8
0
 10
26.876281
 20
75.500065
 30
0.0
 11
26.269455
 21
75.269914
 31
0.0
  0
LINE
  5
1D23
  8
0
 10
26.269455
 20
75.269914
 30
0.0
 11
26.142733
 21
75.879809
 31
0.0
  0
LINE
  5
1D24
  8
0
 10
26.142733
 20
75.879809
 30
0.0
 11
25.5
 21
75.679492
 31
0.0
  0
LINE
  5
1D25
  8
0
 10
28.659597
 20
74.206148
 30
0.0
 11
28.434316
 21
74.815051
 31
0.0
  0
LINE
  5
1D26
  8
0
 10
28.434316
 20
74.815051
 30
0.0
 11
27.849859
 21
74.532887
 31
0.0
  0
LINE
  5
1D27
  8
0
 10
27.849859
 20
74.532887
 30
0.0
 11
27.670463
 21
75.129417
 31
0.0
  0
LINE
  5
1D28
  8
0
 10
27.670463
 20
75.129417
 30
0.0
 11
27.047635
 21
74.873844
 31
0.0
  0
LINE
  5
1D29
  8
0
 10
30.323619
 20
73.681483
 30
0.0
 11
30.046126
 21
74.268435
 31
0.0
  0
LINE
  5
1D2A
  8
0
 10
30.046126
 20
74.268435
 30
0.0
 11
29.488485
 21
73.936407
 31
0.0
  0
LINE
  5
1D2B
  8
0
 10
29.488485
 20
73.936407
 30
0.0
 11
29.25778
 21
74.515031
 31
0.0
  0
LINE
  5
1D2C
  8
0
 10
29.25778
 20
74.515031
 30
0.0
 11
28.659597
 21
74.206148
 31
0.0
  0
LINE
  5
1D2D
  8
0
 10
32.027036
 20
73.303845
 30
0.0
 11
31.699443
 21
73.864378
 31
0.0
  0
LINE
  5
1D2E
  8
0
 10
31.699443
 20
73.864378
 30
0.0
 11
31.172862
 21
73.485011
 31
0.0
  0
LINE
  5
1D2F
  8
0
 10
31.172862
 20
73.485011
 30
0.0
 11
30.892605
 21
74.041326
 31
0.0
  0
LINE
  5
1D30
  8
0
 10
30.892605
 20
74.041326
 30
0.0
 11
30.323619
 21
73.681483
 31
0.0
  0
LINE
  5
1D31
  8
0
 10
33.756885
 20
73.076106
 30
0.0
 11
33.381685
 21
73.605954
 31
0.0
  0
LINE
  5
1D32
  8
0
 10
33.381685
 20
73.605954
 30
0.0
 11
32.890171
 21
73.182137
 31
0.0
  0
LINE
  5
1D33
  8
0
 10
32.890171
 20
73.182137
 30
0.0
 11
32.562495
 21
73.711909
 31
0.0
  0
LINE
  5
1D34
  8
0
 10
32.562495
 20
73.711909
 30
0.0
 11
32.027036
 21
73.303845
 31
0.0
  0
LINE
  5
1D35
  8
0
 10
35.5
 20
73.0
 30
0.0
 11
35.080048
 21
73.495131
 31
0.0
  0
LINE
  5
1D36
  8
0
 10
35.080048
 20
73.495131
 30
0.0
 11
34.627343
 21
73.030088
 31
0.0
  0
LINE
  5
1D37
  8
0
 10
34.627343
 20
73.030088
 30
0.0
 11
34.254741
 21
73.529286
 31
0.0
  0
LINE
  5
1D38
  8
0
 10
34.254741
 20
73.529286
 30
0.0
 11
33.756885
 21
73.076106
 31
0.0
  0
LINE
  5
1D39
  8
0
 10
37.243115
 20
73.076106
 30
0.0
 11
36.781607
 21
73.532752
 31
0.0
  0
LINE
  5
1D3A
  8
0
 10
36.781607
 20
73.532752
 30
0.0
 11
36.371156
 21
73.030023
 31
0.0
  0
LINE
  5
1D3B
  8
0
 10
36.371156
 20
73.030023
 30
0.0
 11
35.956464
 21
73.494846
 31
0.0
  0
LINE
  5
1D3C
  8
0
 10
35.956464
 20
73.494846
 30
0.0
 11
35.5
 21
73.0
 31
0.0
  0
LINE
  5
1D3D
  8
0
 10
38.972964
 20
73.303845
 30
0.0
 11
38.473413
 21
73.71853
 31
0.0
  0
LINE
  5
1D3E
  8
0
 10
38.473413
 20
73.71853
 30
0.0
 11
38.108339
 21
73.181941
 31
0.0
  0
LINE
  5
1D3F
  8
0
 10
38.108339
 20
73.181941
 30
0.0
 11
37.654713
 21
73.608853
 31
0.0
  0
LINE
  5
1D40
  8
0
 10
37.654713
 20
73.608853
 30
0.0
 11
37.243115
 21
73.076106
 31
0.0
  0
LINE
  5
1D41
  8
0
 10
40.676381
 20
73.681483
 30
0.0
 11
40.142589
 21
74.051052
 31
0.0
  0
LINE
  5
1D42
  8
0
 10
40.142589
 20
74.051052
 30
0.0
 11
39.825672
 21
73.484686
 31
0.0
  0
LINE
  5
1D43
  8
0
 10
39.825672
 20
73.484686
 30
0.0
 11
39.336564
 21
73.870437
 31
0.0
  0
LINE
  5
1D44
  8
0
 10
39.336564
 20
73.870437
 30
0.0
 11
38.972964
 21
73.303845
 31
0.0
  0
LINE
  5
1D45
  8
0
 10
42.340403
 20
74.206148
 30
0.0
 11
41.776432
 21
74.527787
 31
0.0
  0
LINE
  5
1D46
  8
0
 10
41.776432
 20
74.527787
 30
0.0
 11
41.510083
 21
73.935955
 31
0.0
  0
LINE
  5
1D47
  8
0
 10
41.510083
 20
73.935955
 30
0.0
 11
40.989216
 21
74.27761
 31
0.0
  0
LINE
  5
1D48
  8
0
 10
40.989216
 20
74.27761
 30
0.0
 11
40.676381
 21
73.681483
 31
0.0
  0
LINE
  5
1D49
  8
0
 10
43.952365
 20
74.873844
 30
0.0
 11
43.362508
 21
75.145106
 31
0.0
  0
LINE
  5
1D4A
  8
0
 10
43.362508
 20
75.145106
 30
0.0
 11
43.148754
 21
74.532313
 31
0.0
  0
LINE
  5
1D4B
  8
0
 10
43.148754
 20
74.532313
 30
0.0
 11
42.600091
 21
74.827271
 31
0.0
  0
LINE
  5
1D4C
  8
0
 10
42.600091
 20
74.827271
 30
0.0
 11
42.340403
 21
74.206148
 31
0.0
  0
LINE
  5
1D4D
  8
0
 10
45.5
 20
75.679492
 30
0.0
 11
44.888745
 21
75.898312
 31
0.0
  0
LINE
  5
1D4E
  8
0
 10
44.888745
 20
75.898312
 30
0.0
 11
44.729213
 21
75.26922
 31
0.0
  0
LINE
  5
1D4F
  8
0
 10
44.729213
 20
75.26922
 30
0.0
 11
44.156931
 21
75.515237
 31
0.0
  0
LINE
  5
1D50
  8
0
 10
44.156931
 20
75.515237
 30
0.0
 11
43.952365
 21
74.873844
 31
0.0
  0
LINE
  5
1D51
  8
0
 10
46.971529
 20
76.616959
 30
0.0
 11
46.343529
 21
76.781672
 31
0.0
  0
LINE
  5
1D52
  8
0
 10
46.343529
 20
76.781672
 30
0.0
 11
46.239432
 21
76.14107
 31
0.0
  0
LINE
  5
1D53
  8
0
 10
46.239432
 20
76.14107
 30
0.0
 11
45.647886
 21
76.336273
 31
0.0
  0
LINE
  5
1D54
  8
0
 10
45.647886
 20
76.336273
 30
0.0
 11
45.5
 21
75.679492
 31
0.0
  0
LINE
  5
1D55
  8
0
 10
48.355752
 20
77.679111
 30
0.0
 11
47.715786
 21
77.788464
 31
0.0
  0
LINE
  5
1D56
  8
0
 10
47.715786
 20
77.788464
 30
0.0
 11
47.667918
 21
77.141227
 31
0.0
  0
LINE
  5
1D57
  8
0
 10
47.667918
 20
77.141227
 30
0.0
 11
47.06161
 21
77.28413
 31
0.0
  0
LINE
  5
1D58
  8
0
 10
47.06161
 20
77.28413
 30
0.0
 11
46.971529
 21
76.616959
 31
0.0
  0
LINE
  5
1D59
  8
0
 10
49.642136
 20
78.857864
 30
0.0
 11
48.995074
 21
78.911024
 31
0.0
  0
LINE
  5
1D5A
  8
0
 10
48.995074
 20
78.911024
 30
0.0
 11
49.003798
 21
78.262078
 31
0.0
  0
LINE
  5
1D5B
  8
0
 10
49.003798
 20
78.262078
 30
0.0
 11
48.387343
 21
78.351595
 31
0.0
  0
LINE
  5
1D5C
  8
0
 10
48.387343
 20
78.351595
 30
0.0
 11
48.355752
 21
77.679111
 31
0.0
  0
LINE
  5
1D5D
  8
0
 10
50.820889
 20
80.144248
 30
0.0
 11
50.171656
 21
80.14081
 31
0.0
  0
LINE
  5
1D5E
  8
0
 10
50.171656
 20
80.14081
 30
0.0
 11
50.236907
 21
79.495094
 31
0.0
  0
LINE
  5
1D5F
  8
0
 10
50.236907
 20
79.495094
 30
0.0
 11
49.614995
 21
79.530542
 31
0.0
  0
LINE
  5
1D60
  8
0
 10
49.614995
 20
79.530542
 30
0.0
 11
49.642136
 21
78.857864
 31
0.0
  0
LINE
  5
1D61
  8
0
 10
51.883041
 20
81.528471
 30
0.0
 11
51.236579
 21
81.468462
 31
0.0
  0
LINE
  5
1D62
  8
0
 10
51.236579
 20
81.468462
 30
0.0
 11
51.357859
 21
80.83089
 31
0.0
  0
LINE
  5
1D63
  8
0
 10
51.357859
 20
80.83089
 30
0.0
 11
50.735224
 21
80.812
 31
0.0
  0
LINE
  5
1D64
  8
0
 10
50.735224
 20
80.812
 30
0.0
 11
50.820889
 21
80.144248
 31
0.0
  0
LINE
  5
1D65
  8
0
 10
52.820508
 20
83.0
 30
0.0
 11
52.181736
 21
82.883877
 31
0.0
  0
LINE
  5
1D66
  8
0
 10
52.181736
 20
82.883877
 30
0.0
 11
52.358123
 21
82.259301
 31
0.0
  0
LINE
  5
1D67
  8
0
 10
52.358123
 20
82.259301
 30
0.0
 11
51.739504
 21
82.186217
 31
0.0
  0
LINE
  5
1D68
  8
0
 10
51.739504
 20
82.186217
 30
0.0
 11
51.883041
 21
81.528471
 31
0.0
  0
LINE
  5
1D69
  8
0
 10
53.626156
 20
84.547635
 30
0.0
 11
52.999935
 21
84.376281
 31
0.0
  0
LINE
  5
1D6A
  8
0
 10
52.999935
 20
84.376281
 30
0.0
 11
53.230086
 21
83.769455
 31
0.0
  0
LINE
  5
1D6B
  8
0
 10
53.230086
 20
83.769455
 30
0.0
 11
52.620191
 21
83.642733
 31
0.0
  0
LINE
  5
1D6C
  8
0
 10
52.620191
 20
83.642733
 30
0.0
 11
52.820508
 21
83.0
 31
0.0
  0
LINE
  5
1D6D
  8
0
 10
54.293852
 20
86.159597
 30
0.0
 11
53.684949
 21
85.934316
 31
0.0
  0
LINE
  5
1D6E
  8
0
 10
53.684949
 20
85.934316
 30
0.0
 11
53.967113
 21
85.349859
 31
0.0
  0
LINE
  5
1D6F
  8
0
 10
53.967113
 20
85.349859
 30
0.0
 11
53.370583
 21
85.170463
 31
0.0
  0
LINE
  5
1D70
  8
0
 10
53.370583
 20
85.170463
 30
0.0
 11
53.626156
 21
84.547635
 31
0.0
  0
LINE
  5
1D71
  8
0
 10
54.818517
 20
87.823619
 30
0.0
 11
54.231565
 21
87.546126
 31
0.0
  0
LINE
  5
1D72
  8
0
 10
54.231565
 20
87.546126
 30
0.0
 11
54.563593
 21
86.988485
 31
0.0
  0
LINE
  5
1D73
  8
0
 10
54.563593
 20
86.988485
 30
0.0
 11
53.984969
 21
86.75778
 31
0.0
  0
LINE
  5
1D74
  8
0
 10
53.984969
 20
86.75778
 30
0.0
 11
54.293852
 21
86.159597
 31
0.0
  0
LINE
  5
1D75
  8
0
 10
55.196155
 20
89.527036
 30
0.0
 11
54.635622
 21
89.199443
 31
0.0
  0
LINE
  5
1D76
  8
0
 10
54.635622
 20
89.199443
 30
0.0
 11
55.014989
 21
88.672862
 31
0.0
  0
LINE
  5
1D77
  8
0
 10
55.014989
 20
88.672862
 30
0.0
 11
54.458674
 21
88.392605
 31
0.0
  0
LINE
  5
1D78
  8
0
 10
54.458674
 20
88.392605
 30
0.0
 11
54.818517
 21
87.823619
 31
0.0
  0
LINE
  5
1D79
  8
0
 10
55.423894
 20
91.256885
 30
0.0
 11
54.894046
 21
90.881685
 31
0.0
  0
LINE
  5
1D7A
  8
0
 10
54.894046
 20
90.881685
 30
0.0
 11
55.317863
 21
90.390171
 31
0.0
  0
LINE
  5
1D7B
  8
0
 10
55.317863
 20
90.390171
 30
0.0
 11
54.788091
 21
90.062495
 31
0.0
  0
LINE
  5
1D7C
  8
0
 10
54.788091
 20
90.062495
 30
0.0
 11
55.196155
 21
89.527036
 31
0.0
  0
LINE
  5
1D7D
  8
0
 10
55.5
 20
93.0
 30
0.0
 11
55.004869
 21
92.580048
 31
0.0
  0
LINE
  5
1D7E
  8
0
 10
55.004869
 20
92.580048
 30
0.0
 11
55.469912
 21
92.127343
 31
0.0
  0
LINE
  5
1D7F
  8
0
 10
55.469912
 20
92.127343
 30
0.0
 11
54.970714
 21
91.754741
 31
0.0
  0
LINE
  5
1D80
  8
0
 10
54.970714
 20
91.754741
 30
0.0
 11
55.423894
 21
91.256885
 31
0.0
  0
LINE
  5
1D81
  8
0
 10
55.423894
 20
94.743115
 30
0.0
 11
54.967248
 21
94.281607
 31
0.0
  0
LINE
  5
1D82
  8
0
 10
54.967248
 20
94.281607
 30
0.0
 11
55.469977
 21
93.871156
 31
0.0
  0
LINE
  5
1D83
  8
0
 10
55.469977
 20
93.871156
 30
0.0
 11
55.005154
 21
93.456464
 31
0.0
  0
LINE
  5
1D84
  8
0
 10
55.005154
 20
93.456464
 30
0.0
 11
55.5
 21
93.0
 31
0.0
  0
LINE
  5
1D85
  8
0
 10
55.196155
 20
96.472964
 30
0.0
 11
54.78147
 21
95.973413
 31
0.0
  0
LINE
  5
1D86
  8
0
 10
54.78147
 20
95.973413
 30
0.0
 11
55.318059
 21
95.608339
 31
0.0
  0
LINE
  5
1D87
  8
0
 10
55.318059
 20
95.608339
 30
0.0
 11
54.891147
 21
95.154713
 31
0.0
  0
LINE
  5
1D88
  8
0
 10
54.891147
 20
95.154713
 30
0.0
 11
55.423894
 21
94.743115
 31
0.0
  0
LINE
  5
1D89
  8
0
 10
54.818517
 20
98.176381
 30
0.0
 11
54.448948
 21
97.642589
 31
0.0
  0
LINE
  5
1D8A
  8
0
 10
54.448948
 20
97.642589
 30
0.0
 11
55.015314
 21
97.325672
 31
0.0
  0
LINE
  5
1D8B
  8
0
 10
55.015314
 20
97.325672
 30
0.0
 11
54.629563
 21
96.836564
 31
0.0
  0
LINE
  5
1D8C
  8
0
 10
54.629563
 20
96.836564
 30
0.0
 11
55.196155
 21
96.472964
 31
0.0
  0
LINE
  5
1D8D
  8
0
 10
54.293852
 20
99.840403
 30
0.0
 11
53.972213
 21
99.276432
 31
0.0
  0
LINE
  5
1D8E
  8
0
 10
53.972213
 20
99.276432
 30
0.0
 11
54.564045
 21
99.010083
 31
0.0
  0
LINE
  5
1D8F
  8
0
 10
54.564045
 20
99.010083
 30
0.0
 11
54.22239
 21
98.489216
 31
0.0
  0
LINE
  5
1D90
  8
0
 10
54.22239
 20
98.489216
 30
0.0
 11
54.818517
 21
98.176381
 31
0.0
  0
LINE
  5
1D91
  8
0
 10
53.626156
 20
101.452365
 30
0.0
 11
53.354894
 21
100.862508
 31
0.0
  0
LINE
  5
1D92
  8
0
 10
53.354894
 20
100.862508
 30
0.0
 11
53.967687
 21
100.648754
 31
0.0
  0
LINE
  5
1D93
  8
0
 10
53.967687
 20
100.648754
 30
0.0
 11
53.672729
 21
100.100091
 31
0.0
  0
LINE
  5
1D94
  8
0
 10
53.672729
 20
100.100091
 30
0.0
 11
54.293852
 21
99.840403
 31
0.0
  0
LINE
  5
1D95
  8
0
 10
52.820508
 20
103.0
 30
0.0
 11
52.601688
 21
102.388745
 31
0.0
  0
LINE
  5
1D96
  8
0
 10
52.601688
 20
102.388745
 30
0.0
 11
53.23078
 21
102.229213
 31
0.0
  0
LINE
  5
1D97
  8
0
 10
53.23078
 20
102.229213
 30
0.0
 11
52.984763
 21
101.656931
 31
0.0
  0
LINE
  5
1D98
  8
0
 10
52.984763
 20
101.656931
 30
0.0
 11
53.626156
 21
101.452365
 31
0.0
  0
LINE
  5
1D99
  8
0
 10
51.883041
 20
104.471529
 30
0.0
 11
51.718328
 21
103.843529
 31
0.0
  0
LINE
  5
1D9A
  8
0
 10
51.718328
 20
103.843529
 30
0.0
 11
52.35893
 21
103.739432
 31
0.0
  0
LINE
  5
1D9B
  8
0
 10
52.35893
 20
103.739432
 30
0.0
 11
52.163727
 21
103.147886
 31
0.0
  0
LINE
  5
1D9C
  8
0
 10
52.163727
 20
103.147886
 30
0.0
 11
52.820508
 21
103.0
 31
0.0
  0
LINE
  5
1D9D
  8
0
 10
50.820889
 20
105.855752
 30
0.0
 11
50.711536
 21
105.215786
 31
0.0
  0
LINE
  5
1D9E
  8
0
 10
50.711536
 20
105.215786
 30
0.0
 11
51.358773
 21
105.167918
 31
0.0
  0
LINE
  5
1D9F
  8
0
 10
51.358773
 20
105.167918
 30
0.0
 11
51.21587
 21
104.56161
 31
0.0
  0
LINE
  5
1DA0
  8
0
 10
51.21587
 20
104.56161
 30
0.0
 11
51.883041
 21
104.471529
 31
0.0
  0
LINE
  5
1DA1
  8
0
 10
49.642136
 20
107.142136
 30
0.0
 11
49.588976
 21
106.495074
 31
0.0
  0
LINE
  5
1DA2
  8
0
 10
49.588976
 20
106.495074
 30
0.0
 11
50.237922
 21
106.503798
 31
0.0
  0
LINE
  5
1DA3
  8
0
 10
50.237922
 20
106.503798
 30
0.0
 11
50.148405
 21
105.887343
 31
0.0
  0
LINE
  5
1DA4
  8
0
 10
50.148405
 20
105.887343
 30
0.0
 11
50.820889
 21
105.855752
 31
0.0
  0
LINE
  5
1DA5
  8
0
 10
48.355752
 20
108.320889
 30
0.0
 11
48.35919
 21
107.671656
 31
0.0
  0
LINE
  5
1DA6
  8
0
 10
48.35919
 20
107.671656
 30
0.0
 11
49.004906
 21
107.736907
 31
0.0
  0
LINE
  5
1DA7
  8
0
 10
49.004906
 20
107.736907
 30
0.0
 11
48.969458
 21
107.114995
 31
0.0
  0
LINE
  5
1DA8
  8
0
 10
48.969458
 20
107.114995
 30
0.0
 11
49.642136
 21
107.142136
 31
0.0
  0
LINE
  5
1DA9
  8
0
 10
46.971529
 20
109.383041
 30
0.0
 11
47.031538
 21
108.736579
 31
0.0
  0
LINE
  5
1DAA
  8
0
 10
47.031538
 20
108.736579
 30
0.0
 11
47.66911
 21
108.857859
 31
0.0
  0
LINE
  5
1DAB
  8
0
 10
47.66911
 20
108.857859
 30
0.0
 11
47.688
 21
108.235224
 31
0.0
  0
LINE
  5
1DAC
  8
0
 10
47.688
 20
108.235224
 30
0.0
 11
48.355752
 21
108.320889
 31
0.0
  0
LINE
  5
1DAD
  8
0
 10
45.5
 20
110.320508
 30
0.0
 11
45.616123
 21
109.681736
 31
0.0
  0
LINE
  5
1DAE
  8
0
 10
45.616123
 20
109.681736
 30
0.0
 11
46.240699
 21
109.858123
 31
0.0
  0
LINE
  5
1DAF
  8
0
 10
46.240699
 20
109.858123
 30
0.0
 11
46.313783
 21
109.239504
 31
0.0
  0
LINE
  5
1DB0
  8
0
 10
46.313783
 20
109.239504
 30
0.0
 11
46.971529
 21
109.383041
 31
0.0
  0
LINE
  5
1DB1
  8
0
 10
43.952365
 20
111.126156
 30
0.0
 11
44.123719
 21
110.499935
 31
0.0
  0
LINE
  5
1DB2
  8
0
 10
44.123719
 20
110.499935
 30
0.0
 11
44.730545
 21
110.730086
 31
0.0
  0
LINE
  5
1DB3
  8
0
 10
44.730545
 20
110.730086
 30
0.0
 11
44.857267
 21
110.120191
 31
0.0
  0
LINE
  5
1DB4
  8
0
 10
44.857267
 20
110.120191
 30
0.0
 11
45.5
 21
110.320508
 31
0.0
  0
LINE
  5
1DB5
  8
0
 10
42.340403
 20
111.793852
 30
0.0
 11
42.565684
 21
111.184949
 31
0.0
  0
LINE
  5
1DB6
  8
0
 10
42.565684
 20
111.184949
 30
0.0
 11
43.150141
 21
111.467113
 31
0.0
  0
LINE
  5
1DB7
  8
0
 10
43.150141
 20
111.467113
 30
0.0
 11
43.329537
 21
110.870583
 31
0.0
  0
LINE
  5
1DB8
  8
0
 10
43.329537
 20
110.870583
 30
0.0
 11
43.952365
 21
111.126156
 31
0.0
  0
LINE
  5
1DB9
  8
0
 10
40.676381
 20
112.318517
 30
0.0
 11
40.953874
 21
111.731565
 31
0.0
  0
LINE
  5
1DBA
  8
0
 10
40.953874
 20
111.731565
 30
0.0
 11
41.511515
 21
112.063593
 31
0.0
  0
LINE
  5
1DBB
  8
0
 10
41.511515
 20
112.063593
 30
0.0
 11
41.74222
 21
111.484969
 31
0.0
  0
LINE
  5
1DBC
  8
0
 10
41.74222
 20
111.484969
 30
0.0
 11
42.340403
 21
111.793852
 31
0.0
  0
LINE
  5
1DBD
  8
0
 10
38.972964
 20
112.696155
 30
0.0
 11
39.300557
 21
112.135622
 31
0.0
  0
LINE
  5
1DBE
  8
0
 10
39.300557
 20
112.135622
 30
0.0
 11
39.827138
 21
112.514989
 31
0.0
  0
LINE
  5
1DBF
  8
0
 10
39.827138
 20
112.514989
 30
0.0
 11
40.107395
 21
111.958674
 31
0.0
  0
LINE
  5
1DC0
  8
0
 10
40.107395
 20
111.958674
 30
0.0
 11
40.676381
 21
112.318517
 31
0.0
  0
CIRCLE
  5
1DC1
  8
0
 10
35.5
 20
93.0
 30
0.0
 40
17.0
  0
CIRCLE
  5
1DC2
  8
0
 10
35.5
 20
93.0
 30
0.0
 40
4.5
  0
CIRCLE
  5
1DC3
  8
0
 10
35.5
 20
93.0
 30
0.0
 40
6.0
  0
LINE
  5
1DC4
  8
1
 10
74.25
 20
93.0
 30
0.0
 11
111.75
 21
93.0
 31
0.0
  0
LINE
  5
1DC5
  8
0
 10
81.0
 20
93.0
 30
0.0
 11
81.0
 21
112.0
 31
0.0
  0
LINE
  5
1DC6
  8
0
 10
82.0
 20
113.0
 30
0.0
 11
96.0
 21
113.0
 31
0.0
  0
LINE
  5
1DC7
  8
0
 10
97.0
 20
112.0
 30
0.0
 11
97.0
 21
93.0
 31
0.0
  0
LINE
  5
1DC9
  8
0
 10
97.0
 20
110.0
 30
0.0
 11
104.0
 21
110.0
 31
0.0
  0
LINE
  5
1DCA
  8
0
 10
105.0
 20
109.0
 30
0.0
 11
105.0
 21
93.0
 31
0.0
  0
ARC
  5
1DCB
  8
0
 10
104.0
 20
109.0
 30
0.0
 40
1.0
 50
0.0
 51
90.0
  0
ARC
  5
1DCC
  8
0
 10
96.0
 20
112.0
 30
0.0
 40
1.0
 50
0.0
 51
90.0
  0
ARC
  5
1DCD
  8
0
 10
82.0
 20
112.0
 30
0.0
 40
1.0
 50
90.0
 51
180.0
  0
LINE
  5
1DCE
  8
0
 10
82.0
 20
93.75
 30
0.0
 11
96.0
 21
93.75
 31
0.0
  0
LINE
  5
1DCF
  8
0
 10
82.0
 20
94.75
 30
0.0
 11
96.0
 21
94.75
 31
0.0
  0
LINE
  5
1DD0
  8
0
 10
82.0
 20
95.75
 30
0.0
 11
96.0
 21
95.75
 31
0.0
  0
LINE
  5
1DD1
  8
0
 10
82.0
 20
96.75
 30
0.0
 11
96.0
 21
96.75
 31
0.0
  0
LINE
  5
1DD2
  8
0
 10
82.0
 20
97.75
 30
0.0
 11
96.0
 21
97.75
 31
0.0
  0
LINE
  5
1DD3
  8
0
 10
82.0
 20
98.75
 30
0.0
 11
96.0
 21
98.75
 31
0.0
  0
LINE
  5
1DD4
  8
0
 10
82.0
 20
99.75
 30
0.0
 11
96.0
 21
99.75
 31
0.0
  0
LINE
  5
1DD5
  8
0
 10
82.0
 20
100.75
 30
0.0
 11
96.0
 21
100.75
 31
0.0
  0
LINE
  5
1DD6
  8
0
 10
82.0
 20
101.75
 30
0.0
 11
96.0
 21
101.75
 31
0.0
  0
LINE
  5
1DD7
  8
0
 10
82.0
 20
102.75
 30
0.0
 11
96.0
 21
102.75
 31
0.0
  0
LINE
  5
1DD8
  8
0
 10
82.0
 20
103.75
 30
0.0
 11
96.0
 21
103.75
 31
0.0
  0
LINE
  5
1DD9
  8
0
 10
82.0
 20
104.75
 30
0.0
 11
96.0
 21
104.75
 31
0.0
  0
LINE
  5
1DDA
  8
0
 10
82.0
 20
105.75
 30
0.0
 11
96.0
 21
105.75
 31
0.0
  0
LINE
  5
1DDB
  8
0
 10
82.0
 20
106.75
 30
0.0
 11
96.0
 21
106.75
 31
0.0
  0
LINE
  5
1DDC
  8
0
 10
82.0
 20
107.75
 30
0.0
 11
96.0
 21
107.75
 31
0.0
  0
LINE
  5
1DDD
  8
0
 10
82.0
 20
108.75
 30
0.0
 11
96.0
 21
108.75
 31
0.0
  0
LINE
  5
1DDE
  8
0
 10
82.0
 20
109.75
 30
0.0
 11
96.0
 21
109.75
 31
0.0
  0
LINE
  5
1DDF
  8
0
 10
82.0
 20
110.75
 30
0.0
 11
96.0
 21
110.75
 31
0.0
  0
LINE
  5
1DE0
  8
0
 10
82.0
 20
111.75
 30
0.0
 11
96.0
 21
111.75
 31
0.0
  0
LINE
  5
1DE1
  8
0
 10
82.0
 20
112.75
 30
0.0
 11
96.0
 21
112.75
 31
0.0
  0
LINE
  5
1DE4
  8
2
 10
91.0
 20
93.0
 30
0.0
 11
91.0
 21
110.0
 31
0.0
  0
LINE
  5
1DE5
  8
2
 10
91.0
 20
110.0
 30
0.0
 11
81.0
 21
110.0
 31
0.0
  0
LINE
  5
1DEA
  8
2
 10
105.0
 20
99.5
 30
0.0
 11
104.0
 21
97.5
 31
0.0
  0
LINE
  5
1DEB
  8
2
 10
104.0
 20
97.5
 30
0.0
 11
104.0
 21
93.0
 31
0.0
  0
LINE
  5
1DEC
  8
2
 10
104.0
 20
97.5
 30
0.0
 11
91.0
 21
97.5
 31
0.0
  0
LINE
  5
1DED
  8
2
 10
104.75
 20
99.0
 30
0.0
 11
91.0
 21
99.0
 31
0.0
  0
LINE
  5
1DEE
  8
2
 10
104.0
 20
88.5
 30
0.0
 11
104.0
 21
93.0
 31
0.0
  0
LINE
  5
1DEF
  8
2
 10
91.0
 20
93.0
 30
0.0
 11
91.0
 21
76.0
 31
0.0
  0
LINE
  5
1DF0
  8
0
 10
81.0
 20
93.0
 30
0.0
 11
81.0
 21
74.0
 31
0.0
  0
LINE
  5
1DF1
  8
0
 10
97.0
 20
74.0
 30
0.0
 11
97.0
 21
93.0
 31
0.0
  0
LINE
  5
1DF2
  8
0
 10
105.0
 20
77.0
 30
0.0
 11
105.0
 21
93.0
 31
0.0
  0
LINE
  5
1DF3
  8
2
 10
104.75
 20
87.0
 30
0.0
 11
91.0
 21
87.0
 31
0.0
  0
LINE
  5
1DF4
  8
2
 10
104.0
 20
88.5
 30
0.0
 11
91.0
 21
88.5
 31
0.0
  0
LINE
  5
1DF5
  8
0
 10
82.0
 20
73.25
 30
0.0
 11
96.0
 21
73.25
 31
0.0
  0
LINE
  5
1DF6
  8
0
 10
82.0
 20
74.25
 30
0.0
 11
96.0
 21
74.25
 31
0.0
  0
LINE
  5
1DF7
  8
0
 10
82.0
 20
75.25
 30
0.0
 11
96.0
 21
75.25
 31
0.0
  0
LINE
  5
1DF8
  8
0
 10
82.0
 20
76.25
 30
0.0
 11
96.0
 21
76.25
 31
0.0
  0
LINE
  5
1DF9
  8
0
 10
82.0
 20
77.25
 30
0.0
 11
96.0
 21
77.25
 31
0.0
  0
LINE
  5
1DFA
  8
0
 10
82.0
 20
78.25
 30
0.0
 11
96.0
 21
78.25
 31
0.0
  0
LINE
  5
1DFB
  8
0
 10
82.0
 20
79.25
 30
0.0
 11
96.0
 21
79.25
 31
0.0
  0
LINE
  5
1DFC
  8
0
 10
82.0
 20
80.25
 30
0.0
 11
96.0
 21
80.25
 31
0.0
  0
LINE
  5
1DFD
  8
0
 10
82.0
 20
81.25
 30
0.0
 11
96.0
 21
81.25
 31
0.0
  0
LINE
  5
1DFE
  8
0
 10
82.0
 20
82.25
 30
0.0
 11
96.0
 21
82.25
 31
0.0
  0
LINE
  5
1DFF
  8
0
 10
82.0
 20
83.25
 30
0.0
 11
96.0
 21
83.25
 31
0.0
  0
LINE
  5
1E00
  8
0
 10
82.0
 20
84.25
 30
0.0
 11
96.0
 21
84.25
 31
0.0
  0
LINE
  5
1E01
  8
0
 10
82.0
 20
85.25
 30
0.0
 11
96.0
 21
85.25
 31
0.0
  0
LINE
  5
1E02
  8
0
 10
82.0
 20
86.25
 30
0.0
 11
96.0
 21
86.25
 31
0.0
  0
LINE
  5
1E03
  8
0
 10
82.0
 20
87.25
 30
0.0
 11
96.0
 21
87.25
 31
0.0
  0
LINE
  5
1E04
  8
0
 10
82.0
 20
88.25
 30
0.0
 11
96.0
 21
88.25
 31
0.0
  0
LINE
  5
1E05
  8
0
 10
82.0
 20
89.25
 30
0.0
 11
96.0
 21
89.25
 31
0.0
  0
LINE
  5
1E06
  8
0
 10
82.0
 20
90.25
 30
0.0
 11
96.0
 21
90.25
 31
0.0
  0
LINE
  5
1E07
  8
0
 10
82.0
 20
91.25
 30
0.0
 11
96.0
 21
91.25
 31
0.0
  0
LINE
  5
1E08
  8
0
 10
82.0
 20
92.25
 30
0.0
 11
96.0
 21
92.25
 31
0.0
  0
LINE
  5
1E09
  8
0
 10
82.0
 20
73.0
 30
0.0
 11
96.0
 21
73.0
 31
0.0
  0
LINE
  5
1E0A
  8
2
 10
91.0
 20
76.0
 30
0.0
 11
81.0
 21
76.0
 31
0.0
  0
ARC
  5
1E0B
  8
0
 10
82.0
 20
74.0
 30
0.0
 40
1.0
 50
180.0
 51
270.0
  0
LINE
  5
1E0C
  8
2
 10
105.0
 20
86.5
 30
0.0
 11
104.0
 21
88.5
 31
0.0
  0
LINE
  5
1E0D
  8
0
 10
97.0
 20
76.0
 30
0.0
 11
104.0
 21
76.0
 31
0.0
  0
ARC
  5
1E0E
  8
0
 10
96.0
 20
74.0
 30
0.0
 40
1.0
 50
270.0
 51
0.0
  0
ARC
  5
1E0F
  8
0
 10
104.0
 20
77.0
 30
0.0
 40
1.0
 50
270.0
 51
0.0
  0
LINE
  5
1E10
  8
0
 10
176.120583
 20
85.170463
 30
0.0
 11
176.376156
 21
84.547635
 31
0.0
  0
LINE
  5
1E11
  8
0
 10
140.123844
 20
84.547635
 30
0.0
 11
140.395106
 21
85.137492
 31
0.0
  0
LINE
  5
1E12
  8
1
 10
158.25
 20
117.5
 30
0.0
 11
158.25
 21
68.0
 31
0.0
  0
CIRCLE
  5
1E13
  8
0
 10
158.25
 20
93.0
 30
0.0
 40
17.0
  0
LINE
  5
1E14
  8
0
 10
152.00778
 20
74.515031
 30
0.0
 11
151.409597
 21
74.206148
 31
0.0
  0
LINE
  5
1E15
  8
0
 10
143.038464
 20
80.784214
 30
0.0
 11
142.391227
 21
80.832082
 31
0.0
  0
LINE
  5
1E16
  8
0
 10
141.866959
 20
81.528471
 30
0.0
 11
142.031672
 21
82.156471
 31
0.0
  0
LINE
  5
1E17
  8
0
 10
142.391227
 20
80.832082
 30
0.0
 11
142.53413
 21
81.43839
 31
0.0
  0
LINE
  5
1E18
  8
0
 10
142.53413
 20
81.43839
 30
0.0
 11
141.866959
 21
81.528471
 31
0.0
  0
LINE
  5
1E19
  8
0
 10
141.148312
 20
83.611255
 30
0.0
 11
140.51922
 21
83.770787
 31
0.0
  0
LINE
  5
1E1A
  8
0
 10
140.51922
 20
83.770787
 30
0.0
 11
140.765237
 21
84.343069
 31
0.0
  0
LINE
  5
1E1B
  8
0
 10
140.765237
 20
84.343069
 30
0.0
 11
140.123844
 21
84.547635
 31
0.0
  0
LINE
  5
1E1C
  8
0
 10
142.031672
 20
82.156471
 30
0.0
 11
141.39107
 21
82.260568
 31
0.0
  0
LINE
  5
1E1D
  8
0
 10
141.39107
 20
82.260568
 30
0.0
 11
141.586273
 21
82.852114
 31
0.0
  0
LINE
  5
1E1E
  8
0
 10
141.586273
 20
82.852114
 30
0.0
 11
140.929492
 21
83.0
 31
0.0
  0
LINE
  5
1E1F
  8
0
 10
140.929492
 20
83.0
 30
0.0
 11
141.148312
 21
83.611255
 31
0.0
  0
LINE
  5
1E20
  8
0
 10
144.745094
 20
78.263093
 30
0.0
 11
144.780542
 21
78.885005
 31
0.0
  0
LINE
  5
1E21
  8
0
 10
147.436217
 20
76.760496
 30
0.0
 11
146.778471
 21
76.616959
 31
0.0
  0
LINE
  5
1E22
  8
0
 10
145.39081
 20
78.328344
 30
0.0
 11
144.745094
 21
78.263093
 31
0.0
  0
LINE
  5
1E23
  8
0
 10
145.394248
 20
77.679111
 30
0.0
 11
145.39081
 21
78.328344
 31
0.0
  0
LINE
  5
1E24
  8
0
 10
146.778471
 20
76.616959
 30
0.0
 11
146.718462
 21
77.263421
 31
0.0
  0
LINE
  5
1E25
  8
0
 10
146.718462
 20
77.263421
 30
0.0
 11
146.08089
 21
77.142141
 31
0.0
  0
LINE
  5
1E26
  8
0
 10
146.08089
 20
77.142141
 30
0.0
 11
146.062
 21
77.764776
 31
0.0
  0
LINE
  5
1E27
  8
0
 10
146.062
 20
77.764776
 30
0.0
 11
145.394248
 21
77.679111
 31
0.0
  0
LINE
  5
1E28
  8
0
 10
149.797635
 20
74.873844
 30
0.0
 11
149.626281
 21
75.500065
 31
0.0
  0
LINE
  5
1E29
  8
0
 10
150.599859
 20
74.532887
 30
0.0
 11
150.420463
 21
75.129417
 31
0.0
  0
LINE
  5
1E2A
  8
0
 10
150.420463
 20
75.129417
 30
0.0
 11
149.797635
 21
74.873844
 31
0.0
  0
LINE
  5
1E2B
  8
0
 10
151.409597
 20
74.206148
 30
0.0
 11
151.184316
 21
74.815051
 31
0.0
  0
LINE
  5
1E2C
  8
0
 10
151.184316
 20
74.815051
 30
0.0
 11
150.599859
 21
74.532887
 31
0.0
  0
LINE
  5
1E2D
  8
0
 10
149.626281
 20
75.500065
 30
0.0
 11
149.019455
 21
75.269914
 31
0.0
  0
LINE
  5
1E2E
  8
0
 10
148.25
 20
75.679492
 30
0.0
 11
148.133877
 21
76.318264
 31
0.0
  0
LINE
  5
1E2F
  8
0
 10
148.133877
 20
76.318264
 30
0.0
 11
147.509301
 21
76.141877
 31
0.0
  0
LINE
  5
1E30
  8
0
 10
149.019455
 20
75.269914
 30
0.0
 11
148.892733
 21
75.879809
 31
0.0
  0
LINE
  5
1E31
  8
0
 10
148.892733
 20
75.879809
 30
0.0
 11
148.25
 21
75.679492
 31
0.0
  0
LINE
  5
1E32
  8
0
 10
147.509301
 20
76.141877
 30
0.0
 11
147.436217
 21
76.760496
 31
0.0
  0
LINE
  5
1E33
  8
0
 10
142.929111
 20
80.144248
 30
0.0
 11
143.038464
 21
80.784214
 31
0.0
  0
LINE
  5
1E34
  8
0
 10
143.601595
 20
80.112657
 30
0.0
 11
142.929111
 21
80.144248
 31
0.0
  0
LINE
  5
1E35
  8
0
 10
144.107864
 20
78.857864
 30
0.0
 11
144.161024
 21
79.504926
 31
0.0
  0
LINE
  5
1E36
  8
0
 10
144.161024
 20
79.504926
 30
0.0
 11
143.512078
 21
79.496202
 31
0.0
  0
LINE
  5
1E37
  8
0
 10
144.780542
 20
78.885005
 30
0.0
 11
144.107864
 21
78.857864
 31
0.0
  0
LINE
  5
1E38
  8
0
 10
143.512078
 20
79.496202
 30
0.0
 11
143.601595
 21
80.112657
 31
0.0
  0
LINE
  5
1E39
  8
0
 10
168.989432
 20
76.14107
 30
0.0
 11
168.397886
 21
76.336273
 31
0.0
  0
LINE
  5
1E3A
  8
0
 10
160.404713
 20
73.608853
 30
0.0
 11
159.993115
 21
73.076106
 31
0.0
  0
LINE
  5
1E3B
  8
0
 10
156.131685
 20
73.605954
 30
0.0
 11
155.640171
 21
73.182137
 31
0.0
  0
LINE
  5
1E3C
  8
0
 10
153.922862
 20
73.485011
 30
0.0
 11
153.642605
 21
74.041326
 31
0.0
  0
LINE
  5
1E3D
  8
0
 10
153.073619
 20
73.681483
 30
0.0
 11
152.796126
 21
74.268435
 31
0.0
  0
LINE
  5
1E3E
  8
0
 10
152.796126
 20
74.268435
 30
0.0
 11
152.238485
 21
73.936407
 31
0.0
  0
LINE
  5
1E3F
  8
0
 10
152.238485
 20
73.936407
 30
0.0
 11
152.00778
 21
74.515031
 31
0.0
  0
LINE
  5
1E40
  8
0
 10
153.642605
 20
74.041326
 30
0.0
 11
153.073619
 21
73.681483
 31
0.0
  0
LINE
  5
1E41
  8
0
 10
154.777036
 20
73.303845
 30
0.0
 11
154.449443
 21
73.864378
 31
0.0
  0
LINE
  5
1E42
  8
0
 10
154.449443
 20
73.864378
 30
0.0
 11
153.922862
 21
73.485011
 31
0.0
  0
LINE
  5
1E43
  8
0
 10
155.640171
 20
73.182137
 30
0.0
 11
155.312495
 21
73.711909
 31
0.0
  0
LINE
  5
1E44
  8
0
 10
155.312495
 20
73.711909
 30
0.0
 11
154.777036
 21
73.303845
 31
0.0
  0
LINE
  5
1E45
  8
0
 10
158.25
 20
73.0
 30
0.0
 11
157.830048
 21
73.495131
 31
0.0
  0
LINE
  5
1E46
  8
0
 10
156.506885
 20
73.076106
 30
0.0
 11
156.131685
 21
73.605954
 31
0.0
  0
LINE
  5
1E47
  8
0
 10
157.830048
 20
73.495131
 30
0.0
 11
157.377343
 21
73.030088
 31
0.0
  0
LINE
  5
1E48
  8
0
 10
157.377343
 20
73.030088
 30
0.0
 11
157.004741
 21
73.529286
 31
0.0
  0
LINE
  5
1E49
  8
0
 10
157.004741
 20
73.529286
 30
0.0
 11
156.506885
 21
73.076106
 31
0.0
  0
LINE
  5
1E4A
  8
0
 10
159.993115
 20
73.076106
 30
0.0
 11
159.531607
 21
73.532752
 31
0.0
  0
LINE
  5
1E4B
  8
0
 10
159.531607
 20
73.532752
 30
0.0
 11
159.121156
 21
73.030023
 31
0.0
  0
LINE
  5
1E4C
  8
0
 10
159.121156
 20
73.030023
 30
0.0
 11
158.706464
 21
73.494846
 31
0.0
  0
LINE
  5
1E4D
  8
0
 10
158.706464
 20
73.494846
 30
0.0
 11
158.25
 21
73.0
 31
0.0
  0
LINE
  5
1E4E
  8
0
 10
164.526432
 20
74.527787
 30
0.0
 11
164.260083
 21
73.935955
 31
0.0
  0
LINE
  5
1E4F
  8
0
 10
162.575672
 20
73.484686
 30
0.0
 11
162.086564
 21
73.870437
 31
0.0
  0
LINE
  5
1E50
  8
0
 10
161.722964
 20
73.303845
 30
0.0
 11
161.223413
 21
73.71853
 31
0.0
  0
LINE
  5
1E51
  8
0
 10
161.223413
 20
73.71853
 30
0.0
 11
160.858339
 21
73.181941
 31
0.0
  0
LINE
  5
1E52
  8
0
 10
160.858339
 20
73.181941
 30
0.0
 11
160.404713
 21
73.608853
 31
0.0
  0
LINE
  5
1E53
  8
0
 10
162.086564
 20
73.870437
 30
0.0
 11
161.722964
 21
73.303845
 31
0.0
  0
LINE
  5
1E54
  8
0
 10
163.426381
 20
73.681483
 30
0.0
 11
162.892589
 21
74.051052
 31
0.0
  0
LINE
  5
1E55
  8
0
 10
162.892589
 20
74.051052
 30
0.0
 11
162.575672
 21
73.484686
 31
0.0
  0
LINE
  5
1E56
  8
0
 10
164.260083
 20
73.935955
 30
0.0
 11
163.739216
 21
74.27761
 31
0.0
  0
LINE
  5
1E57
  8
0
 10
163.739216
 20
74.27761
 30
0.0
 11
163.426381
 21
73.681483
 31
0.0
  0
LINE
  5
1E58
  8
0
 10
166.906931
 20
75.515237
 30
0.0
 11
166.702365
 21
74.873844
 31
0.0
  0
LINE
  5
1E59
  8
0
 10
166.112508
 20
75.145106
 30
0.0
 11
165.898754
 21
74.532313
 31
0.0
  0
LINE
  5
1E5A
  8
0
 10
166.702365
 20
74.873844
 30
0.0
 11
166.112508
 21
75.145106
 31
0.0
  0
LINE
  5
1E5B
  8
0
 10
165.090403
 20
74.206148
 30
0.0
 11
164.526432
 21
74.527787
 31
0.0
  0
LINE
  5
1E5C
  8
0
 10
165.898754
 20
74.532313
 30
0.0
 11
165.350091
 21
74.827271
 31
0.0
  0
LINE
  5
1E5D
  8
0
 10
165.350091
 20
74.827271
 30
0.0
 11
165.090403
 21
74.206148
 31
0.0
  0
LINE
  5
1E5E
  8
0
 10
168.25
 20
75.679492
 30
0.0
 11
167.638745
 21
75.898312
 31
0.0
  0
LINE
  5
1E5F
  8
0
 10
167.638745
 20
75.898312
 30
0.0
 11
167.479213
 21
75.26922
 31
0.0
  0
LINE
  5
1E60
  8
0
 10
167.479213
 20
75.26922
 30
0.0
 11
166.906931
 21
75.515237
 31
0.0
  0
LINE
  5
1E61
  8
0
 10
168.397886
 20
76.336273
 30
0.0
 11
168.25
 21
75.679492
 31
0.0
  0
LINE
  5
1E62
  8
0
 10
171.745074
 20
78.911024
 30
0.0
 11
171.753798
 21
78.262078
 31
0.0
  0
LINE
  5
1E63
  8
0
 10
171.105752
 20
77.679111
 30
0.0
 11
170.465786
 21
77.788464
 31
0.0
  0
LINE
  5
1E64
  8
0
 10
169.721529
 20
76.616959
 30
0.0
 11
169.093529
 21
76.781672
 31
0.0
  0
LINE
  5
1E65
  8
0
 10
170.465786
 20
77.788464
 30
0.0
 11
170.417918
 21
77.141227
 31
0.0
  0
LINE
  5
1E66
  8
0
 10
170.417918
 20
77.141227
 30
0.0
 11
169.81161
 21
77.28413
 31
0.0
  0
LINE
  5
1E67
  8
0
 10
169.81161
 20
77.28413
 30
0.0
 11
169.721529
 21
76.616959
 31
0.0
  0
LINE
  5
1E68
  8
0
 10
169.093529
 20
76.781672
 30
0.0
 11
168.989432
 21
76.14107
 31
0.0
  0
LINE
  5
1E69
  8
0
 10
171.753798
 20
78.262078
 30
0.0
 11
171.137343
 21
78.351595
 31
0.0
  0
LINE
  5
1E6A
  8
0
 10
171.137343
 20
78.351595
 30
0.0
 11
171.105752
 21
77.679111
 31
0.0
  0
LINE
  5
1E6B
  8
0
 10
173.570889
 20
80.144248
 30
0.0
 11
172.921656
 21
80.14081
 31
0.0
  0
LINE
  5
1E6C
  8
0
 10
172.986907
 20
79.495094
 30
0.0
 11
172.364995
 21
79.530542
 31
0.0
  0
LINE
  5
1E6D
  8
0
 10
172.921656
 20
80.14081
 30
0.0
 11
172.986907
 21
79.495094
 31
0.0
  0
LINE
  5
1E6E
  8
0
 10
172.392136
 20
78.857864
 30
0.0
 11
171.745074
 21
78.911024
 31
0.0
  0
LINE
  5
1E6F
  8
0
 10
172.364995
 20
79.530542
 30
0.0
 11
172.392136
 21
78.857864
 31
0.0
  0
LINE
  5
1E70
  8
0
 10
174.489504
 20
82.186217
 30
0.0
 11
174.633041
 21
81.528471
 31
0.0
  0
LINE
  5
1E71
  8
0
 10
174.633041
 20
81.528471
 30
0.0
 11
173.986579
 21
81.468462
 31
0.0
  0
LINE
  5
1E72
  8
0
 10
173.986579
 20
81.468462
 30
0.0
 11
174.107859
 21
80.83089
 31
0.0
  0
LINE
  5
1E73
  8
0
 10
174.107859
 20
80.83089
 30
0.0
 11
173.485224
 21
80.812
 31
0.0
  0
LINE
  5
1E74
  8
0
 10
173.485224
 20
80.812
 30
0.0
 11
173.570889
 21
80.144248
 31
0.0
  0
LINE
  5
1E75
  8
0
 10
175.570508
 20
83.0
 30
0.0
 11
174.931736
 21
82.883877
 31
0.0
  0
LINE
  5
1E76
  8
0
 10
174.931736
 20
82.883877
 30
0.0
 11
175.108123
 21
82.259301
 31
0.0
  0
LINE
  5
1E77
  8
0
 10
175.108123
 20
82.259301
 30
0.0
 11
174.489504
 21
82.186217
 31
0.0
  0
LINE
  5
1E78
  8
0
 10
176.376156
 20
84.547635
 30
0.0
 11
175.749935
 21
84.376281
 31
0.0
  0
LINE
  5
1E79
  8
0
 10
175.749935
 20
84.376281
 30
0.0
 11
175.980086
 21
83.769455
 31
0.0
  0
LINE
  5
1E7A
  8
0
 10
175.980086
 20
83.769455
 30
0.0
 11
175.370191
 21
83.642733
 31
0.0
  0
LINE
  5
1E7B
  8
0
 10
175.370191
 20
83.642733
 30
0.0
 11
175.570508
 21
83.0
 31
0.0
  0
LINE
  5
1E7C
  8
0
 10
151.409597
 20
111.793852
 30
0.0
 11
151.973568
 21
111.472213
 31
0.0
  0
LINE
  5
1E7D
  8
1
 10
134.0
 20
93.0
 30
0.0
 11
183.75
 21
93.0
 31
0.0
  0
LINE
  5
1E7E
  8
0
 10
151.149909
 20
111.172729
 30
0.0
 11
151.409597
 21
111.793852
 31
0.0
  0
LINE
  5
1E7F
  8
0
 10
138.931483
 20
98.176381
 30
0.0
 11
139.518435
 21
98.453874
 31
0.0
  0
LINE
  5
1E80
  8
0
 10
138.326106
 20
91.256885
 30
0.0
 11
138.782752
 21
91.718393
 31
0.0
  0
LINE
  5
1E81
  8
0
 10
138.553845
 20
89.527036
 30
0.0
 11
138.96853
 21
90.026587
 31
0.0
  0
LINE
  5
1E82
  8
0
 10
138.96853
 20
90.026587
 30
0.0
 11
138.431941
 21
90.391661
 31
0.0
  0
LINE
  5
1E83
  8
0
 10
138.431941
 20
90.391661
 30
0.0
 11
138.858853
 21
90.845287
 31
0.0
  0
LINE
  5
1E84
  8
0
 10
138.858853
 20
90.845287
 30
0.0
 11
138.326106
 21
91.256885
 31
0.0
  0
LINE
  5
1E85
  8
0
 10
139.120437
 20
89.163436
 30
0.0
 11
138.553845
 21
89.527036
 31
0.0
  0
LINE
  5
1E86
  8
0
 10
138.931483
 20
87.823619
 30
0.0
 11
139.301052
 21
88.357411
 31
0.0
  0
LINE
  5
1E87
  8
0
 10
139.777787
 20
86.723568
 30
0.0
 11
139.185955
 21
86.989917
 31
0.0
  0
LINE
  5
1E88
  8
0
 10
139.185955
 20
86.989917
 30
0.0
 11
139.52761
 21
87.510784
 31
0.0
  0
LINE
  5
1E89
  8
0
 10
139.52761
 20
87.510784
 30
0.0
 11
138.931483
 21
87.823619
 31
0.0
  0
LINE
  5
1E8A
  8
0
 10
140.395106
 20
85.137492
 30
0.0
 11
139.782313
 21
85.351246
 31
0.0
  0
LINE
  5
1E8B
  8
0
 10
139.782313
 20
85.351246
 30
0.0
 11
140.077271
 21
85.899909
 31
0.0
  0
LINE
  5
1E8C
  8
0
 10
140.077271
 20
85.899909
 30
0.0
 11
139.456148
 21
86.159597
 31
0.0
  0
LINE
  5
1E8D
  8
0
 10
139.456148
 20
86.159597
 30
0.0
 11
139.777787
 21
86.723568
 31
0.0
  0
LINE
  5
1E8E
  8
0
 10
139.301052
 20
88.357411
 30
0.0
 11
138.734686
 21
88.674328
 31
0.0
  0
LINE
  5
1E8F
  8
0
 10
138.734686
 20
88.674328
 30
0.0
 11
139.120437
 21
89.163436
 31
0.0
  0
LINE
  5
1E90
  8
0
 10
138.553845
 20
96.472964
 30
0.0
 11
139.114378
 21
96.800557
 31
0.0
  0
LINE
  5
1E91
  8
0
 10
138.326106
 20
94.743115
 30
0.0
 11
138.855954
 21
95.118315
 31
0.0
  0
LINE
  5
1E92
  8
0
 10
138.855954
 20
95.118315
 30
0.0
 11
138.432137
 21
95.609829
 31
0.0
  0
LINE
  5
1E93
  8
0
 10
138.432137
 20
95.609829
 30
0.0
 11
138.961909
 21
95.937505
 31
0.0
  0
LINE
  5
1E94
  8
0
 10
138.961909
 20
95.937505
 30
0.0
 11
138.553845
 21
96.472964
 31
0.0
  0
LINE
  5
1E95
  8
0
 10
138.745131
 20
93.419952
 30
0.0
 11
138.280088
 21
93.872657
 31
0.0
  0
LINE
  5
1E96
  8
0
 10
138.280088
 20
93.872657
 30
0.0
 11
138.779286
 21
94.245259
 31
0.0
  0
LINE
  5
1E97
  8
0
 10
138.779286
 20
94.245259
 30
0.0
 11
138.326106
 21
94.743115
 31
0.0
  0
LINE
  5
1E98
  8
0
 10
138.782752
 20
91.718393
 30
0.0
 11
138.280023
 21
92.128844
 31
0.0
  0
LINE
  5
1E99
  8
0
 10
138.280023
 20
92.128844
 30
0.0
 11
138.744846
 21
92.543536
 31
0.0
  0
LINE
  5
1E9A
  8
0
 10
138.744846
 20
92.543536
 30
0.0
 11
138.25
 21
93.0
 31
0.0
  0
LINE
  5
1E9B
  8
0
 10
138.25
 20
93.0
 30
0.0
 11
138.745131
 21
93.419952
 31
0.0
  0
LINE
  5
1E9C
  8
0
 10
139.114378
 20
96.800557
 30
0.0
 11
138.735011
 21
97.327138
 31
0.0
  0
LINE
  5
1E9D
  8
0
 10
138.735011
 20
97.327138
 30
0.0
 11
139.291326
 21
97.607395
 31
0.0
  0
LINE
  5
1E9E
  8
0
 10
139.291326
 20
97.607395
 30
0.0
 11
138.931483
 21
98.176381
 31
0.0
  0
LINE
  5
1E9F
  8
0
 10
142.392141
 20
105.16911
 30
0.0
 11
143.014776
 21
105.188
 31
0.0
  0
LINE
  5
1EA0
  8
0
 10
142.513421
 20
104.531538
 30
0.0
 11
142.392141
 21
105.16911
 31
0.0
  0
LINE
  5
1EA1
  8
0
 10
140.123844
 20
101.452365
 30
0.0
 11
140.750065
 21
101.623719
 31
0.0
  0
LINE
  5
1EA2
  8
0
 10
139.456148
 20
99.840403
 30
0.0
 11
140.065051
 21
100.065684
 31
0.0
  0
LINE
  5
1EA3
  8
0
 10
140.065051
 20
100.065684
 30
0.0
 11
139.782887
 21
100.650141
 31
0.0
  0
LINE
  5
1EA4
  8
0
 10
139.782887
 20
100.650141
 30
0.0
 11
140.379417
 21
100.829537
 31
0.0
  0
LINE
  5
1EA5
  8
0
 10
140.379417
 20
100.829537
 30
0.0
 11
140.123844
 21
101.452365
 31
0.0
  0
LINE
  5
1EA6
  8
0
 10
139.518435
 20
98.453874
 30
0.0
 11
139.186407
 21
99.011515
 31
0.0
  0
LINE
  5
1EA7
  8
0
 10
139.186407
 20
99.011515
 30
0.0
 11
139.765031
 21
99.24222
 31
0.0
  0
LINE
  5
1EA8
  8
0
 10
139.765031
 20
99.24222
 30
0.0
 11
139.456148
 21
99.840403
 31
0.0
  0
LINE
  5
1EA9
  8
0
 10
140.519914
 20
102.230545
 30
0.0
 11
141.129809
 21
102.357267
 31
0.0
  0
LINE
  5
1EAA
  8
0
 10
140.750065
 20
101.623719
 30
0.0
 11
140.519914
 21
102.230545
 31
0.0
  0
LINE
  5
1EAB
  8
0
 10
141.866959
 20
104.471529
 30
0.0
 11
142.513421
 21
104.531538
 31
0.0
  0
LINE
  5
1EAC
  8
0
 10
140.929492
 20
103.0
 30
0.0
 11
141.568264
 21
103.116123
 31
0.0
  0
LINE
  5
1EAD
  8
0
 10
141.568264
 20
103.116123
 30
0.0
 11
141.391877
 21
103.740699
 31
0.0
  0
LINE
  5
1EAE
  8
0
 10
141.391877
 20
103.740699
 30
0.0
 11
142.010496
 21
103.813783
 31
0.0
  0
LINE
  5
1EAF
  8
0
 10
142.010496
 20
103.813783
 30
0.0
 11
141.866959
 21
104.471529
 31
0.0
  0
LINE
  5
1EB0
  8
0
 10
141.129809
 20
102.357267
 30
0.0
 11
140.929492
 21
103.0
 31
0.0
  0
LINE
  5
1EB1
  8
0
 10
146.778471
 20
109.383041
 30
0.0
 11
147.406471
 21
109.218328
 31
0.0
  0
LINE
  5
1EB2
  8
0
 10
145.394248
 20
108.320889
 30
0.0
 11
146.034214
 21
108.211536
 31
0.0
  0
LINE
  5
1EB3
  8
0
 10
146.034214
 20
108.211536
 30
0.0
 11
146.082082
 21
108.858773
 31
0.0
  0
LINE
  5
1EB4
  8
0
 10
145.362657
 20
107.648405
 30
0.0
 11
145.394248
 21
108.320889
 31
0.0
  0
LINE
  5
1EB5
  8
0
 10
144.746202
 20
107.737922
 30
0.0
 11
145.362657
 21
107.648405
 31
0.0
  0
LINE
  5
1EB6
  8
0
 10
144.107864
 20
107.142136
 30
0.0
 11
144.754926
 21
107.088976
 31
0.0
  0
LINE
  5
1EB7
  8
0
 10
144.754926
 20
107.088976
 30
0.0
 11
144.746202
 21
107.737922
 31
0.0
  0
LINE
  5
1EB8
  8
0
 10
143.513093
 20
106.504906
 30
0.0
 11
144.135005
 21
106.469458
 31
0.0
  0
LINE
  5
1EB9
  8
0
 10
144.135005
 20
106.469458
 30
0.0
 11
144.107864
 21
107.142136
 31
0.0
  0
LINE
  5
1EBA
  8
0
 10
142.929111
 20
105.855752
 30
0.0
 11
143.578344
 21
105.85919
 31
0.0
  0
LINE
  5
1EBB
  8
0
 10
143.014776
 20
105.188
 30
0.0
 11
142.929111
 21
105.855752
 31
0.0
  0
LINE
  5
1EBC
  8
0
 10
143.578344
 20
105.85919
 30
0.0
 11
143.513093
 21
106.504906
 31
0.0
  0
LINE
  5
1EBD
  8
0
 10
146.082082
 20
108.858773
 30
0.0
 11
146.68839
 21
108.71587
 31
0.0
  0
LINE
  5
1EBE
  8
0
 10
146.68839
 20
108.71587
 30
0.0
 11
146.778471
 21
109.383041
 31
0.0
  0
LINE
  5
1EBF
  8
0
 10
149.020787
 20
110.73078
 30
0.0
 11
149.593069
 21
110.484763
 31
0.0
  0
LINE
  5
1EC0
  8
0
 10
148.25
 20
110.320508
 30
0.0
 11
148.861255
 21
110.101688
 31
0.0
  0
LINE
  5
1EC1
  8
0
 10
148.861255
 20
110.101688
 30
0.0
 11
149.020787
 21
110.73078
 31
0.0
  0
LINE
  5
1EC2
  8
0
 10
147.510568
 20
109.85893
 30
0.0
 11
148.102114
 21
109.663727
 31
0.0
  0
LINE
  5
1EC3
  8
0
 10
148.102114
 20
109.663727
 30
0.0
 11
148.25
 21
110.320508
 31
0.0
  0
LINE
  5
1EC4
  8
0
 10
147.406471
 20
109.218328
 30
0.0
 11
147.510568
 21
109.85893
 31
0.0
  0
LINE
  5
1EC5
  8
0
 10
149.797635
 20
111.126156
 30
0.0
 11
150.387492
 21
110.854894
 31
0.0
  0
LINE
  5
1EC6
  8
0
 10
150.387492
 20
110.854894
 30
0.0
 11
150.601246
 21
111.467687
 31
0.0
  0
LINE
  5
1EC7
  8
0
 10
150.601246
 20
111.467687
 30
0.0
 11
151.149909
 21
111.172729
 31
0.0
  0
LINE
  5
1EC8
  8
0
 10
149.593069
 20
110.484763
 30
0.0
 11
149.797635
 21
111.126156
 31
0.0
  0
LINE
  5
1EC9
  8
0
 10
165.090403
 20
111.793852
 30
0.0
 11
165.315684
 21
111.184949
 31
0.0
  0
LINE
  5
1ECA
  8
0
 10
164.49222
 20
111.484969
 30
0.0
 11
165.090403
 21
111.793852
 31
0.0
  0
LINE
  5
1ECB
  8
0
 10
164.261515
 20
112.063593
 30
0.0
 11
164.49222
 21
111.484969
 31
0.0
  0
LINE
  5
1ECC
  8
0
 10
151.973568
 20
111.472213
 30
0.0
 11
152.239917
 21
112.064045
 31
0.0
  0
LINE
  5
1ECD
  8
0
 10
168.366123
 20
109.681736
 30
0.0
 11
168.990699
 21
109.858123
 31
0.0
  0
CIRCLE
  5
1ECE
  8
0
 10
158.25
 20
93.0
 30
0.0
 40
6.0
  0
CIRCLE
  5
1ECF
  8
0
 10
158.25
 20
93.0
 30
0.0
 40
4.5
  0
LINE
  5
1ED0
  8
0
 10
166.079537
 20
110.870583
 30
0.0
 11
166.702365
 21
111.126156
 31
0.0
  0
LINE
  5
1ED1
  8
0
 10
165.315684
 20
111.184949
 30
0.0
 11
165.900141
 21
111.467113
 31
0.0
  0
LINE
  5
1ED2
  8
0
 10
165.900141
 20
111.467113
 30
0.0
 11
166.079537
 21
110.870583
 31
0.0
  0
LINE
  5
1ED3
  8
0
 10
168.25
 20
110.320508
 30
0.0
 11
168.366123
 21
109.681736
 31
0.0
  0
LINE
  5
1ED4
  8
0
 10
166.702365
 20
111.126156
 30
0.0
 11
166.873719
 21
110.499935
 31
0.0
  0
LINE
  5
1ED5
  8
0
 10
166.873719
 20
110.499935
 30
0.0
 11
167.480545
 21
110.730086
 31
0.0
  0
LINE
  5
1ED6
  8
0
 10
167.480545
 20
110.730086
 30
0.0
 11
167.607267
 21
110.120191
 31
0.0
  0
LINE
  5
1ED7
  8
0
 10
167.607267
 20
110.120191
 30
0.0
 11
168.25
 21
110.320508
 31
0.0
  0
LINE
  5
1ED8
  8
0
 10
176.97239
 20
98.489216
 30
0.0
 11
177.568517
 21
98.176381
 31
0.0
  0
LINE
  5
1ED9
  8
0
 10
177.568517
 20
98.176381
 30
0.0
 11
177.198948
 21
97.642589
 31
0.0
  0
LINE
  5
1EDA
  8
0
 10
177.198948
 20
97.642589
 30
0.0
 11
177.765314
 21
97.325672
 31
0.0
  0
LINE
  5
1EDB
  8
0
 10
177.568517
 20
87.823619
 30
0.0
 11
176.981565
 21
87.546126
 31
0.0
  0
LINE
  5
1EDC
  8
0
 10
176.981565
 20
87.546126
 30
0.0
 11
177.313593
 21
86.988485
 31
0.0
  0
LINE
  5
1EDD
  8
0
 10
177.313593
 20
86.988485
 30
0.0
 11
176.734969
 21
86.75778
 31
0.0
  0
LINE
  5
1EDE
  8
0
 10
177.764989
 20
88.672862
 30
0.0
 11
177.208674
 21
88.392605
 31
0.0
  0
LINE
  5
1EDF
  8
0
 10
177.208674
 20
88.392605
 30
0.0
 11
177.568517
 21
87.823619
 31
0.0
  0
LINE
  5
1EE0
  8
0
 10
177.043852
 20
86.159597
 30
0.0
 11
176.434949
 21
85.934316
 31
0.0
  0
LINE
  5
1EE1
  8
0
 10
176.434949
 20
85.934316
 30
0.0
 11
176.717113
 21
85.349859
 31
0.0
  0
LINE
  5
1EE2
  8
0
 10
176.717113
 20
85.349859
 30
0.0
 11
176.120583
 21
85.170463
 31
0.0
  0
LINE
  5
1EE3
  8
0
 10
176.734969
 20
86.75778
 30
0.0
 11
177.043852
 21
86.159597
 31
0.0
  0
LINE
  5
1EE4
  8
0
 10
177.720714
 20
91.754741
 30
0.0
 11
178.173894
 21
91.256885
 31
0.0
  0
LINE
  5
1EE5
  8
0
 10
178.173894
 20
91.256885
 30
0.0
 11
177.644046
 21
90.881685
 31
0.0
  0
LINE
  5
1EE6
  8
0
 10
177.644046
 20
90.881685
 30
0.0
 11
178.067863
 21
90.390171
 31
0.0
  0
LINE
  5
1EE7
  8
0
 10
178.067863
 20
90.390171
 30
0.0
 11
177.538091
 21
90.062495
 31
0.0
  0
LINE
  5
1EE8
  8
0
 10
177.946155
 20
89.527036
 30
0.0
 11
177.385622
 21
89.199443
 31
0.0
  0
LINE
  5
1EE9
  8
0
 10
177.385622
 20
89.199443
 30
0.0
 11
177.764989
 21
88.672862
 31
0.0
  0
LINE
  5
1EEA
  8
0
 10
177.538091
 20
90.062495
 30
0.0
 11
177.946155
 21
89.527036
 31
0.0
  0
LINE
  5
1EEB
  8
0
 10
177.641147
 20
95.154713
 30
0.0
 11
178.173894
 21
94.743115
 31
0.0
  0
LINE
  5
1EEC
  8
0
 10
178.173894
 20
94.743115
 30
0.0
 11
177.717248
 21
94.281607
 31
0.0
  0
LINE
  5
1EED
  8
0
 10
177.717248
 20
94.281607
 30
0.0
 11
178.219977
 21
93.871156
 31
0.0
  0
LINE
  5
1EEE
  8
0
 10
178.219977
 20
93.871156
 30
0.0
 11
177.755154
 21
93.456464
 31
0.0
  0
LINE
  5
1EEF
  8
0
 10
178.25
 20
93.0
 30
0.0
 11
177.754869
 21
92.580048
 31
0.0
  0
LINE
  5
1EF0
  8
0
 10
177.754869
 20
92.580048
 30
0.0
 11
178.219912
 21
92.127343
 31
0.0
  0
LINE
  5
1EF1
  8
0
 10
178.219912
 20
92.127343
 30
0.0
 11
177.720714
 21
91.754741
 31
0.0
  0
LINE
  5
1EF2
  8
0
 10
177.755154
 20
93.456464
 30
0.0
 11
178.25
 21
93.0
 31
0.0
  0
LINE
  5
1EF3
  8
0
 10
177.765314
 20
97.325672
 30
0.0
 11
177.379563
 21
96.836564
 31
0.0
  0
LINE
  5
1EF4
  8
0
 10
177.379563
 20
96.836564
 30
0.0
 11
177.946155
 21
96.472964
 31
0.0
  0
LINE
  5
1EF5
  8
0
 10
177.53147
 20
95.973413
 30
0.0
 11
178.068059
 21
95.608339
 31
0.0
  0
LINE
  5
1EF6
  8
0
 10
178.068059
 20
95.608339
 30
0.0
 11
177.641147
 21
95.154713
 31
0.0
  0
LINE
  5
1EF7
  8
0
 10
177.946155
 20
96.472964
 30
0.0
 11
177.53147
 21
95.973413
 31
0.0
  0
LINE
  5
1EF8
  8
0
 10
176.722213
 20
99.276432
 30
0.0
 11
177.314045
 21
99.010083
 31
0.0
  0
LINE
  5
1EF9
  8
0
 10
177.314045
 20
99.010083
 30
0.0
 11
176.97239
 21
98.489216
 31
0.0
  0
LINE
  5
1EFA
  8
0
 10
174.108773
 20
105.167918
 30
0.0
 11
173.96587
 21
104.56161
 31
0.0
  0
LINE
  5
1EFB
  8
0
 10
175.734763
 20
101.656931
 30
0.0
 11
176.376156
 21
101.452365
 31
0.0
  0
LINE
  5
1EFC
  8
0
 10
176.376156
 20
101.452365
 30
0.0
 11
176.104894
 21
100.862508
 31
0.0
  0
LINE
  5
1EFD
  8
0
 10
176.104894
 20
100.862508
 30
0.0
 11
176.717687
 21
100.648754
 31
0.0
  0
LINE
  5
1EFE
  8
0
 10
176.717687
 20
100.648754
 30
0.0
 11
176.422729
 21
100.100091
 31
0.0
  0
LINE
  5
1EFF
  8
0
 10
176.422729
 20
100.100091
 30
0.0
 11
177.043852
 21
99.840403
 31
0.0
  0
LINE
  5
1F00
  8
0
 10
177.043852
 20
99.840403
 30
0.0
 11
176.722213
 21
99.276432
 31
0.0
  0
LINE
  5
1F01
  8
0
 10
174.913727
 20
103.147886
 30
0.0
 11
175.570508
 21
103.0
 31
0.0
  0
LINE
  5
1F02
  8
0
 10
174.633041
 20
104.471529
 30
0.0
 11
174.468328
 21
103.843529
 31
0.0
  0
LINE
  5
1F03
  8
0
 10
174.468328
 20
103.843529
 30
0.0
 11
175.10893
 21
103.739432
 31
0.0
  0
LINE
  5
1F04
  8
0
 10
175.10893
 20
103.739432
 30
0.0
 11
174.913727
 21
103.147886
 31
0.0
  0
LINE
  5
1F05
  8
0
 10
173.96587
 20
104.56161
 30
0.0
 11
174.633041
 21
104.471529
 31
0.0
  0
LINE
  5
1F06
  8
0
 10
175.351688
 20
102.388745
 30
0.0
 11
175.98078
 21
102.229213
 31
0.0
  0
LINE
  5
1F07
  8
0
 10
175.98078
 20
102.229213
 30
0.0
 11
175.734763
 21
101.656931
 31
0.0
  0
LINE
  5
1F08
  8
0
 10
175.570508
 20
103.0
 30
0.0
 11
175.351688
 21
102.388745
 31
0.0
  0
LINE
  5
1F09
  8
0
 10
172.338976
 20
106.495074
 30
0.0
 11
172.987922
 21
106.503798
 31
0.0
  0
LINE
  5
1F0A
  8
0
 10
172.898405
 20
105.887343
 30
0.0
 11
173.570889
 21
105.855752
 31
0.0
  0
LINE
  5
1F0B
  8
0
 10
172.987922
 20
106.503798
 30
0.0
 11
172.898405
 21
105.887343
 31
0.0
  0
LINE
  5
1F0C
  8
0
 10
171.105752
 20
108.320889
 30
0.0
 11
171.10919
 21
107.671656
 31
0.0
  0
LINE
  5
1F0D
  8
0
 10
170.41911
 20
108.857859
 30
0.0
 11
170.438
 21
108.235224
 31
0.0
  0
LINE
  5
1F0E
  8
0
 10
170.438
 20
108.235224
 30
0.0
 11
171.105752
 21
108.320889
 31
0.0
  0
LINE
  5
1F0F
  8
0
 10
172.392136
 20
107.142136
 30
0.0
 11
172.338976
 21
106.495074
 31
0.0
  0
LINE
  5
1F10
  8
0
 10
171.10919
 20
107.671656
 30
0.0
 11
171.754906
 21
107.736907
 31
0.0
  0
LINE
  5
1F11
  8
0
 10
171.754906
 20
107.736907
 30
0.0
 11
171.719458
 21
107.114995
 31
0.0
  0
LINE
  5
1F12
  8
0
 10
171.719458
 20
107.114995
 30
0.0
 11
172.392136
 21
107.142136
 31
0.0
  0
LINE
  5
1F13
  8
0
 10
169.721529
 20
109.383041
 30
0.0
 11
169.781538
 21
108.736579
 31
0.0
  0
LINE
  5
1F14
  8
0
 10
169.781538
 20
108.736579
 30
0.0
 11
170.41911
 21
108.857859
 31
0.0
  0
LINE
  5
1F15
  8
0
 10
169.063783
 20
109.239504
 30
0.0
 11
169.721529
 21
109.383041
 31
0.0
  0
LINE
  5
1F16
  8
0
 10
168.990699
 20
109.858123
 30
0.0
 11
169.063783
 21
109.239504
 31
0.0
  0
LINE
  5
1F17
  8
0
 10
173.570889
 20
105.855752
 30
0.0
 11
173.461536
 21
105.215786
 31
0.0
  0
LINE
  5
1F18
  8
0
 10
173.461536
 20
105.215786
 30
0.0
 11
174.108773
 21
105.167918
 31
0.0
  0
LINE
  5
1F19
  8
0
 10
159.993115
 20
112.923894
 30
0.0
 11
160.368315
 21
112.394046
 31
0.0
  0
LINE
  5
1F1A
  8
0
 10
155.641661
 20
112.818059
 30
0.0
 11
156.095287
 21
112.391147
 31
0.0
  0
LINE
  5
1F1B
  8
0
 10
153.607411
 20
111.948948
 30
0.0
 11
153.924328
 21
112.515314
 31
0.0
  0
LINE
  5
1F1C
  8
0
 10
153.073619
 20
112.318517
 30
0.0
 11
153.607411
 21
111.948948
 31
0.0
  0
LINE
  5
1F1D
  8
0
 10
152.239917
 20
112.064045
 30
0.0
 11
152.760784
 21
111.72239
 31
0.0
  0
LINE
  5
1F1E
  8
0
 10
152.760784
 20
111.72239
 30
0.0
 11
153.073619
 21
112.318517
 31
0.0
  0
LINE
  5
1F1F
  8
0
 10
154.777036
 20
112.696155
 30
0.0
 11
155.276587
 21
112.28147
 31
0.0
  0
LINE
  5
1F20
  8
0
 10
155.276587
 20
112.28147
 30
0.0
 11
155.641661
 21
112.818059
 31
0.0
  0
LINE
  5
1F21
  8
0
 10
153.924328
 20
112.515314
 30
0.0
 11
154.413436
 21
112.129563
 31
0.0
  0
LINE
  5
1F22
  8
0
 10
154.413436
 20
112.129563
 30
0.0
 11
154.777036
 21
112.696155
 31
0.0
  0
LINE
  5
1F23
  8
0
 10
157.793536
 20
112.505154
 30
0.0
 11
158.25
 21
113.0
 31
0.0
  0
LINE
  5
1F24
  8
0
 10
156.506885
 20
112.923894
 30
0.0
 11
156.968393
 21
112.467248
 31
0.0
  0
LINE
  5
1F25
  8
0
 10
156.968393
 20
112.467248
 30
0.0
 11
157.378844
 21
112.969977
 31
0.0
  0
LINE
  5
1F26
  8
0
 10
157.378844
 20
112.969977
 30
0.0
 11
157.793536
 21
112.505154
 31
0.0
  0
LINE
  5
1F27
  8
0
 10
156.095287
 20
112.391147
 30
0.0
 11
156.506885
 21
112.923894
 31
0.0
  0
LINE
  5
1F28
  8
0
 10
158.25
 20
113.0
 30
0.0
 11
158.669952
 21
112.504869
 31
0.0
  0
LINE
  5
1F29
  8
0
 10
158.669952
 20
112.504869
 30
0.0
 11
159.122657
 21
112.969912
 31
0.0
  0
LINE
  5
1F2A
  8
0
 10
159.122657
 20
112.969912
 30
0.0
 11
159.495259
 21
112.470714
 31
0.0
  0
LINE
  5
1F2B
  8
0
 10
159.495259
 20
112.470714
 30
0.0
 11
159.993115
 21
112.923894
 31
0.0
  0
LINE
  5
1F2C
  8
0
 10
162.050557
 20
112.135622
 30
0.0
 11
162.577138
 21
112.514989
 31
0.0
  0
LINE
  5
1F2D
  8
0
 10
160.368315
 20
112.394046
 30
0.0
 11
160.859829
 21
112.817863
 31
0.0
  0
LINE
  5
1F2E
  8
0
 10
160.859829
 20
112.817863
 30
0.0
 11
161.187505
 21
112.288091
 31
0.0
  0
LINE
  5
1F2F
  8
0
 10
161.187505
 20
112.288091
 30
0.0
 11
161.722964
 21
112.696155
 31
0.0
  0
LINE
  5
1F30
  8
0
 10
161.722964
 20
112.696155
 30
0.0
 11
162.050557
 21
112.135622
 31
0.0
  0
LINE
  5
1F31
  8
0
 10
163.426381
 20
112.318517
 30
0.0
 11
163.703874
 21
111.731565
 31
0.0
  0
LINE
  5
1F32
  8
0
 10
163.703874
 20
111.731565
 30
0.0
 11
164.261515
 21
112.063593
 31
0.0
  0
LINE
  5
1F33
  8
0
 10
162.577138
 20
112.514989
 30
0.0
 11
162.857395
 21
111.958674
 31
0.0
  0
LINE
  5
1F34
  8
0
 10
162.857395
 20
111.958674
 30
0.0
 11
163.426381
 21
112.318517
 31
0.0
  0
TEXT
  5
1FC4
  8
0
 10
140.75
 20
31.25
 30
0.0
 40
7.0
  1
ＫＮＴＢ－１２
 41
0.8
  0
LINE
  5
1FC5
  8
2
 10
37.5
 20
88.968871
 30
0.0
 11
37.5
 21
73.5
 31
0.0
  0
LINE
  5
1FC6
  8
2
 10
33.5
 20
88.968871
 30
0.0
 11
33.5
 21
73.75
 31
0.0
  0
LINE
  5
1FC7
  8
2
 10
156.25
 20
88.968871
 30
0.0
 11
156.25
 21
73.75
 31
0.0
  0
LINE
  5
1FC8
  8
2
 10
160.25
 20
88.968871
 30
0.0
 11
160.25
 21
73.5
 31
0.0
  0
LINE
  5
1FC9
  8
1
 10
101.0
 20
87.0
 30
0.0
 11
101.0
 21
70.75
 31
0.0
  0
LINE
  5
1FCA
  8
2
 10
103.0
 20
87.0
 30
0.0
 11
103.0
 21
76.0
 31
0.0
  0
LINE
  5
1FCB
  8
2
 10
99.0
 20
87.0
 30
0.0
 11
99.0
 21
76.0
 31
0.0
  0
TEXT
  5
1FD4
  8
0
 10
140.166003
 20
2.530648
 30
0.0
 40
7.0
  1
ＫＮＴＢ００１２
 41
0.8
  0
VIEWPORT
  5
22
 67
     1
  8
0
 10
261.517699
 20
148.5
 30
0.0
 40
523.035398
 41
297.0
 68
    -1
 69
     1
1001
ACAD
1000
MVIEW
1002
{
1070
    16
1010
0.0
1020
0.0
1030
0.0
1010
0.0
1020
0.0
1030
1.0
1040
0.0
1040
297.0
1040
261.517699
1040
148.5
1040
50.0
1040
0.0
1040
0.0
1070
     0
1070
   100
1070
     1
1070
     1
1070
     0
1070
     0
1070
     0
1070
     0
1040
0.0
1040
0.0
1040
0.0
1040
1.0
1040
1.0
1040
10.0
1040
10.0
1070
     0
1002
{
1002
}
1002
}
  0
ENDSEC
  0
EOF
