  0
SECTION
  2
HEADER
  9
$ACADVER
  1
AC1009
  9
$INSBASE
 10
0.0
 20
0.0
 30
0.0
  9
$EXTMIN
 10
9.5
 20
2.466667
 30
0.0
  9
$EXTMAX
 10
191.896667
 20
115.75
 30
0.0
  9
$LIMMIN
 10
0.0
 20
0.0
  9
$LIMMAX
 10
220.0
 20
170.0
  9
$ORTHOMODE
 70
     1
  9
$REGENMODE
 70
     1
  9
$FILLMODE
 70
     1
  9
$QTEXTMODE
 70
     0
  9
$MIRRTEXT
 70
     1
  9
$DRAGMODE
 70
     2
  9
$LTSCALE
 40
1.0
  9
$OSMODE
 70
     0
  9
$ATTMODE
 70
     1
  9
$TEXTSIZE
 40
7.0
  9
$TRACEWID
 40
1.0
  9
$TEXTSTYLE
  7
STANDARD
  9
$CLAYER
  8
0
  9
$CELTYPE
  6
BYLAYER
  9
$CECOLOR
 62
   256
  9
$DIMSCALE
 40
1.0
  9
$DIMASZ
 40
2.5
  9
$DIMEXO
 40
0.625
  9
$DIMDLI
 40
3.75
  9
$DIMRND
 40
0.0
  9
$DIMDLE
 40
0.0
  9
$DIMEXE
 40
1.25
  9
$DIMTP
 40
0.0
  9
$DIMTM
 40
0.0
  9
$DIMTXT
 40
2.5
  9
$DIMCEN
 40
2.5
  9
$DIMTSZ
 40
0.0
  9
$DIMTOL
 70
     0
  9
$DIMLIM
 70
     0
  9
$DIMTIH
 70
     1
  9
$DIMTOH
 70
     0
  9
$DIMSE1
 70
     0
  9
$DIMSE2
 70
     0
  9
$DIMTAD
 70
     1
  9
$DIMZIN
 70
     8
  9
$DIMBLK
  1

  9
$DIMASO
 70
     1
  9
$DIMSHO
 70
     1
  9
$DIMPOST
  1

  9
$DIMAPOST
  1

  9
$DIMALT
 70
     0
  9
$DIMALTD
 70
     2
  9
$DIMALTF
 40
0.0394
  9
$DIMLFAC
 40
1.0
  9
$DIMTOFL
 70
     1
  9
$DIMTVP
 40
1.0
  9
$DIMTIX
 70
     0
  9
$DIMSOXD
 70
     0
  9
$DIMSAH
 70
     0
  9
$DIMBLK1
  1

  9
$DIMBLK2
  1

  9
$DIMSTYLE
  2
ISO-25
  9
$DIMCLRD
 70
     0
  9
$DIMCLRE
 70
     0
  9
$DIMCLRT
 70
     0
  9
$DIMTFAC
 40
1.0
  9
$DIMGAP
 40
0.625
  9
$LUNITS
 70
     2
  9
$LUPREC
 70
     4
  9
$SKETCHINC
 40
1.0
  9
$FILLETRAD
 40
1.0
  9
$AUNITS
 70
     0
  9
$AUPREC
 70
     0
  9
$MENU
  1
.
  9
$ELEVATION
 40
0.0
  9
$PELEVATION
 40
0.0
  9
$THICKNESS
 40
0.0
  9
$LIMCHECK
 70
     0
  9
$BLIPMODE
 70
     1
  9
$CHAMFERA
 40
0.5
  9
$CHAMFERB
 40
0.5
  9
$SKPOLY
 70
     0
  9
$TDCREATE
 40
2450687.604641
  9
$TDUPDATE
 40
2450687.604641
  9
$TDINDWG
 40
0.0
  9
$TDUSRTIMER
 40
0.0
  9
$USRTIMER
 70
     1
  9
$ANGBASE
 50
0.0
  9
$ANGDIR
 70
     0
  9
$PDMODE
 70
     0
  9
$PDSIZE
 40
0.0
  9
$PLINEWID
 40
0.0
  9
$COORDS
 70
     2
  9
$SPLFRAME
 70
     0
  9
$SPLINETYPE
 70
     6
  9
$SPLINESEGS
 70
     8
  9
$ATTDIA
 70
     0
  9
$ATTREQ
 70
     1
  9
$HANDLING
 70
     1
  9
$HANDSEED
  5
1C93
  9
$SURFTAB1
 70
     6
  9
$SURFTAB2
 70
     6
  9
$SURFTYPE
 70
     6
  9
$SURFU
 70
     6
  9
$SURFV
 70
     6
  9
$UCSNAME
  2

  9
$UCSORG
 10
0.0
 20
0.0
 30
0.0
  9
$UCSXDIR
 10
1.0
 20
0.0
 30
0.0
  9
$UCSYDIR
 10
0.0
 20
1.0
 30
0.0
  9
$PUCSNAME
  2

  9
$PUCSORG
 10
0.0
 20
0.0
 30
0.0
  9
$PUCSXDIR
 10
1.0
 20
0.0
 30
0.0
  9
$PUCSYDIR
 10
0.0
 20
1.0
 30
0.0
  9
$USERI1
 70
     0
  9
$USERI2
 70
     0
  9
$USERI3
 70
     0
  9
$USERI4
 70
     0
  9
$USERI5
 70
     0
  9
$USERR1
 40
0.0
  9
$USERR2
 40
0.0
  9
$USERR3
 40
0.0
  9
$USERR4
 40
0.0
  9
$USERR5
 40
0.0
  9
$WORLDVIEW
 70
     1
  9
$SHADEDGE
 70
     3
  9
$SHADEDIF
 70
    70
  9
$TILEMODE
 70
     1
  9
$MAXACTVP
 70
    16
  9
$PLIMCHECK
 70
     0
  9
$PEXTMIN
 10
1.000000E+020
 20
1.000000E+020
 30
1.000000E+020
  9
$PEXTMAX
 10
-1.000000E+020
 20
-1.000000E+020
 30
-1.000000E+020
  9
$PLIMMIN
 10
0.0
 20
0.0
  9
$PLIMMAX
 10
420.0
 20
297.0
  9
$UNITMODE
 70
     0
  9
$VISRETAIN
 70
     0
  9
$PLINEGEN
 70
     0
  9
$PSLTSCALE
 70
     1
  0
ENDSEC
  0
SECTION
  2
TABLES
  0
TABLE
  2
VPORT
 70
     2
  0
VPORT
  2
*ACTIVE
 70
     0
 10
0.0
 20
0.0
 11
1.0
 21
1.0
 12
131.824561
 22
97.390177
 13
0.0
 23
0.0
 14
0.25
 24
0.25
 15
0.5
 25
0.5
 16
0.0
 26
0.0
 36
1.0
 17
0.0
 27
0.0
 37
0.0
 40
194.780355
 41
1.353571
 42
50.0
 43
0.0
 44
0.0
 50
0.0
 51
0.0
 71
     0
 72
 20000
 73
     1
 74
     1
 75
     1
 76
     1
 77
     0
 78
     0
  0
ENDTAB
  0
TABLE
  2
LTYPE
 70
     3
  0
LTYPE
  2
CONTINUOUS
 70
     0
  3
Solid line
 72
    65
 73
     0
 40
0.0
  0
LTYPE
  2
TENSEN
 70
     0
  3

 72
    65
 73
     2
 40
2.5
 49
1.5
 49
-1.0
  0
LTYPE
  2
ITTEN
 70
     0
  3

 72
    65
 73
     4
 40
3.6
 49
2.0
 49
-0.5
 49
0.6
 49
-0.5
  0
ENDTAB
  0
TABLE
  2
LAYER
 70
     4
  0
LAYER
  2
0
 70
     0
 62
     7
  6
CONTINUOUS
  0
LAYER
  2
2
 70
     0
 62
     2
  6
TENSEN
  0
LAYER
  2
1
 70
     0
 62
     1
  6
ITTEN
  0
LAYER
  2
3
 70
     0
 62
     3
  6
CONTINUOUS
  0
ENDTAB
  0
TABLE
  2
STYLE
 70
     1
  0
STYLE
  2
STANDARD
 70
     0
 40
7.0
 41
0.8
 50
0.0
 71
     0
 42
7.0
  3
ISOCP
  4
B:\r13\com\fonts\bigfont.shx
  0
ENDTAB
  0
TABLE
  2
VIEW
 70
     0
  0
ENDTAB
  0
TABLE
  2
UCS
 70
     0
  0
ENDTAB
  0
TABLE
  2
APPID
 70
     1
  0
APPID
  2
ACAD
 70
     0
  0
ENDTAB
  0
TABLE
  2
DIMSTYLE
 70
     8
  0
DIMSTYLE
  2
STANDARD
 70
     0
  3

  4

  5

  6

  7

 40
1.0
 41
0.18
 42
0.0625
 43
0.38
 44
0.18
 45
0.0
 46
0.0
 47
0.0
 48
0.0
140
0.18
141
0.09
142
0.0
143
25.4
144
1.0
145
0.0
146
1.0
147
0.09
 71
     0
 72
     0
 73
     1
 74
     1
 75
     0
 76
     0
 77
     0
 78
     0
170
     0
171
     2
172
     0
173
     0
174
     0
175
     0
176
     0
177
     0
178
     0
  0
DIMSTYLE
  2
ISO-25
 70
     0
  3

  4

  5

  6

  7

 40
1.0
 41
2.5
 42
0.625
 43
3.75
 44
1.25
 45
0.0
 46
0.0
 47
0.0
 48
0.0
140
2.5
141
2.5
142
0.0
143
0.0394
144
1.0
145
1.0
146
1.0
147
0.625
 71
     0
 72
     0
 73
     1
 74
     0
 75
     0
 76
     0
 77
     1
 78
     8
170
     0
171
     2
172
     1
173
     0
174
     0
175
     0
176
     0
177
     0
178
     0
  0
DIMSTYLE
  2
ISO-35
 70
     0
  3

  4

  5

  6

  7

 40
1.0
 41
3.5
 42
0.875
 43
5.25
 44
1.75
 45
0.0
 46
0.0
 47
0.0
 48
0.0
140
3.5
141
3.5
142
0.0
143
0.0394
144
1.0
145
1.4
146
1.0
147
0.875
 71
     0
 72
     0
 73
     1
 74
     0
 75
     0
 76
     0
 77
     1
 78
     8
170
     0
171
     2
172
     1
173
     0
174
     0
175
     0
176
     0
177
     0
178
     0
  0
DIMSTYLE
  2
ISO-5
 70
     0
  3

  4

  5

  6

  7

 40
1.0
 41
5.0
 42
1.25
 43
7.5
 44
2.5
 45
0.0
 46
0.0
 47
0.0
 48
0.0
140
5.0
141
5.0
142
0.0
143
0.0394
144
1.0
145
2.0
146
1.0
147
1.25
 71
     0
 72
     0
 73
     1
 74
     0
 75
     0
 76
     0
 77
     1
 78
     8
170
     0
171
     2
172
     1
173
     0
174
     0
175
     0
176
     0
177
     0
178
     0
  0
DIMSTYLE
  2
ISO-7
 70
     0
  3

  4

  5

  6

  7

 40
1.0
 41
7.0
 42
1.75
 43
10.5
 44
3.5
 45
0.0
 46
0.0
 47
0.0
 48
0.0
140
7.0
141
7.0
142
0.0
143
0.0394
144
1.0
145
2.8
146
1.0
147
1.75
 71
     0
 72
     0
 73
     1
 74
     0
 75
     0
 76
     0
 77
     1
 78
     8
170
     0
171
     2
172
     1
173
     0
174
     0
175
     0
176
     0
177
     0
178
     0
  0
DIMSTYLE
  2
ISO1
 70
     0
  3

  4

  5

  6

  7

 40
1.0
 41
10.0
 42
2.5
 43
15.0
 44
5.0
 45
0.0
 46
0.0
 47
0.0
 48
0.0
140
10.0
141
10.0
142
0.0
143
0.0394
144
1.0
145
4.0
146
1.0
147
2.5
 71
     0
 72
     0
 73
     1
 74
     0
 75
     0
 76
     0
 77
     1
 78
     8
170
     0
171
     2
172
     1
173
     0
174
     0
175
     0
176
     0
177
     0
178
     0
  0
DIMSTYLE
  2
ISO1-4
 70
     0
  3

  4

  5

  6

  7

 40
1.0
 41
14.0
 42
3.5
 43
21.0
 44
7.0
 45
0.0
 46
0.0
 47
0.0
 48
0.0
140
14.0
141
14.0
142
0.0
143
0.0394
144
1.0
145
5.6
146
1.0
147
3.5
 71
     0
 72
     0
 73
     1
 74
     0
 75
     0
 76
     0
 77
     1
 78
     8
170
     0
171
     2
172
     1
173
     0
174
     0
175
     0
176
     0
177
     0
178
     0
  0
DIMSTYLE
  2
ISO2
 70
     0
  3

  4

  5

  6

  7

 40
1.0
 41
20.0
 42
5.0
 43
30.0
 44
10.0
 45
0.0
 46
0.0
 47
0.0
 48
0.0
140
20.0
141
20.0
142
0.0
143
0.0394
144
1.0
145
8.0
146
1.0
147
5.0
 71
     0
 72
     0
 73
     1
 74
     0
 75
     0
 76
     0
 77
     1
 78
     8
170
     0
171
     2
172
     1
173
     0
174
     0
175
     0
176
     0
177
     0
178
     0
  0
ENDTAB
  0
ENDSEC
  0
SECTION
  2
BLOCKS
  0
BLOCK
  8
0
  2
$MODEL_SPACE
 70
     0
 10
0.0
 20
0.0
 30
0.0
  3
$MODEL_SPACE
  1

  0
ENDBLK
  5
1C8C
  8
0
  0
BLOCK
 67
     1
  8
0
  2
$PAPER_SPACE
 70
     0
 10
0.0
 20
0.0
 30
0.0
  3
$PAPER_SPACE
  1

  0
ENDBLK
  5
1C8A
 67
     1
  8
0
  0
ENDSEC
  0
SECTION
  2
ENTITIES
  0
TEXT
  5
37
  8
0
 10
140.507298
 20
54.595271
 30
0.0
 40
4.55
  1
部品名称
 41
0.8
  0
TEXT
  5
38
  8
0
 10
140.507298
 20
38.635271
 30
0.0
 40
4.55
  1
品番
 41
0.8
  0
TEXT
  5
39
  8
0
 10
141.007298
 20
25.175271
 30
0.0
 40
4.55
  1
尺度
 41
0.8
  0
TEXT
  5
3A
  8
0
 10
141.507298
 20
10.715271
 30
0.0
 40
4.55
  1
図番
 41
0.8
  0
TEXT
  5
3F
  8
0
 10
140.6
 20
17.0
 30
0.0
 40
7.0
  1
１／１
 41
0.8
  0
TEXT
  5
ED2
  8
0
 10
140.75
 20
46.75
 30
0.0
 40
7.0
  1
ナールドナット
 41
0.8
  0
LINE
  5
18E9
  8
1
 10
9.5
 20
92.0
 30
0.0
 11
56.75
 21
92.0
 31
0.0
  0
LINE
  5
18EA
  8
1
 10
32.0
 20
115.75
 30
0.0
 11
32.0
 21
67.5
 31
0.0
  0
LINE
  5
1935
  8
0
 10
32.0
 20
110.0
 30
0.0
 11
32.387015
 21
109.500438
 31
0.0
  0
LINE
  5
1936
  8
0
 10
32.387015
 20
109.500438
 30
0.0
 11
32.772516
 21
109.972417
 31
0.0
  0
LINE
  5
1937
  8
0
 10
32.772516
 20
109.972417
 30
0.0
 11
33.090554
 21
109.461909
 31
0.0
  0
LINE
  5
1938
  8
0
 10
33.090554
 20
109.461909
 30
0.0
 11
33.568803
 21
109.931505
 31
0.0
  0
LINE
  5
1939
  8
0
 10
30.431197
 20
109.931505
 30
0.0
 11
30.860278
 21
109.467574
 31
0.0
  0
LINE
  5
193A
  8
0
 10
30.860278
 20
109.467574
 30
0.0
 11
31.203177
 21
109.971356
 31
0.0
  0
LINE
  5
193B
  8
0
 10
31.203177
 20
109.971356
 30
0.0
 11
31.564499
 21
109.490509
 31
0.0
  0
LINE
  5
193C
  8
0
 10
31.564499
 20
109.490509
 30
0.0
 11
32.0
 21
110.0
 31
0.0
  0
LINE
  5
193D
  8
0
 10
28.874333
 20
109.72654
 30
0.0
 11
29.342216
 21
109.301771
 31
0.0
  0
LINE
  5
193E
  8
0
 10
29.342216
 20
109.301771
 30
0.0
 11
29.639902
 21
109.833521
 31
0.0
  0
LINE
  5
193F
  8
0
 10
29.639902
 20
109.833521
 30
0.0
 11
30.041757
 21
109.385996
 31
0.0
  0
LINE
  5
1940
  8
0
 10
30.041757
 20
109.385996
 30
0.0
 11
30.431197
 21
109.931505
 31
0.0
  0
LINE
  5
1941
  8
0
 10
27.341257
 20
109.386665
 30
0.0
 11
27.844381
 21
109.004292
 31
0.0
  0
LINE
  5
1942
  8
0
 10
27.844381
 20
109.004292
 30
0.0
 11
28.094589
 21
109.559963
 31
0.0
  0
LINE
  5
1943
  8
0
 10
28.094589
 20
109.559963
 30
0.0
 11
28.53392
 21
109.149165
 31
0.0
  0
LINE
  5
1944
  8
0
 10
28.53392
 20
109.149165
 30
0.0
 11
28.874333
 21
109.72654
 31
0.0
  0
LINE
  5
1945
  8
0
 10
25.843637
 20
108.914467
 30
0.0
 11
26.378173
 21
108.577399
 31
0.0
  0
LINE
  5
1946
  8
0
 10
26.378173
 20
108.577399
 30
0.0
 11
26.578999
 21
109.152764
 31
0.0
  0
LINE
  5
1947
  8
0
 10
26.578999
 20
109.152764
 30
0.0
 11
27.052461
 21
108.781818
 31
0.0
  0
LINE
  5
1948
  8
0
 10
27.052461
 20
108.781818
 30
0.0
 11
27.341257
 21
109.386665
 31
0.0
  0
LINE
  5
1949
  8
0
 10
24.392871
 20
108.31354
 30
0.0
 11
24.95475
 21
108.024343
 31
0.0
  0
LINE
  5
194A
  8
0
 10
24.95475
 20
108.024343
 30
0.0
 11
25.104665
 21
108.615021
 31
0.0
  0
LINE
  5
194B
  8
0
 10
25.104665
 20
108.615021
 30
0.0
 11
25.608656
 21
108.286752
 31
0.0
  0
LINE
  5
194C
  8
0
 10
25.608656
 20
108.286752
 30
0.0
 11
25.843637
 21
108.914467
 31
0.0
  0
LINE
  5
194D
  8
0
 10
23.0
 20
107.588457
 30
0.0
 11
23.584946
 21
107.349331
 31
0.0
  0
LINE
  5
194E
  8
0
 10
23.584946
 20
107.349331
 30
0.0
 11
23.68281
 21
107.950827
 31
0.0
  0
LINE
  5
194F
  8
0
 10
23.68281
 20
107.950827
 30
0.0
 11
24.213493
 21
107.667734
 31
0.0
  0
LINE
  5
1950
  8
0
 10
24.213493
 20
107.667734
 30
0.0
 11
24.392871
 21
108.31354
 31
0.0
  0
LINE
  5
1951
  8
0
 10
21.675624
 20
106.744737
 30
0.0
 11
22.279185
 21
106.557502
 31
0.0
  0
LINE
  5
1952
  8
0
 10
22.279185
 20
106.557502
 30
0.0
 11
22.324253
 21
107.165239
 31
0.0
  0
LINE
  5
1953
  8
0
 10
22.324253
 20
107.165239
 30
0.0
 11
22.87759
 21
106.929474
 31
0.0
  0
LINE
  5
1954
  8
0
 10
22.87759
 20
106.929474
 30
0.0
 11
23.0
 21
107.588457
 31
0.0
  0
LINE
  5
1955
  8
0
 10
20.429823
 20
105.7888
 30
0.0
 11
21.047406
 21
105.654881
 31
0.0
  0
LINE
  5
1956
  8
0
 10
21.047406
 20
105.654881
 30
0.0
 11
21.039334
 21
106.264234
 31
0.0
  0
LINE
  5
1957
  8
0
 10
21.039334
 20
106.264234
 30
0.0
 11
21.611114
 21
106.077593
 31
0.0
  0
LINE
  5
1958
  8
0
 10
21.611114
 20
106.077593
 30
0.0
 11
21.675624
 21
106.744737
 31
0.0
  0
LINE
  5
1959
  8
0
 10
19.272078
 20
104.727922
 30
0.0
 11
19.898982
 21
104.648339
 31
0.0
  0
LINE
  5
195A
  8
0
 10
19.898982
 20
104.648339
 30
0.0
 11
19.837833
 21
105.254669
 31
0.0
  0
LINE
  5
195B
  8
0
 10
19.837833
 20
105.254669
 30
0.0
 11
20.423704
 21
105.118572
 31
0.0
  0
LINE
  5
195C
  8
0
 10
20.423704
 20
105.118572
 30
0.0
 11
20.429823
 21
105.7888
 31
0.0
  0
LINE
  5
195D
  8
0
 10
18.2112
 20
103.570177
 30
0.0
 11
18.842655
 21
103.545535
 31
0.0
  0
LINE
  5
195E
  8
0
 10
18.842655
 20
103.545535
 30
0.0
 11
18.728893
 21
104.144228
 31
0.0
  0
LINE
  5
195F
  8
0
 10
18.728893
 20
104.144228
 30
0.0
 11
19.324396
 21
104.059711
 31
0.0
  0
LINE
  5
1960
  8
0
 10
19.324396
 20
104.059711
 30
0.0
 11
19.272078
 21
104.727922
 31
0.0
  0
LINE
  5
1961
  8
0
 10
17.255263
 20
102.324376
 30
0.0
 11
17.886463
 21
102.354863
 31
0.0
  0
LINE
  5
1962
  8
0
 10
17.886463
 20
102.354863
 30
0.0
 11
17.720955
 21
102.941363
 31
0.0
  0
LINE
  5
1963
  8
0
 10
17.720955
 20
102.941363
 30
0.0
 11
18.321558
 21
102.909069
 31
0.0
  0
LINE
  5
1964
  8
0
 10
18.321558
 20
102.909069
 30
0.0
 11
18.2112
 21
103.570177
 31
0.0
  0
LINE
  5
1965
  8
0
 10
16.411543
 20
101.0
 30
0.0
 11
17.037683
 21
101.085384
 31
0.0
  0
LINE
  5
1966
  8
0
 10
17.037683
 20
101.085384
 30
0.0
 11
16.821688
 21
101.655227
 31
0.0
  0
LINE
  5
1967
  8
0
 10
16.821688
 20
101.655227
 30
0.0
 11
17.42282
 21
101.675402
 31
0.0
  0
LINE
  5
1968
  8
0
 10
17.42282
 20
101.675402
 30
0.0
 11
17.255263
 21
102.324376
 31
0.0
  0
LINE
  5
1969
  8
0
 10
15.68646
 20
99.607129
 30
0.0
 11
16.302776
 21
99.746759
 31
0.0
  0
LINE
  5
196A
  8
0
 10
16.302776
 20
99.746759
 30
0.0
 11
16.037938
 21
100.295609
 31
0.0
  0
LINE
  5
196B
  8
0
 10
16.037938
 20
100.295609
 30
0.0
 11
16.635024
 21
100.368099
 31
0.0
  0
LINE
  5
196C
  8
0
 10
16.635024
 20
100.368099
 30
0.0
 11
16.411543
 21
101.0
 31
0.0
  0
LINE
  5
196D
  8
0
 10
15.085533
 20
98.156363
 30
0.0
 11
15.687334
 21
98.349177
 31
0.0
  0
LINE
  5
196E
  8
0
 10
15.687334
 20
98.349177
 30
0.0
 11
15.375668
 21
98.872856
 31
0.0
  0
LINE
  5
196F
  8
0
 10
15.375668
 20
98.872856
 30
0.0
 11
15.964165
 21
98.99711
 31
0.0
  0
LINE
  5
1970
  8
0
 10
15.964165
 20
98.99711
 30
0.0
 11
15.68646
 21
99.607129
 31
0.0
  0
LINE
  5
1971
  8
0
 10
14.613335
 20
96.658743
 30
0.0
 11
15.196042
 21
96.903274
 31
0.0
  0
LINE
  5
1972
  8
0
 10
15.196042
 20
96.903274
 30
0.0
 11
14.83992
 21
97.397797
 31
0.0
  0
LINE
  5
1973
  8
0
 10
14.83992
 20
97.397797
 30
0.0
 11
15.415347
 21
97.572869
 31
0.0
  0
LINE
  5
1974
  8
0
 10
15.415347
 20
97.572869
 30
0.0
 11
15.085533
 21
98.156363
 31
0.0
  0
LINE
  5
1975
  8
0
 10
14.27346
 20
95.125667
 30
0.0
 11
14.832637
 21
95.420054
 31
0.0
  0
LINE
  5
1976
  8
0
 10
14.832637
 20
95.420054
 30
0.0
 11
14.43477
 21
95.881657
 31
0.0
  0
LINE
  5
1977
  8
0
 10
14.43477
 20
95.881657
 30
0.0
 11
14.99275
 21
96.106215
 31
0.0
  0
LINE
  5
1978
  8
0
 10
14.99275
 20
96.106215
 30
0.0
 11
14.613335
 21
96.658743
 31
0.0
  0
LINE
  5
1979
  8
0
 10
14.068495
 20
93.568803
 30
0.0
 11
14.599887
 21
93.910806
 31
0.0
  0
LINE
  5
197A
  8
0
 10
14.599887
 20
93.910806
 30
0.0
 11
14.163303
 21
94.335975
 31
0.0
  0
LINE
  5
197B
  8
0
 10
14.163303
 20
94.335975
 30
0.0
 11
14.699587
 21
94.60831
 31
0.0
  0
LINE
  5
197C
  8
0
 10
14.699587
 20
94.60831
 30
0.0
 11
14.27346
 21
95.125667
 31
0.0
  0
LINE
  5
197D
  8
0
 10
14.0
 20
92.0
 30
0.0
 11
14.499562
 21
92.387015
 31
0.0
  0
LINE
  5
197E
  8
0
 10
14.499562
 20
92.387015
 30
0.0
 11
14.027583
 21
92.772516
 31
0.0
  0
LINE
  5
197F
  8
0
 10
14.027583
 20
92.772516
 30
0.0
 11
14.538091
 21
93.090554
 31
0.0
  0
LINE
  5
1980
  8
0
 10
14.538091
 20
93.090554
 30
0.0
 11
14.068495
 21
93.568803
 31
0.0
  0
LINE
  5
1981
  8
0
 10
14.068495
 20
90.431197
 30
0.0
 11
14.532426
 21
90.860278
 31
0.0
  0
LINE
  5
1982
  8
0
 10
14.532426
 20
90.860278
 30
0.0
 11
14.028644
 21
91.203177
 31
0.0
  0
LINE
  5
1983
  8
0
 10
14.028644
 20
91.203177
 30
0.0
 11
14.509491
 21
91.564499
 31
0.0
  0
LINE
  5
1984
  8
0
 10
14.509491
 20
91.564499
 30
0.0
 11
14.0
 21
92.0
 31
0.0
  0
LINE
  5
1985
  8
0
 10
14.27346
 20
88.874333
 30
0.0
 11
14.698229
 21
89.342216
 31
0.0
  0
LINE
  5
1986
  8
0
 10
14.698229
 20
89.342216
 30
0.0
 11
14.166479
 21
89.639902
 31
0.0
  0
LINE
  5
1987
  8
0
 10
14.166479
 20
89.639902
 30
0.0
 11
14.614004
 21
90.041757
 31
0.0
  0
LINE
  5
1988
  8
0
 10
14.614004
 20
90.041757
 30
0.0
 11
14.068495
 21
90.431197
 31
0.0
  0
LINE
  5
1989
  8
0
 10
14.613335
 20
87.341257
 30
0.0
 11
14.995708
 21
87.844381
 31
0.0
  0
LINE
  5
198A
  8
0
 10
14.995708
 20
87.844381
 30
0.0
 11
14.440037
 21
88.094589
 31
0.0
  0
LINE
  5
198B
  8
0
 10
14.440037
 20
88.094589
 30
0.0
 11
14.850835
 21
88.53392
 31
0.0
  0
LINE
  5
198C
  8
0
 10
14.850835
 20
88.53392
 30
0.0
 11
14.27346
 21
88.874333
 31
0.0
  0
LINE
  5
198D
  8
0
 10
15.085533
 20
85.843637
 30
0.0
 11
15.422601
 21
86.378173
 31
0.0
  0
LINE
  5
198E
  8
0
 10
15.422601
 20
86.378173
 30
0.0
 11
14.847236
 21
86.578999
 31
0.0
  0
LINE
  5
198F
  8
0
 10
14.847236
 20
86.578999
 30
0.0
 11
15.218182
 21
87.052461
 31
0.0
  0
LINE
  5
1990
  8
0
 10
15.218182
 20
87.052461
 30
0.0
 11
14.613335
 21
87.341257
 31
0.0
  0
LINE
  5
1991
  8
0
 10
15.68646
 20
84.392871
 30
0.0
 11
15.975657
 21
84.95475
 31
0.0
  0
LINE
  5
1992
  8
0
 10
15.975657
 20
84.95475
 30
0.0
 11
15.384979
 21
85.104665
 31
0.0
  0
LINE
  5
1993
  8
0
 10
15.384979
 20
85.104665
 30
0.0
 11
15.713248
 21
85.608656
 31
0.0
  0
LINE
  5
1994
  8
0
 10
15.713248
 20
85.608656
 30
0.0
 11
15.085533
 21
85.843637
 31
0.0
  0
LINE
  5
1995
  8
0
 10
16.411543
 20
83.0
 30
0.0
 11
16.650669
 21
83.584946
 31
0.0
  0
LINE
  5
1996
  8
0
 10
16.650669
 20
83.584946
 30
0.0
 11
16.049173
 21
83.68281
 31
0.0
  0
LINE
  5
1997
  8
0
 10
16.049173
 20
83.68281
 30
0.0
 11
16.332266
 21
84.213493
 31
0.0
  0
LINE
  5
1998
  8
0
 10
16.332266
 20
84.213493
 30
0.0
 11
15.68646
 21
84.392871
 31
0.0
  0
LINE
  5
1999
  8
0
 10
17.255263
 20
81.675624
 30
0.0
 11
17.442498
 21
82.279185
 31
0.0
  0
LINE
  5
199A
  8
0
 10
17.442498
 20
82.279185
 30
0.0
 11
16.834761
 21
82.324253
 31
0.0
  0
LINE
  5
199B
  8
0
 10
16.834761
 20
82.324253
 30
0.0
 11
17.070526
 21
82.87759
 31
0.0
  0
LINE
  5
199C
  8
0
 10
17.070526
 20
82.87759
 30
0.0
 11
16.411543
 21
83.0
 31
0.0
  0
LINE
  5
199D
  8
0
 10
18.2112
 20
80.429823
 30
0.0
 11
18.345119
 21
81.047406
 31
0.0
  0
LINE
  5
199E
  8
0
 10
18.345119
 20
81.047406
 30
0.0
 11
17.735766
 21
81.039334
 31
0.0
  0
LINE
  5
199F
  8
0
 10
17.735766
 20
81.039334
 30
0.0
 11
17.922407
 21
81.611114
 31
0.0
  0
LINE
  5
19A0
  8
0
 10
17.922407
 20
81.611114
 30
0.0
 11
17.255263
 21
81.675624
 31
0.0
  0
LINE
  5
19A1
  8
0
 10
19.272078
 20
79.272078
 30
0.0
 11
19.351661
 21
79.898982
 31
0.0
  0
LINE
  5
19A2
  8
0
 10
19.351661
 20
79.898982
 30
0.0
 11
18.745331
 21
79.837833
 31
0.0
  0
LINE
  5
19A3
  8
0
 10
18.745331
 20
79.837833
 30
0.0
 11
18.881428
 21
80.423704
 31
0.0
  0
LINE
  5
19A4
  8
0
 10
18.881428
 20
80.423704
 30
0.0
 11
18.2112
 21
80.429823
 31
0.0
  0
LINE
  5
19A5
  8
0
 10
20.429823
 20
78.2112
 30
0.0
 11
20.454465
 21
78.842655
 31
0.0
  0
LINE
  5
19A6
  8
0
 10
20.454465
 20
78.842655
 30
0.0
 11
19.855772
 21
78.728893
 31
0.0
  0
LINE
  5
19A7
  8
0
 10
19.855772
 20
78.728893
 30
0.0
 11
19.940289
 21
79.324396
 31
0.0
  0
LINE
  5
19A8
  8
0
 10
19.940289
 20
79.324396
 30
0.0
 11
19.272078
 21
79.272078
 31
0.0
  0
LINE
  5
19A9
  8
0
 10
21.675624
 20
77.255263
 30
0.0
 11
21.645137
 21
77.886463
 31
0.0
  0
LINE
  5
19AA
  8
0
 10
21.645137
 20
77.886463
 30
0.0
 11
21.058637
 21
77.720955
 31
0.0
  0
LINE
  5
19AB
  8
0
 10
21.058637
 20
77.720955
 30
0.0
 11
21.090931
 21
78.321558
 31
0.0
  0
LINE
  5
19AC
  8
0
 10
21.090931
 20
78.321558
 30
0.0
 11
20.429823
 21
78.2112
 31
0.0
  0
LINE
  5
19AD
  8
0
 10
23.0
 20
76.411543
 30
0.0
 11
22.914616
 21
77.037683
 31
0.0
  0
LINE
  5
19AE
  8
0
 10
22.914616
 20
77.037683
 30
0.0
 11
22.344773
 21
76.821688
 31
0.0
  0
LINE
  5
19AF
  8
0
 10
22.344773
 20
76.821688
 30
0.0
 11
22.324598
 21
77.42282
 31
0.0
  0
LINE
  5
19B0
  8
0
 10
22.324598
 20
77.42282
 30
0.0
 11
21.675624
 21
77.255263
 31
0.0
  0
LINE
  5
19B1
  8
0
 10
24.392871
 20
75.68646
 30
0.0
 11
24.253241
 21
76.302776
 31
0.0
  0
LINE
  5
19B2
  8
0
 10
24.253241
 20
76.302776
 30
0.0
 11
23.704391
 21
76.037938
 31
0.0
  0
LINE
  5
19B3
  8
0
 10
23.704391
 20
76.037938
 30
0.0
 11
23.631901
 21
76.635024
 31
0.0
  0
LINE
  5
19B4
  8
0
 10
23.631901
 20
76.635024
 30
0.0
 11
23.0
 21
76.411543
 31
0.0
  0
LINE
  5
19B5
  8
0
 10
25.843637
 20
75.085533
 30
0.0
 11
25.650823
 21
75.687334
 31
0.0
  0
LINE
  5
19B6
  8
0
 10
25.650823
 20
75.687334
 30
0.0
 11
25.127144
 21
75.375668
 31
0.0
  0
LINE
  5
19B7
  8
0
 10
25.127144
 20
75.375668
 30
0.0
 11
25.00289
 21
75.964165
 31
0.0
  0
LINE
  5
19B8
  8
0
 10
25.00289
 20
75.964165
 30
0.0
 11
24.392871
 21
75.68646
 31
0.0
  0
LINE
  5
19B9
  8
0
 10
27.341257
 20
74.613335
 30
0.0
 11
27.096726
 21
75.196042
 31
0.0
  0
LINE
  5
19BA
  8
0
 10
27.096726
 20
75.196042
 30
0.0
 11
26.602203
 21
74.83992
 31
0.0
  0
LINE
  5
19BB
  8
0
 10
26.602203
 20
74.83992
 30
0.0
 11
26.427131
 21
75.415347
 31
0.0
  0
LINE
  5
19BC
  8
0
 10
26.427131
 20
75.415347
 30
0.0
 11
25.843637
 21
75.085533
 31
0.0
  0
LINE
  5
19BD
  8
0
 10
28.874333
 20
74.27346
 30
0.0
 11
28.579946
 21
74.832637
 31
0.0
  0
LINE
  5
19BE
  8
0
 10
28.579946
 20
74.832637
 30
0.0
 11
28.118343
 21
74.43477
 31
0.0
  0
LINE
  5
19BF
  8
0
 10
28.118343
 20
74.43477
 30
0.0
 11
27.893785
 21
74.99275
 31
0.0
  0
LINE
  5
19C0
  8
0
 10
27.893785
 20
74.99275
 30
0.0
 11
27.341257
 21
74.613335
 31
0.0
  0
LINE
  5
19C1
  8
0
 10
30.431197
 20
74.068495
 30
0.0
 11
30.089194
 21
74.599887
 31
0.0
  0
LINE
  5
19C2
  8
0
 10
30.089194
 20
74.599887
 30
0.0
 11
29.664025
 21
74.163303
 31
0.0
  0
LINE
  5
19C3
  8
0
 10
29.664025
 20
74.163303
 30
0.0
 11
29.39169
 21
74.699587
 31
0.0
  0
LINE
  5
19C4
  8
0
 10
29.39169
 20
74.699587
 30
0.0
 11
28.874333
 21
74.27346
 31
0.0
  0
LINE
  5
19C5
  8
0
 10
32.0
 20
74.0
 30
0.0
 11
31.612985
 21
74.499562
 31
0.0
  0
LINE
  5
19C6
  8
0
 10
31.612985
 20
74.499562
 30
0.0
 11
31.227484
 21
74.027583
 31
0.0
  0
LINE
  5
19C7
  8
0
 10
31.227484
 20
74.027583
 30
0.0
 11
30.909446
 21
74.538091
 31
0.0
  0
LINE
  5
19C8
  8
0
 10
30.909446
 20
74.538091
 30
0.0
 11
30.431197
 21
74.068495
 31
0.0
  0
LINE
  5
19C9
  8
0
 10
33.568803
 20
74.068495
 30
0.0
 11
33.139722
 21
74.532426
 31
0.0
  0
LINE
  5
19CA
  8
0
 10
33.139722
 20
74.532426
 30
0.0
 11
32.796823
 21
74.028644
 31
0.0
  0
LINE
  5
19CB
  8
0
 10
32.796823
 20
74.028644
 30
0.0
 11
32.435501
 21
74.509491
 31
0.0
  0
LINE
  5
19CC
  8
0
 10
32.435501
 20
74.509491
 30
0.0
 11
32.0
 21
74.0
 31
0.0
  0
LINE
  5
19CD
  8
0
 10
35.125667
 20
74.27346
 30
0.0
 11
34.657784
 21
74.698229
 31
0.0
  0
LINE
  5
19CE
  8
0
 10
34.657784
 20
74.698229
 30
0.0
 11
34.360098
 21
74.166479
 31
0.0
  0
LINE
  5
19CF
  8
0
 10
34.360098
 20
74.166479
 30
0.0
 11
33.958243
 21
74.614004
 31
0.0
  0
LINE
  5
19D0
  8
0
 10
33.958243
 20
74.614004
 30
0.0
 11
33.568803
 21
74.068495
 31
0.0
  0
LINE
  5
19D1
  8
0
 10
36.658743
 20
74.613335
 30
0.0
 11
36.155619
 21
74.995708
 31
0.0
  0
LINE
  5
19D2
  8
0
 10
36.155619
 20
74.995708
 30
0.0
 11
35.905411
 21
74.440037
 31
0.0
  0
LINE
  5
19D3
  8
0
 10
35.905411
 20
74.440037
 30
0.0
 11
35.46608
 21
74.850835
 31
0.0
  0
LINE
  5
19D4
  8
0
 10
35.46608
 20
74.850835
 30
0.0
 11
35.125667
 21
74.27346
 31
0.0
  0
LINE
  5
19D5
  8
0
 10
38.156363
 20
75.085533
 30
0.0
 11
37.621827
 21
75.422601
 31
0.0
  0
LINE
  5
19D6
  8
0
 10
37.621827
 20
75.422601
 30
0.0
 11
37.421001
 21
74.847236
 31
0.0
  0
LINE
  5
19D7
  8
0
 10
37.421001
 20
74.847236
 30
0.0
 11
36.947539
 21
75.218182
 31
0.0
  0
LINE
  5
19D8
  8
0
 10
36.947539
 20
75.218182
 30
0.0
 11
36.658743
 21
74.613335
 31
0.0
  0
LINE
  5
19D9
  8
0
 10
39.607129
 20
75.68646
 30
0.0
 11
39.04525
 21
75.975657
 31
0.0
  0
LINE
  5
19DA
  8
0
 10
39.04525
 20
75.975657
 30
0.0
 11
38.895335
 21
75.384979
 31
0.0
  0
LINE
  5
19DB
  8
0
 10
38.895335
 20
75.384979
 30
0.0
 11
38.391344
 21
75.713248
 31
0.0
  0
LINE
  5
19DC
  8
0
 10
38.391344
 20
75.713248
 30
0.0
 11
38.156363
 21
75.085533
 31
0.0
  0
LINE
  5
19DD
  8
0
 10
41.0
 20
76.411543
 30
0.0
 11
40.415054
 21
76.650669
 31
0.0
  0
LINE
  5
19DE
  8
0
 10
40.415054
 20
76.650669
 30
0.0
 11
40.31719
 21
76.049173
 31
0.0
  0
LINE
  5
19DF
  8
0
 10
40.31719
 20
76.049173
 30
0.0
 11
39.786507
 21
76.332266
 31
0.0
  0
LINE
  5
19E0
  8
0
 10
39.786507
 20
76.332266
 30
0.0
 11
39.607129
 21
75.68646
 31
0.0
  0
LINE
  5
19E1
  8
0
 10
42.324376
 20
77.255263
 30
0.0
 11
41.720815
 21
77.442498
 31
0.0
  0
LINE
  5
19E2
  8
0
 10
41.720815
 20
77.442498
 30
0.0
 11
41.675747
 21
76.834761
 31
0.0
  0
LINE
  5
19E3
  8
0
 10
41.675747
 20
76.834761
 30
0.0
 11
41.12241
 21
77.070526
 31
0.0
  0
LINE
  5
19E4
  8
0
 10
41.12241
 20
77.070526
 30
0.0
 11
41.0
 21
76.411543
 31
0.0
  0
LINE
  5
19E5
  8
0
 10
43.570177
 20
78.2112
 30
0.0
 11
42.952594
 21
78.345119
 31
0.0
  0
LINE
  5
19E6
  8
0
 10
42.952594
 20
78.345119
 30
0.0
 11
42.960666
 21
77.735766
 31
0.0
  0
LINE
  5
19E7
  8
0
 10
42.960666
 20
77.735766
 30
0.0
 11
42.388886
 21
77.922407
 31
0.0
  0
LINE
  5
19E8
  8
0
 10
42.388886
 20
77.922407
 30
0.0
 11
42.324376
 21
77.255263
 31
0.0
  0
LINE
  5
19E9
  8
0
 10
44.727922
 20
79.272078
 30
0.0
 11
44.101018
 21
79.351661
 31
0.0
  0
LINE
  5
19EA
  8
0
 10
44.101018
 20
79.351661
 30
0.0
 11
44.162167
 21
78.745331
 31
0.0
  0
LINE
  5
19EB
  8
0
 10
44.162167
 20
78.745331
 30
0.0
 11
43.576296
 21
78.881428
 31
0.0
  0
LINE
  5
19EC
  8
0
 10
43.576296
 20
78.881428
 30
0.0
 11
43.570177
 21
78.2112
 31
0.0
  0
LINE
  5
19ED
  8
0
 10
45.7888
 20
80.429823
 30
0.0
 11
45.157345
 21
80.454465
 31
0.0
  0
LINE
  5
19EE
  8
0
 10
45.157345
 20
80.454465
 30
0.0
 11
45.271107
 21
79.855772
 31
0.0
  0
LINE
  5
19EF
  8
0
 10
45.271107
 20
79.855772
 30
0.0
 11
44.675604
 21
79.940289
 31
0.0
  0
LINE
  5
19F0
  8
0
 10
44.675604
 20
79.940289
 30
0.0
 11
44.727922
 21
79.272078
 31
0.0
  0
LINE
  5
19F1
  8
0
 10
46.744737
 20
81.675624
 30
0.0
 11
46.113537
 21
81.645137
 31
0.0
  0
LINE
  5
19F2
  8
0
 10
46.113537
 20
81.645137
 30
0.0
 11
46.279045
 21
81.058637
 31
0.0
  0
LINE
  5
19F3
  8
0
 10
46.279045
 20
81.058637
 30
0.0
 11
45.678442
 21
81.090931
 31
0.0
  0
LINE
  5
19F4
  8
0
 10
45.678442
 20
81.090931
 30
0.0
 11
45.7888
 21
80.429823
 31
0.0
  0
LINE
  5
19F5
  8
0
 10
47.588457
 20
83.0
 30
0.0
 11
46.962317
 21
82.914616
 31
0.0
  0
LINE
  5
19F6
  8
0
 10
46.962317
 20
82.914616
 30
0.0
 11
47.178312
 21
82.344773
 31
0.0
  0
LINE
  5
19F7
  8
0
 10
47.178312
 20
82.344773
 30
0.0
 11
46.57718
 21
82.324598
 31
0.0
  0
LINE
  5
19F8
  8
0
 10
46.57718
 20
82.324598
 30
0.0
 11
46.744737
 21
81.675624
 31
0.0
  0
LINE
  5
19F9
  8
0
 10
48.31354
 20
84.392871
 30
0.0
 11
47.697224
 21
84.253241
 31
0.0
  0
LINE
  5
19FA
  8
0
 10
47.697224
 20
84.253241
 30
0.0
 11
47.962062
 21
83.704391
 31
0.0
  0
LINE
  5
19FB
  8
0
 10
47.962062
 20
83.704391
 30
0.0
 11
47.364976
 21
83.631901
 31
0.0
  0
LINE
  5
19FC
  8
0
 10
47.364976
 20
83.631901
 30
0.0
 11
47.588457
 21
83.0
 31
0.0
  0
LINE
  5
19FD
  8
0
 10
48.914467
 20
85.843637
 30
0.0
 11
48.312666
 21
85.650823
 31
0.0
  0
LINE
  5
19FE
  8
0
 10
48.312666
 20
85.650823
 30
0.0
 11
48.624332
 21
85.127144
 31
0.0
  0
LINE
  5
19FF
  8
0
 10
48.624332
 20
85.127144
 30
0.0
 11
48.035835
 21
85.00289
 31
0.0
  0
LINE
  5
1A00
  8
0
 10
48.035835
 20
85.00289
 30
0.0
 11
48.31354
 21
84.392871
 31
0.0
  0
LINE
  5
1A01
  8
0
 10
49.386665
 20
87.341257
 30
0.0
 11
48.803958
 21
87.096726
 31
0.0
  0
LINE
  5
1A02
  8
0
 10
48.803958
 20
87.096726
 30
0.0
 11
49.16008
 21
86.602203
 31
0.0
  0
LINE
  5
1A03
  8
0
 10
49.16008
 20
86.602203
 30
0.0
 11
48.584653
 21
86.427131
 31
0.0
  0
LINE
  5
1A04
  8
0
 10
48.584653
 20
86.427131
 30
0.0
 11
48.914467
 21
85.843637
 31
0.0
  0
LINE
  5
1A05
  8
0
 10
49.72654
 20
88.874333
 30
0.0
 11
49.167363
 21
88.579946
 31
0.0
  0
LINE
  5
1A06
  8
0
 10
49.167363
 20
88.579946
 30
0.0
 11
49.56523
 21
88.118343
 31
0.0
  0
LINE
  5
1A07
  8
0
 10
49.56523
 20
88.118343
 30
0.0
 11
49.00725
 21
87.893785
 31
0.0
  0
LINE
  5
1A08
  8
0
 10
49.00725
 20
87.893785
 30
0.0
 11
49.386665
 21
87.341257
 31
0.0
  0
LINE
  5
1A09
  8
0
 10
49.931505
 20
90.431197
 30
0.0
 11
49.400113
 21
90.089194
 31
0.0
  0
LINE
  5
1A0A
  8
0
 10
49.400113
 20
90.089194
 30
0.0
 11
49.836697
 21
89.664025
 31
0.0
  0
LINE
  5
1A0B
  8
0
 10
49.836697
 20
89.664025
 30
0.0
 11
49.300413
 21
89.39169
 31
0.0
  0
LINE
  5
1A0C
  8
0
 10
49.300413
 20
89.39169
 30
0.0
 11
49.72654
 21
88.874333
 31
0.0
  0
LINE
  5
1A0D
  8
0
 10
50.0
 20
92.0
 30
0.0
 11
49.500438
 21
91.612985
 31
0.0
  0
LINE
  5
1A0E
  8
0
 10
49.500438
 20
91.612985
 30
0.0
 11
49.972417
 21
91.227484
 31
0.0
  0
LINE
  5
1A0F
  8
0
 10
49.972417
 20
91.227484
 30
0.0
 11
49.461909
 21
90.909446
 31
0.0
  0
LINE
  5
1A10
  8
0
 10
49.461909
 20
90.909446
 30
0.0
 11
49.931505
 21
90.431197
 31
0.0
  0
LINE
  5
1A11
  8
0
 10
49.931505
 20
93.568803
 30
0.0
 11
49.467574
 21
93.139722
 31
0.0
  0
LINE
  5
1A12
  8
0
 10
49.467574
 20
93.139722
 30
0.0
 11
49.971356
 21
92.796823
 31
0.0
  0
LINE
  5
1A13
  8
0
 10
49.971356
 20
92.796823
 30
0.0
 11
49.490509
 21
92.435501
 31
0.0
  0
LINE
  5
1A14
  8
0
 10
49.490509
 20
92.435501
 30
0.0
 11
50.0
 21
92.0
 31
0.0
  0
LINE
  5
1A15
  8
0
 10
49.72654
 20
95.125667
 30
0.0
 11
49.301771
 21
94.657784
 31
0.0
  0
LINE
  5
1A16
  8
0
 10
49.301771
 20
94.657784
 30
0.0
 11
49.833521
 21
94.360098
 31
0.0
  0
LINE
  5
1A17
  8
0
 10
49.833521
 20
94.360098
 30
0.0
 11
49.385996
 21
93.958243
 31
0.0
  0
LINE
  5
1A18
  8
0
 10
49.385996
 20
93.958243
 30
0.0
 11
49.931505
 21
93.568803
 31
0.0
  0
LINE
  5
1A19
  8
0
 10
49.386665
 20
96.658743
 30
0.0
 11
49.004292
 21
96.155619
 31
0.0
  0
LINE
  5
1A1A
  8
0
 10
49.004292
 20
96.155619
 30
0.0
 11
49.559963
 21
95.905411
 31
0.0
  0
LINE
  5
1A1B
  8
0
 10
49.559963
 20
95.905411
 30
0.0
 11
49.149165
 21
95.46608
 31
0.0
  0
LINE
  5
1A1C
  8
0
 10
49.149165
 20
95.46608
 30
0.0
 11
49.72654
 21
95.125667
 31
0.0
  0
LINE
  5
1A1D
  8
0
 10
48.914467
 20
98.156363
 30
0.0
 11
48.577399
 21
97.621827
 31
0.0
  0
LINE
  5
1A1E
  8
0
 10
48.577399
 20
97.621827
 30
0.0
 11
49.152764
 21
97.421001
 31
0.0
  0
LINE
  5
1A1F
  8
0
 10
49.152764
 20
97.421001
 30
0.0
 11
48.781818
 21
96.947539
 31
0.0
  0
LINE
  5
1A20
  8
0
 10
48.781818
 20
96.947539
 30
0.0
 11
49.386665
 21
96.658743
 31
0.0
  0
LINE
  5
1A21
  8
0
 10
48.31354
 20
99.607129
 30
0.0
 11
48.024343
 21
99.04525
 31
0.0
  0
LINE
  5
1A22
  8
0
 10
48.024343
 20
99.04525
 30
0.0
 11
48.615021
 21
98.895335
 31
0.0
  0
LINE
  5
1A23
  8
0
 10
48.615021
 20
98.895335
 30
0.0
 11
48.286752
 21
98.391344
 31
0.0
  0
LINE
  5
1A24
  8
0
 10
48.286752
 20
98.391344
 30
0.0
 11
48.914467
 21
98.156363
 31
0.0
  0
LINE
  5
1A25
  8
0
 10
47.588457
 20
101.0
 30
0.0
 11
47.349331
 21
100.415054
 31
0.0
  0
LINE
  5
1A26
  8
0
 10
47.349331
 20
100.415054
 30
0.0
 11
47.950827
 21
100.31719
 31
0.0
  0
LINE
  5
1A27
  8
0
 10
47.950827
 20
100.31719
 30
0.0
 11
47.667734
 21
99.786507
 31
0.0
  0
LINE
  5
1A28
  8
0
 10
47.667734
 20
99.786507
 30
0.0
 11
48.31354
 21
99.607129
 31
0.0
  0
LINE
  5
1A29
  8
0
 10
46.744737
 20
102.324376
 30
0.0
 11
46.557502
 21
101.720815
 31
0.0
  0
LINE
  5
1A2A
  8
0
 10
46.557502
 20
101.720815
 30
0.0
 11
47.165239
 21
101.675747
 31
0.0
  0
LINE
  5
1A2B
  8
0
 10
47.165239
 20
101.675747
 30
0.0
 11
46.929474
 21
101.12241
 31
0.0
  0
LINE
  5
1A2C
  8
0
 10
46.929474
 20
101.12241
 30
0.0
 11
47.588457
 21
101.0
 31
0.0
  0
LINE
  5
1A2D
  8
0
 10
45.7888
 20
103.570177
 30
0.0
 11
45.654881
 21
102.952594
 31
0.0
  0
LINE
  5
1A2E
  8
0
 10
45.654881
 20
102.952594
 30
0.0
 11
46.264234
 21
102.960666
 31
0.0
  0
LINE
  5
1A2F
  8
0
 10
46.264234
 20
102.960666
 30
0.0
 11
46.077593
 21
102.388886
 31
0.0
  0
LINE
  5
1A30
  8
0
 10
46.077593
 20
102.388886
 30
0.0
 11
46.744737
 21
102.324376
 31
0.0
  0
LINE
  5
1A31
  8
0
 10
44.727922
 20
104.727922
 30
0.0
 11
44.648339
 21
104.101018
 31
0.0
  0
LINE
  5
1A32
  8
0
 10
44.648339
 20
104.101018
 30
0.0
 11
45.254669
 21
104.162167
 31
0.0
  0
LINE
  5
1A33
  8
0
 10
45.254669
 20
104.162167
 30
0.0
 11
45.118572
 21
103.576296
 31
0.0
  0
LINE
  5
1A34
  8
0
 10
45.118572
 20
103.576296
 30
0.0
 11
45.7888
 21
103.570177
 31
0.0
  0
LINE
  5
1A35
  8
0
 10
43.570177
 20
105.7888
 30
0.0
 11
43.545535
 21
105.157345
 31
0.0
  0
LINE
  5
1A36
  8
0
 10
43.545535
 20
105.157345
 30
0.0
 11
44.144228
 21
105.271107
 31
0.0
  0
LINE
  5
1A37
  8
0
 10
44.144228
 20
105.271107
 30
0.0
 11
44.059711
 21
104.675604
 31
0.0
  0
LINE
  5
1A38
  8
0
 10
44.059711
 20
104.675604
 30
0.0
 11
44.727922
 21
104.727922
 31
0.0
  0
LINE
  5
1A39
  8
0
 10
42.324376
 20
106.744737
 30
0.0
 11
42.354863
 21
106.113537
 31
0.0
  0
LINE
  5
1A3A
  8
0
 10
42.354863
 20
106.113537
 30
0.0
 11
42.941363
 21
106.279045
 31
0.0
  0
LINE
  5
1A3B
  8
0
 10
42.941363
 20
106.279045
 30
0.0
 11
42.909069
 21
105.678442
 31
0.0
  0
LINE
  5
1A3C
  8
0
 10
42.909069
 20
105.678442
 30
0.0
 11
43.570177
 21
105.7888
 31
0.0
  0
LINE
  5
1A3D
  8
0
 10
41.0
 20
107.588457
 30
0.0
 11
41.085384
 21
106.962317
 31
0.0
  0
LINE
  5
1A3E
  8
0
 10
41.085384
 20
106.962317
 30
0.0
 11
41.655227
 21
107.178312
 31
0.0
  0
LINE
  5
1A3F
  8
0
 10
41.655227
 20
107.178312
 30
0.0
 11
41.675402
 21
106.57718
 31
0.0
  0
LINE
  5
1A40
  8
0
 10
41.675402
 20
106.57718
 30
0.0
 11
42.324376
 21
106.744737
 31
0.0
  0
LINE
  5
1A41
  8
0
 10
39.607129
 20
108.31354
 30
0.0
 11
39.746759
 21
107.697224
 31
0.0
  0
LINE
  5
1A42
  8
0
 10
39.746759
 20
107.697224
 30
0.0
 11
40.295609
 21
107.962062
 31
0.0
  0
LINE
  5
1A43
  8
0
 10
40.295609
 20
107.962062
 30
0.0
 11
40.368099
 21
107.364976
 31
0.0
  0
LINE
  5
1A44
  8
0
 10
40.368099
 20
107.364976
 30
0.0
 11
41.0
 21
107.588457
 31
0.0
  0
LINE
  5
1A45
  8
0
 10
38.156363
 20
108.914467
 30
0.0
 11
38.349177
 21
108.312666
 31
0.0
  0
LINE
  5
1A46
  8
0
 10
38.349177
 20
108.312666
 30
0.0
 11
38.872856
 21
108.624332
 31
0.0
  0
LINE
  5
1A47
  8
0
 10
38.872856
 20
108.624332
 30
0.0
 11
38.99711
 21
108.035835
 31
0.0
  0
LINE
  5
1A48
  8
0
 10
38.99711
 20
108.035835
 30
0.0
 11
39.607129
 21
108.31354
 31
0.0
  0
LINE
  5
1A49
  8
0
 10
36.658743
 20
109.386665
 30
0.0
 11
36.903274
 21
108.803958
 31
0.0
  0
LINE
  5
1A4A
  8
0
 10
36.903274
 20
108.803958
 30
0.0
 11
37.397797
 21
109.16008
 31
0.0
  0
LINE
  5
1A4B
  8
0
 10
37.397797
 20
109.16008
 30
0.0
 11
37.572869
 21
108.584653
 31
0.0
  0
LINE
  5
1A4C
  8
0
 10
37.572869
 20
108.584653
 30
0.0
 11
38.156363
 21
108.914467
 31
0.0
  0
LINE
  5
1A4D
  8
0
 10
35.125667
 20
109.72654
 30
0.0
 11
35.420054
 21
109.167363
 31
0.0
  0
LINE
  5
1A4E
  8
0
 10
35.420054
 20
109.167363
 30
0.0
 11
35.881657
 21
109.56523
 31
0.0
  0
LINE
  5
1A4F
  8
0
 10
35.881657
 20
109.56523
 30
0.0
 11
36.106215
 21
109.00725
 31
0.0
  0
LINE
  5
1A50
  8
0
 10
36.106215
 20
109.00725
 30
0.0
 11
36.658743
 21
109.386665
 31
0.0
  0
LINE
  5
1A51
  8
0
 10
33.568803
 20
109.931505
 30
0.0
 11
33.910806
 21
109.400113
 31
0.0
  0
LINE
  5
1A52
  8
0
 10
33.910806
 20
109.400113
 30
0.0
 11
34.335975
 21
109.836697
 31
0.0
  0
LINE
  5
1A53
  8
0
 10
34.335975
 20
109.836697
 30
0.0
 11
34.60831
 21
109.300413
 31
0.0
  0
LINE
  5
1A54
  8
0
 10
34.60831
 20
109.300413
 30
0.0
 11
35.125667
 21
109.72654
 31
0.0
  0
CIRCLE
  5
1A55
  8
0
 10
32.0
 20
92.0
 30
0.0
 40
15.0
  0
CIRCLE
  5
1A56
  8
0
 10
32.0
 20
92.0
 30
0.0
 40
4.0
  0
CIRCLE
  5
1A57
  8
0
 10
32.0
 20
92.0
 30
0.0
 40
5.0
  0
LINE
  5
1A58
  8
1
 10
68.25
 20
92.0
 30
0.0
 11
99.0
 21
92.0
 31
0.0
  0
LINE
  5
1A59
  8
0
 10
73.0
 20
92.0
 30
0.0
 11
73.0
 21
109.0
 31
0.0
  0
LINE
  5
1A5A
  8
0
 10
74.0
 20
110.0
 30
0.0
 11
86.0
 21
110.0
 31
0.0
  0
LINE
  5
1A5B
  8
0
 10
87.0
 20
109.0
 30
0.0
 11
87.0
 21
92.0
 31
0.0
  0
LINE
  5
1A5D
  8
0
 10
87.0
 20
106.0
 30
0.0
 11
92.0
 21
106.0
 31
0.0
  0
LINE
  5
1A5E
  8
0
 10
93.0
 20
105.0
 30
0.0
 11
93.0
 21
92.0
 31
0.0
  0
ARC
  5
1A5F
  8
0
 10
92.0
 20
105.0
 30
0.0
 40
1.0
 50
0.0
 51
90.0
  0
ARC
  5
1A60
  8
0
 10
86.0
 20
109.0
 30
0.0
 40
1.0
 50
0.0
 51
90.0
  0
ARC
  5
1A61
  8
0
 10
74.0
 20
109.0
 30
0.0
 40
1.0
 50
90.0
 51
180.0
  0
LINE
  5
1A62
  8
0
 10
74.25
 20
92.5
 30
0.0
 11
86.0
 21
92.5
 31
0.0
  0
LINE
  5
1A63
  8
0
 10
74.25
 20
93.5
 30
0.0
 11
86.0
 21
93.5
 31
0.0
  0
LINE
  5
1A64
  8
0
 10
74.25
 20
94.5
 30
0.0
 11
86.0
 21
94.5
 31
0.0
  0
LINE
  5
1A65
  8
0
 10
74.25
 20
95.5
 30
0.0
 11
86.0
 21
95.5
 31
0.0
  0
LINE
  5
1A66
  8
0
 10
74.25
 20
96.5
 30
0.0
 11
86.0
 21
96.5
 31
0.0
  0
LINE
  5
1A67
  8
0
 10
74.25
 20
97.5
 30
0.0
 11
86.0
 21
97.5
 31
0.0
  0
LINE
  5
1A68
  8
0
 10
74.25
 20
98.5
 30
0.0
 11
86.0
 21
98.5
 31
0.0
  0
LINE
  5
1A69
  8
0
 10
74.25
 20
99.5
 30
0.0
 11
86.0
 21
99.5
 31
0.0
  0
LINE
  5
1A6A
  8
0
 10
74.25
 20
100.5
 30
0.0
 11
86.0
 21
100.5
 31
0.0
  0
LINE
  5
1A6B
  8
0
 10
74.25
 20
101.5
 30
0.0
 11
86.0
 21
101.5
 31
0.0
  0
LINE
  5
1A6C
  8
0
 10
74.25
 20
102.5
 30
0.0
 11
86.0
 21
102.5
 31
0.0
  0
LINE
  5
1A6D
  8
0
 10
74.25
 20
103.5
 30
0.0
 11
86.0
 21
103.5
 31
0.0
  0
LINE
  5
1A6E
  8
0
 10
74.25
 20
104.5
 30
0.0
 11
86.0
 21
104.5
 31
0.0
  0
LINE
  5
1A6F
  8
0
 10
74.25
 20
105.5
 30
0.0
 11
86.0
 21
105.5
 31
0.0
  0
LINE
  5
1A70
  8
0
 10
74.25
 20
106.5
 30
0.0
 11
86.0
 21
106.5
 31
0.0
  0
LINE
  5
1A71
  8
0
 10
74.25
 20
107.5
 30
0.0
 11
86.0
 21
107.5
 31
0.0
  0
LINE
  5
1A72
  8
0
 10
74.25
 20
108.5
 30
0.0
 11
86.0
 21
108.5
 31
0.0
  0
LINE
  5
1A73
  8
0
 10
74.25
 20
109.5
 30
0.0
 11
86.0
 21
109.5
 31
0.0
  0
LINE
  5
1A77
  8
2
 10
81.0
 20
92.0
 30
0.0
 11
81.0
 21
107.0
 31
0.0
  0
LINE
  5
1A78
  8
2
 10
81.0
 20
107.0
 30
0.0
 11
73.0
 21
107.0
 31
0.0
  0
LINE
  5
1A7B
  8
2
 10
93.0
 20
97.5
 30
0.0
 11
92.5
 21
96.0
 31
0.0
  0
LINE
  5
1A7C
  8
2
 10
92.5
 20
96.0
 30
0.0
 11
81.0
 21
96.0
 31
0.0
  0
LINE
  5
1A7D
  8
2
 10
92.75
 20
97.0
 30
0.0
 11
81.0
 21
97.0
 31
0.0
  0
ARC
  5
1A7E
  8
0
 10
86.0
 20
75.0
 30
0.0
 40
1.0
 50
270.0
 51
0.0
  0
LINE
  5
1A7F
  8
2
 10
92.75
 20
87.0
 30
0.0
 11
81.0
 21
87.0
 31
0.0
  0
LINE
  5
1A80
  8
2
 10
92.5
 20
88.0
 30
0.0
 11
81.0
 21
88.0
 31
0.0
  0
LINE
  5
1A81
  8
2
 10
81.0
 20
92.0
 30
0.0
 11
81.0
 21
77.0
 31
0.0
  0
LINE
  5
1A82
  8
0
 10
73.0
 20
92.0
 30
0.0
 11
73.0
 21
75.0
 31
0.0
  0
LINE
  5
1A83
  8
0
 10
74.25
 20
86.5
 30
0.0
 11
86.0
 21
86.5
 31
0.0
  0
LINE
  5
1A84
  8
0
 10
74.25
 20
87.5
 30
0.0
 11
86.0
 21
87.5
 31
0.0
  0
LINE
  5
1A85
  8
0
 10
74.25
 20
88.5
 30
0.0
 11
86.0
 21
88.5
 31
0.0
  0
LINE
  5
1A86
  8
0
 10
74.25
 20
89.5
 30
0.0
 11
86.0
 21
89.5
 31
0.0
  0
LINE
  5
1A87
  8
0
 10
74.25
 20
90.5
 30
0.0
 11
86.0
 21
90.5
 31
0.0
  0
LINE
  5
1A88
  8
0
 10
74.25
 20
91.5
 30
0.0
 11
86.0
 21
91.5
 31
0.0
  0
LINE
  5
1A89
  8
2
 10
81.0
 20
77.0
 30
0.0
 11
73.0
 21
77.0
 31
0.0
  0
LINE
  5
1A8A
  8
0
 10
74.25
 20
74.5
 30
0.0
 11
86.0
 21
74.5
 31
0.0
  0
LINE
  5
1A8B
  8
0
 10
74.25
 20
75.5
 30
0.0
 11
86.0
 21
75.5
 31
0.0
  0
LINE
  5
1A8C
  8
0
 10
74.25
 20
76.5
 30
0.0
 11
86.0
 21
76.5
 31
0.0
  0
LINE
  5
1A8D
  8
0
 10
74.25
 20
77.5
 30
0.0
 11
86.0
 21
77.5
 31
0.0
  0
LINE
  5
1A8E
  8
0
 10
74.25
 20
78.5
 30
0.0
 11
86.0
 21
78.5
 31
0.0
  0
LINE
  5
1A8F
  8
0
 10
74.25
 20
79.5
 30
0.0
 11
86.0
 21
79.5
 31
0.0
  0
LINE
  5
1A90
  8
0
 10
74.25
 20
80.5
 30
0.0
 11
86.0
 21
80.5
 31
0.0
  0
LINE
  5
1A91
  8
0
 10
74.25
 20
81.5
 30
0.0
 11
86.0
 21
81.5
 31
0.0
  0
LINE
  5
1A92
  8
0
 10
74.25
 20
82.5
 30
0.0
 11
86.0
 21
82.5
 31
0.0
  0
LINE
  5
1A93
  8
0
 10
74.25
 20
83.5
 30
0.0
 11
86.0
 21
83.5
 31
0.0
  0
LINE
  5
1A94
  8
0
 10
74.25
 20
84.5
 30
0.0
 11
86.0
 21
84.5
 31
0.0
  0
LINE
  5
1A95
  8
0
 10
74.25
 20
85.5
 30
0.0
 11
86.0
 21
85.5
 31
0.0
  0
LINE
  5
1A96
  8
0
 10
74.0
 20
74.0
 30
0.0
 11
86.0
 21
74.0
 31
0.0
  0
ARC
  5
1A97
  8
0
 10
74.0
 20
75.0
 30
0.0
 40
1.0
 50
180.0
 51
270.0
  0
LINE
  5
1A98
  8
0
 10
93.0
 20
79.0
 30
0.0
 11
93.0
 21
92.0
 31
0.0
  0
LINE
  5
1A99
  8
0
 10
87.0
 20
75.0
 30
0.0
 11
87.0
 21
92.0
 31
0.0
  0
LINE
  5
1A9A
  8
2
 10
93.0
 20
86.5
 30
0.0
 11
92.5
 21
88.0
 31
0.0
  0
LINE
  5
1A9B
  8
0
 10
87.0
 20
78.0
 30
0.0
 11
92.0
 21
78.0
 31
0.0
  0
ARC
  5
1A9C
  8
0
 10
92.0
 20
79.0
 30
0.0
 40
1.0
 50
270.0
 51
0.0
  0
LINE
  5
1A9E
  8
0
 10
147.035835
 20
85.00289
 30
0.0
 11
147.31354
 21
84.392871
 31
0.0
  0
LINE
  5
1A9F
  8
0
 10
114.975657
 20
84.95475
 30
0.0
 11
114.384979
 21
85.104665
 31
0.0
  0
LINE
  5
1AA0
  8
1
 10
131.0
 20
115.75
 30
0.0
 11
131.0
 21
67.5
 31
0.0
  0
LINE
  5
1AA1
  8
0
 10
140.675747
 20
76.834761
 30
0.0
 11
140.12241
 21
77.070526
 31
0.0
  0
LINE
  5
1AA2
  8
0
 10
123.253241
 20
76.302776
 30
0.0
 11
122.704391
 21
76.037938
 31
0.0
  0
LINE
  5
1AA3
  8
0
 10
119.429823
 20
78.2112
 30
0.0
 11
119.454465
 21
78.842655
 31
0.0
  0
LINE
  5
1AA4
  8
0
 10
121.324598
 20
77.42282
 30
0.0
 11
120.675624
 21
77.255263
 31
0.0
  0
LINE
  5
1AA5
  8
0
 10
120.090931
 20
78.321558
 30
0.0
 11
119.429823
 21
78.2112
 31
0.0
  0
LINE
  5
1AA6
  8
0
 10
120.058637
 20
77.720955
 30
0.0
 11
120.090931
 21
78.321558
 31
0.0
  0
LINE
  5
1AA7
  8
0
 10
120.645137
 20
77.886463
 30
0.0
 11
120.058637
 21
77.720955
 31
0.0
  0
LINE
  5
1AA8
  8
0
 10
120.675624
 20
77.255263
 30
0.0
 11
120.645137
 21
77.886463
 31
0.0
  0
LINE
  5
1AA9
  8
0
 10
122.631901
 20
76.635024
 30
0.0
 11
122.0
 21
76.411543
 31
0.0
  0
LINE
  5
1AAA
  8
0
 10
122.704391
 20
76.037938
 30
0.0
 11
122.631901
 21
76.635024
 31
0.0
  0
LINE
  5
1AAB
  8
0
 10
121.344773
 20
76.821688
 30
0.0
 11
121.324598
 21
77.42282
 31
0.0
  0
LINE
  5
1AAC
  8
0
 10
121.914616
 20
77.037683
 30
0.0
 11
121.344773
 21
76.821688
 31
0.0
  0
LINE
  5
1AAD
  8
0
 10
122.0
 20
76.411543
 30
0.0
 11
121.914616
 21
77.037683
 31
0.0
  0
LINE
  5
1AAE
  8
0
 10
118.940289
 20
79.324396
 30
0.0
 11
118.272078
 21
79.272078
 31
0.0
  0
LINE
  5
1AAF
  8
0
 10
116.255263
 20
81.675624
 30
0.0
 11
116.442498
 21
82.279185
 31
0.0
  0
LINE
  5
1AB0
  8
0
 10
116.922407
 20
81.611114
 30
0.0
 11
116.255263
 21
81.675624
 31
0.0
  0
LINE
  5
1AB1
  8
0
 10
117.881428
 20
80.423704
 30
0.0
 11
117.2112
 21
80.429823
 31
0.0
  0
LINE
  5
1AB2
  8
0
 10
117.745331
 20
79.837833
 30
0.0
 11
117.881428
 21
80.423704
 31
0.0
  0
LINE
  5
1AB3
  8
0
 10
118.351661
 20
79.898982
 30
0.0
 11
117.745331
 21
79.837833
 31
0.0
  0
LINE
  5
1AB4
  8
0
 10
118.272078
 20
79.272078
 30
0.0
 11
118.351661
 21
79.898982
 31
0.0
  0
LINE
  5
1AB5
  8
0
 10
117.2112
 20
80.429823
 30
0.0
 11
117.345119
 21
81.047406
 31
0.0
  0
LINE
  5
1AB6
  8
0
 10
116.735766
 20
81.039334
 30
0.0
 11
116.922407
 21
81.611114
 31
0.0
  0
LINE
  5
1AB7
  8
0
 10
117.345119
 20
81.047406
 30
0.0
 11
116.735766
 21
81.039334
 31
0.0
  0
LINE
  5
1AB8
  8
0
 10
116.070526
 20
82.87759
 30
0.0
 11
115.411543
 21
83.0
 31
0.0
  0
LINE
  5
1AB9
  8
0
 10
115.834761
 20
82.324253
 30
0.0
 11
116.070526
 21
82.87759
 31
0.0
  0
LINE
  5
1ABA
  8
0
 10
116.442498
 20
82.279185
 30
0.0
 11
115.834761
 21
82.324253
 31
0.0
  0
LINE
  5
1ABB
  8
0
 10
115.049173
 20
83.68281
 30
0.0
 11
115.332266
 21
84.213493
 31
0.0
  0
LINE
  5
1ABC
  8
0
 10
115.650669
 20
83.584946
 30
0.0
 11
115.049173
 21
83.68281
 31
0.0
  0
LINE
  5
1ABD
  8
0
 10
115.411543
 20
83.0
 30
0.0
 11
115.650669
 21
83.584946
 31
0.0
  0
LINE
  5
1ABE
  8
0
 10
115.332266
 20
84.213493
 30
0.0
 11
114.68646
 21
84.392871
 31
0.0
  0
LINE
  5
1ABF
  8
0
 10
114.68646
 20
84.392871
 30
0.0
 11
114.975657
 21
84.95475
 31
0.0
  0
LINE
  5
1AC0
  8
0
 10
118.855772
 20
78.728893
 30
0.0
 11
118.940289
 21
79.324396
 31
0.0
  0
LINE
  5
1AC1
  8
0
 10
119.454465
 20
78.842655
 30
0.0
 11
118.855772
 21
78.728893
 31
0.0
  0
LINE
  5
1AC2
  8
0
 10
131.796823
 20
74.028644
 30
0.0
 11
131.435501
 21
74.509491
 31
0.0
  0
LINE
  5
1AC3
  8
0
 10
127.579946
 20
74.832637
 30
0.0
 11
127.118343
 21
74.43477
 31
0.0
  0
LINE
  5
1AC4
  8
0
 10
125.602203
 20
74.83992
 30
0.0
 11
125.427131
 21
75.415347
 31
0.0
  0
LINE
  5
1AC5
  8
0
 10
126.096726
 20
75.196042
 30
0.0
 11
125.602203
 21
74.83992
 31
0.0
  0
LINE
  5
1AC6
  8
0
 10
126.341257
 20
74.613335
 30
0.0
 11
126.096726
 21
75.196042
 31
0.0
  0
LINE
  5
1AC7
  8
0
 10
126.893785
 20
74.99275
 30
0.0
 11
126.341257
 21
74.613335
 31
0.0
  0
LINE
  5
1AC8
  8
0
 10
127.118343
 20
74.43477
 30
0.0
 11
126.893785
 21
74.99275
 31
0.0
  0
LINE
  5
1AC9
  8
0
 10
125.427131
 20
75.415347
 30
0.0
 11
124.843637
 21
75.085533
 31
0.0
  0
LINE
  5
1ACA
  8
0
 10
124.127144
 20
75.375668
 30
0.0
 11
124.00289
 21
75.964165
 31
0.0
  0
LINE
  5
1ACB
  8
0
 10
124.650823
 20
75.687334
 30
0.0
 11
124.127144
 21
75.375668
 31
0.0
  0
LINE
  5
1ACC
  8
0
 10
124.843637
 20
75.085533
 30
0.0
 11
124.650823
 21
75.687334
 31
0.0
  0
LINE
  5
1ACD
  8
0
 10
123.392871
 20
75.68646
 30
0.0
 11
123.253241
 21
76.302776
 31
0.0
  0
LINE
  5
1ACE
  8
0
 10
124.00289
 20
75.964165
 30
0.0
 11
123.392871
 21
75.68646
 31
0.0
  0
LINE
  5
1ACF
  8
0
 10
129.909446
 20
74.538091
 30
0.0
 11
129.431197
 21
74.068495
 31
0.0
  0
LINE
  5
1AD0
  8
0
 10
128.39169
 20
74.699587
 30
0.0
 11
127.874333
 21
74.27346
 31
0.0
  0
LINE
  5
1AD1
  8
0
 10
128.664025
 20
74.163303
 30
0.0
 11
128.39169
 21
74.699587
 31
0.0
  0
LINE
  5
1AD2
  8
0
 10
129.089194
 20
74.599887
 30
0.0
 11
128.664025
 21
74.163303
 31
0.0
  0
LINE
  5
1AD3
  8
0
 10
129.431197
 20
74.068495
 30
0.0
 11
129.089194
 21
74.599887
 31
0.0
  0
LINE
  5
1AD4
  8
0
 10
127.874333
 20
74.27346
 30
0.0
 11
127.579946
 21
74.832637
 31
0.0
  0
LINE
  5
1AD5
  8
0
 10
131.435501
 20
74.509491
 30
0.0
 11
131.0
 21
74.0
 31
0.0
  0
LINE
  5
1AD6
  8
0
 10
130.612985
 20
74.499562
 30
0.0
 11
130.227484
 21
74.027583
 31
0.0
  0
LINE
  5
1AD7
  8
0
 10
131.0
 20
74.0
 30
0.0
 11
130.612985
 21
74.499562
 31
0.0
  0
LINE
  5
1AD8
  8
0
 10
130.227484
 20
74.027583
 30
0.0
 11
129.909446
 21
74.538091
 31
0.0
  0
LINE
  5
1AD9
  8
0
 10
136.421001
 20
74.847236
 30
0.0
 11
135.947539
 21
75.218182
 31
0.0
  0
LINE
  5
1ADA
  8
0
 10
135.947539
 20
75.218182
 30
0.0
 11
135.658743
 21
74.613335
 31
0.0
  0
LINE
  5
1ADB
  8
0
 10
134.125667
 20
74.27346
 30
0.0
 11
133.657784
 21
74.698229
 31
0.0
  0
LINE
  5
1ADC
  8
0
 10
132.958243
 20
74.614004
 30
0.0
 11
132.568803
 21
74.068495
 31
0.0
  0
LINE
  5
1ADD
  8
0
 10
133.360098
 20
74.166479
 30
0.0
 11
132.958243
 21
74.614004
 31
0.0
  0
LINE
  5
1ADE
  8
0
 10
133.657784
 20
74.698229
 30
0.0
 11
133.360098
 21
74.166479
 31
0.0
  0
LINE
  5
1ADF
  8
0
 10
132.139722
 20
74.532426
 30
0.0
 11
131.796823
 21
74.028644
 31
0.0
  0
LINE
  5
1AE0
  8
0
 10
132.568803
 20
74.068495
 30
0.0
 11
132.139722
 21
74.532426
 31
0.0
  0
LINE
  5
1AE1
  8
0
 10
134.905411
 20
74.440037
 30
0.0
 11
134.46608
 21
74.850835
 31
0.0
  0
LINE
  5
1AE2
  8
0
 10
135.155619
 20
74.995708
 30
0.0
 11
134.905411
 21
74.440037
 31
0.0
  0
LINE
  5
1AE3
  8
0
 10
135.658743
 20
74.613335
 30
0.0
 11
135.155619
 21
74.995708
 31
0.0
  0
LINE
  5
1AE4
  8
0
 10
134.46608
 20
74.850835
 30
0.0
 11
134.125667
 21
74.27346
 31
0.0
  0
LINE
  5
1AE5
  8
0
 10
136.621827
 20
75.422601
 30
0.0
 11
136.421001
 21
74.847236
 31
0.0
  0
LINE
  5
1AE6
  8
0
 10
138.607129
 20
75.68646
 30
0.0
 11
138.04525
 21
75.975657
 31
0.0
  0
LINE
  5
1AE7
  8
0
 10
137.391344
 20
75.713248
 30
0.0
 11
137.156363
 21
75.085533
 31
0.0
  0
LINE
  5
1AE8
  8
0
 10
137.895335
 20
75.384979
 30
0.0
 11
137.391344
 21
75.713248
 31
0.0
  0
LINE
  5
1AE9
  8
0
 10
138.04525
 20
75.975657
 30
0.0
 11
137.895335
 21
75.384979
 31
0.0
  0
LINE
  5
1AEA
  8
0
 10
137.156363
 20
75.085533
 30
0.0
 11
136.621827
 21
75.422601
 31
0.0
  0
LINE
  5
1AEB
  8
0
 10
140.12241
 20
77.070526
 30
0.0
 11
140.0
 21
76.411543
 31
0.0
  0
LINE
  5
1AEC
  8
0
 10
139.31719
 20
76.049173
 30
0.0
 11
138.786507
 21
76.332266
 31
0.0
  0
LINE
  5
1AED
  8
0
 10
139.415054
 20
76.650669
 30
0.0
 11
139.31719
 21
76.049173
 31
0.0
  0
LINE
  5
1AEE
  8
0
 10
140.0
 20
76.411543
 30
0.0
 11
139.415054
 21
76.650669
 31
0.0
  0
LINE
  5
1AEF
  8
0
 10
138.786507
 20
76.332266
 30
0.0
 11
138.607129
 21
75.68646
 31
0.0
  0
LINE
  5
1AF0
  8
0
 10
142.576296
 20
78.881428
 30
0.0
 11
142.570177
 21
78.2112
 31
0.0
  0
LINE
  5
1AF1
  8
0
 10
142.570177
 20
78.2112
 30
0.0
 11
141.952594
 21
78.345119
 31
0.0
  0
LINE
  5
1AF2
  8
0
 10
141.388886
 20
77.922407
 30
0.0
 11
141.324376
 21
77.255263
 31
0.0
  0
LINE
  5
1AF3
  8
0
 10
141.960666
 20
77.735766
 30
0.0
 11
141.388886
 21
77.922407
 31
0.0
  0
LINE
  5
1AF4
  8
0
 10
141.952594
 20
78.345119
 30
0.0
 11
141.960666
 21
77.735766
 31
0.0
  0
LINE
  5
1AF5
  8
0
 10
140.720815
 20
77.442498
 30
0.0
 11
140.675747
 21
76.834761
 31
0.0
  0
LINE
  5
1AF6
  8
0
 10
141.324376
 20
77.255263
 30
0.0
 11
140.720815
 21
77.442498
 31
0.0
  0
LINE
  5
1AF7
  8
0
 10
144.7888
 20
80.429823
 30
0.0
 11
144.157345
 21
80.454465
 31
0.0
  0
LINE
  5
1AF8
  8
0
 10
143.675604
 20
79.940289
 30
0.0
 11
143.727922
 21
79.272078
 31
0.0
  0
LINE
  5
1AF9
  8
0
 10
144.271107
 20
79.855772
 30
0.0
 11
143.675604
 21
79.940289
 31
0.0
  0
LINE
  5
1AFA
  8
0
 10
144.157345
 20
80.454465
 30
0.0
 11
144.271107
 21
79.855772
 31
0.0
  0
LINE
  5
1AFB
  8
0
 10
143.101018
 20
79.351661
 30
0.0
 11
143.162167
 21
78.745331
 31
0.0
  0
LINE
  5
1AFC
  8
0
 10
143.727922
 20
79.272078
 30
0.0
 11
143.101018
 21
79.351661
 31
0.0
  0
LINE
  5
1AFD
  8
0
 10
143.162167
 20
78.745331
 30
0.0
 11
142.576296
 21
78.881428
 31
0.0
  0
LINE
  5
1AFE
  8
0
 10
145.57718
 20
82.324598
 30
0.0
 11
145.744737
 21
81.675624
 31
0.0
  0
LINE
  5
1AFF
  8
0
 10
144.678442
 20
81.090931
 30
0.0
 11
144.7888
 21
80.429823
 31
0.0
  0
LINE
  5
1B00
  8
0
 10
145.279045
 20
81.058637
 30
0.0
 11
144.678442
 21
81.090931
 31
0.0
  0
LINE
  5
1B01
  8
0
 10
145.113537
 20
81.645137
 30
0.0
 11
145.279045
 21
81.058637
 31
0.0
  0
LINE
  5
1B02
  8
0
 10
145.744737
 20
81.675624
 30
0.0
 11
145.113537
 21
81.645137
 31
0.0
  0
LINE
  5
1B03
  8
0
 10
146.962062
 20
83.704391
 30
0.0
 11
146.364976
 21
83.631901
 31
0.0
  0
LINE
  5
1B04
  8
0
 10
146.364976
 20
83.631901
 30
0.0
 11
146.588457
 21
83.0
 31
0.0
  0
LINE
  5
1B05
  8
0
 10
146.178312
 20
82.344773
 30
0.0
 11
145.57718
 21
82.324598
 31
0.0
  0
LINE
  5
1B06
  8
0
 10
145.962317
 20
82.914616
 30
0.0
 11
146.178312
 21
82.344773
 31
0.0
  0
LINE
  5
1B07
  8
0
 10
146.588457
 20
83.0
 30
0.0
 11
145.962317
 21
82.914616
 31
0.0
  0
LINE
  5
1B08
  8
0
 10
146.697224
 20
84.253241
 30
0.0
 11
146.962062
 21
83.704391
 31
0.0
  0
LINE
  5
1B09
  8
0
 10
147.31354
 20
84.392871
 30
0.0
 11
146.697224
 21
84.253241
 31
0.0
  0
LINE
  5
1B0A
  8
0
 10
140.085384
 20
106.962317
 30
0.0
 11
140.655227
 21
107.178312
 31
0.0
  0
LINE
  5
1B0B
  8
1
 10
108.5
 20
92.0
 30
0.0
 11
155.75
 21
92.0
 31
0.0
  0
LINE
  5
1B0C
  8
0
 10
122.68281
 20
107.950827
 30
0.0
 11
123.213493
 21
107.667734
 31
0.0
  0
LINE
  5
1B0D
  8
0
 10
114.085533
 20
98.156363
 30
0.0
 11
114.687334
 21
98.349177
 31
0.0
  0
LINE
  5
1B0E
  8
0
 10
114.713248
 20
85.608656
 30
0.0
 11
114.085533
 21
85.843637
 31
0.0
  0
LINE
  5
1B0F
  8
0
 10
114.384979
 20
85.104665
 30
0.0
 11
114.713248
 21
85.608656
 31
0.0
  0
LINE
  5
1B10
  8
0
 10
113.509491
 20
91.564499
 30
0.0
 11
113.0
 21
92.0
 31
0.0
  0
LINE
  5
1B11
  8
0
 10
113.440037
 20
88.094589
 30
0.0
 11
113.850835
 21
88.53392
 31
0.0
  0
LINE
  5
1B12
  8
0
 10
114.218182
 20
87.052461
 30
0.0
 11
113.613335
 21
87.341257
 31
0.0
  0
LINE
  5
1B13
  8
0
 10
113.847236
 20
86.578999
 30
0.0
 11
114.218182
 21
87.052461
 31
0.0
  0
LINE
  5
1B14
  8
0
 10
114.422601
 20
86.378173
 30
0.0
 11
113.847236
 21
86.578999
 31
0.0
  0
LINE
  5
1B15
  8
0
 10
114.085533
 20
85.843637
 30
0.0
 11
114.422601
 21
86.378173
 31
0.0
  0
LINE
  5
1B16
  8
0
 10
113.995708
 20
87.844381
 30
0.0
 11
113.440037
 21
88.094589
 31
0.0
  0
LINE
  5
1B17
  8
0
 10
113.613335
 20
87.341257
 30
0.0
 11
113.995708
 21
87.844381
 31
0.0
  0
LINE
  5
1B18
  8
0
 10
113.850835
 20
88.53392
 30
0.0
 11
113.27346
 21
88.874333
 31
0.0
  0
LINE
  5
1B19
  8
0
 10
113.614004
 20
90.041757
 30
0.0
 11
113.068495
 21
90.431197
 31
0.0
  0
LINE
  5
1B1A
  8
0
 10
113.166479
 20
89.639902
 30
0.0
 11
113.614004
 21
90.041757
 31
0.0
  0
LINE
  5
1B1B
  8
0
 10
113.698229
 20
89.342216
 30
0.0
 11
113.166479
 21
89.639902
 31
0.0
  0
LINE
  5
1B1C
  8
0
 10
113.27346
 20
88.874333
 30
0.0
 11
113.698229
 21
89.342216
 31
0.0
  0
LINE
  5
1B1D
  8
0
 10
113.028644
 20
91.203177
 30
0.0
 11
113.509491
 21
91.564499
 31
0.0
  0
LINE
  5
1B1E
  8
0
 10
113.532426
 20
90.860278
 30
0.0
 11
113.028644
 21
91.203177
 31
0.0
  0
LINE
  5
1B1F
  8
0
 10
113.068495
 20
90.431197
 30
0.0
 11
113.532426
 21
90.860278
 31
0.0
  0
LINE
  5
1B20
  8
0
 10
113.699587
 20
94.60831
 30
0.0
 11
113.27346
 21
95.125667
 31
0.0
  0
LINE
  5
1B21
  8
0
 10
113.538091
 20
93.090554
 30
0.0
 11
113.068495
 21
93.568803
 31
0.0
  0
LINE
  5
1B22
  8
0
 10
113.027583
 20
92.772516
 30
0.0
 11
113.538091
 21
93.090554
 31
0.0
  0
LINE
  5
1B23
  8
0
 10
113.499562
 20
92.387015
 30
0.0
 11
113.027583
 21
92.772516
 31
0.0
  0
LINE
  5
1B24
  8
0
 10
113.0
 20
92.0
 30
0.0
 11
113.499562
 21
92.387015
 31
0.0
  0
LINE
  5
1B25
  8
0
 10
113.163303
 20
94.335975
 30
0.0
 11
113.699587
 21
94.60831
 31
0.0
  0
LINE
  5
1B26
  8
0
 10
113.599887
 20
93.910806
 30
0.0
 11
113.163303
 21
94.335975
 31
0.0
  0
LINE
  5
1B27
  8
0
 10
113.068495
 20
93.568803
 30
0.0
 11
113.599887
 21
93.910806
 31
0.0
  0
LINE
  5
1B28
  8
0
 10
113.99275
 20
96.106215
 30
0.0
 11
113.613335
 21
96.658743
 31
0.0
  0
LINE
  5
1B29
  8
0
 10
113.43477
 20
95.881657
 30
0.0
 11
113.99275
 21
96.106215
 31
0.0
  0
LINE
  5
1B2A
  8
0
 10
113.832637
 20
95.420054
 30
0.0
 11
113.43477
 21
95.881657
 31
0.0
  0
LINE
  5
1B2B
  8
0
 10
113.27346
 20
95.125667
 30
0.0
 11
113.832637
 21
95.420054
 31
0.0
  0
LINE
  5
1B2C
  8
0
 10
114.415347
 20
97.572869
 30
0.0
 11
114.085533
 21
98.156363
 31
0.0
  0
LINE
  5
1B2D
  8
0
 10
113.83992
 20
97.397797
 30
0.0
 11
114.415347
 21
97.572869
 31
0.0
  0
LINE
  5
1B2E
  8
0
 10
114.196042
 20
96.903274
 30
0.0
 11
113.83992
 21
97.397797
 31
0.0
  0
LINE
  5
1B2F
  8
0
 10
113.613335
 20
96.658743
 30
0.0
 11
114.196042
 21
96.903274
 31
0.0
  0
LINE
  5
1B30
  8
0
 10
114.687334
 20
98.349177
 30
0.0
 11
114.375668
 21
98.872856
 31
0.0
  0
LINE
  5
1B31
  8
0
 10
114.375668
 20
98.872856
 30
0.0
 11
114.964165
 21
98.99711
 31
0.0
  0
LINE
  5
1B32
  8
0
 10
118.898982
 20
104.648339
 30
0.0
 11
118.837833
 21
105.254669
 31
0.0
  0
LINE
  5
1B33
  8
0
 10
118.272078
 20
104.727922
 30
0.0
 11
118.898982
 21
104.648339
 31
0.0
  0
LINE
  5
1B34
  8
0
 10
116.037683
 20
101.085384
 30
0.0
 11
115.821688
 21
101.655227
 31
0.0
  0
LINE
  5
1B35
  8
0
 10
115.635024
 20
100.368099
 30
0.0
 11
115.411543
 21
101.0
 31
0.0
  0
LINE
  5
1B36
  8
0
 10
115.037938
 20
100.295609
 30
0.0
 11
115.635024
 21
100.368099
 31
0.0
  0
LINE
  5
1B37
  8
0
 10
115.302776
 20
99.746759
 30
0.0
 11
115.037938
 21
100.295609
 31
0.0
  0
LINE
  5
1B38
  8
0
 10
115.411543
 20
101.0
 30
0.0
 11
116.037683
 21
101.085384
 31
0.0
  0
LINE
  5
1B39
  8
0
 10
114.964165
 20
98.99711
 30
0.0
 11
114.68646
 21
99.607129
 31
0.0
  0
LINE
  5
1B3A
  8
0
 10
114.68646
 20
99.607129
 30
0.0
 11
115.302776
 21
99.746759
 31
0.0
  0
LINE
  5
1B3B
  8
0
 10
116.255263
 20
102.324376
 30
0.0
 11
116.886463
 21
102.354863
 31
0.0
  0
LINE
  5
1B3C
  8
0
 10
116.42282
 20
101.675402
 30
0.0
 11
116.255263
 21
102.324376
 31
0.0
  0
LINE
  5
1B3D
  8
0
 10
115.821688
 20
101.655227
 30
0.0
 11
116.42282
 21
101.675402
 31
0.0
  0
LINE
  5
1B3E
  8
0
 10
117.321558
 20
102.909069
 30
0.0
 11
117.2112
 21
103.570177
 31
0.0
  0
LINE
  5
1B3F
  8
0
 10
118.324396
 20
104.059711
 30
0.0
 11
118.272078
 21
104.727922
 31
0.0
  0
LINE
  5
1B40
  8
0
 10
117.728893
 20
104.144228
 30
0.0
 11
118.324396
 21
104.059711
 31
0.0
  0
LINE
  5
1B41
  8
0
 10
117.842655
 20
103.545535
 30
0.0
 11
117.728893
 21
104.144228
 31
0.0
  0
LINE
  5
1B42
  8
0
 10
117.2112
 20
103.570177
 30
0.0
 11
117.842655
 21
103.545535
 31
0.0
  0
LINE
  5
1B43
  8
0
 10
116.886463
 20
102.354863
 30
0.0
 11
116.720955
 21
102.941363
 31
0.0
  0
LINE
  5
1B44
  8
0
 10
116.720955
 20
102.941363
 30
0.0
 11
117.321558
 21
102.909069
 31
0.0
  0
LINE
  5
1B45
  8
0
 10
120.675624
 20
106.744737
 30
0.0
 11
121.279185
 21
106.557502
 31
0.0
  0
LINE
  5
1B46
  8
0
 10
119.423704
 20
105.118572
 30
0.0
 11
119.429823
 21
105.7888
 31
0.0
  0
LINE
  5
1B47
  8
0
 10
120.611114
 20
106.077593
 30
0.0
 11
120.675624
 21
106.744737
 31
0.0
  0
LINE
  5
1B48
  8
0
 10
120.039334
 20
106.264234
 30
0.0
 11
120.611114
 21
106.077593
 31
0.0
  0
LINE
  5
1B49
  8
0
 10
120.047406
 20
105.654881
 30
0.0
 11
120.039334
 21
106.264234
 31
0.0
  0
LINE
  5
1B4A
  8
0
 10
119.429823
 20
105.7888
 30
0.0
 11
120.047406
 21
105.654881
 31
0.0
  0
LINE
  5
1B4B
  8
0
 10
118.837833
 20
105.254669
 30
0.0
 11
119.423704
 21
105.118572
 31
0.0
  0
LINE
  5
1B4C
  8
0
 10
121.87759
 20
106.929474
 30
0.0
 11
122.0
 21
107.588457
 31
0.0
  0
LINE
  5
1B4D
  8
0
 10
121.324253
 20
107.165239
 30
0.0
 11
121.87759
 21
106.929474
 31
0.0
  0
LINE
  5
1B4E
  8
0
 10
121.279185
 20
106.557502
 30
0.0
 11
121.324253
 21
107.165239
 31
0.0
  0
LINE
  5
1B4F
  8
0
 10
122.584946
 20
107.349331
 30
0.0
 11
122.68281
 21
107.950827
 31
0.0
  0
LINE
  5
1B50
  8
0
 10
122.0
 20
107.588457
 30
0.0
 11
122.584946
 21
107.349331
 31
0.0
  0
CIRCLE
  5
1B51
  8
0
 10
131.0
 20
92.0
 30
0.0
 40
5.0
  0
CIRCLE
  5
1B52
  8
0
 10
131.0
 20
92.0
 30
0.0
 40
4.0
  0
LINE
  5
1B53
  8
0
 10
131.387015
 20
109.500438
 30
0.0
 11
131.772516
 21
109.972417
 31
0.0
  0
LINE
  5
1B54
  8
0
 10
127.094589
 20
109.559963
 30
0.0
 11
127.53392
 21
109.149165
 31
0.0
  0
LINE
  5
1B55
  8
0
 10
123.95475
 20
108.024343
 30
0.0
 11
124.104665
 21
108.615021
 31
0.0
  0
LINE
  5
1B56
  8
0
 10
123.213493
 20
107.667734
 30
0.0
 11
123.392871
 21
108.31354
 31
0.0
  0
LINE
  5
1B57
  8
0
 10
123.392871
 20
108.31354
 30
0.0
 11
123.95475
 21
108.024343
 31
0.0
  0
LINE
  5
1B58
  8
0
 10
124.843637
 20
108.914467
 30
0.0
 11
125.378173
 21
108.577399
 31
0.0
  0
LINE
  5
1B59
  8
0
 10
124.608656
 20
108.286752
 30
0.0
 11
124.843637
 21
108.914467
 31
0.0
  0
LINE
  5
1B5A
  8
0
 10
124.104665
 20
108.615021
 30
0.0
 11
124.608656
 21
108.286752
 31
0.0
  0
LINE
  5
1B5B
  8
0
 10
126.052461
 20
108.781818
 30
0.0
 11
126.341257
 21
109.386665
 31
0.0
  0
LINE
  5
1B5C
  8
0
 10
126.844381
 20
109.004292
 30
0.0
 11
127.094589
 21
109.559963
 31
0.0
  0
LINE
  5
1B5D
  8
0
 10
126.341257
 20
109.386665
 30
0.0
 11
126.844381
 21
109.004292
 31
0.0
  0
LINE
  5
1B5E
  8
0
 10
125.378173
 20
108.577399
 30
0.0
 11
125.578999
 21
109.152764
 31
0.0
  0
LINE
  5
1B5F
  8
0
 10
125.578999
 20
109.152764
 30
0.0
 11
126.052461
 21
108.781818
 31
0.0
  0
LINE
  5
1B60
  8
0
 10
129.431197
 20
109.931505
 30
0.0
 11
129.860278
 21
109.467574
 31
0.0
  0
LINE
  5
1B61
  8
0
 10
129.041757
 20
109.385996
 30
0.0
 11
129.431197
 21
109.931505
 31
0.0
  0
LINE
  5
1B62
  8
0
 10
128.639902
 20
109.833521
 30
0.0
 11
129.041757
 21
109.385996
 31
0.0
  0
LINE
  5
1B63
  8
0
 10
128.342216
 20
109.301771
 30
0.0
 11
128.639902
 21
109.833521
 31
0.0
  0
LINE
  5
1B64
  8
0
 10
127.874333
 20
109.72654
 30
0.0
 11
128.342216
 21
109.301771
 31
0.0
  0
LINE
  5
1B65
  8
0
 10
127.53392
 20
109.149165
 30
0.0
 11
127.874333
 21
109.72654
 31
0.0
  0
LINE
  5
1B66
  8
0
 10
130.564499
 20
109.490509
 30
0.0
 11
131.0
 21
110.0
 31
0.0
  0
LINE
  5
1B67
  8
0
 10
130.203177
 20
109.971356
 30
0.0
 11
130.564499
 21
109.490509
 31
0.0
  0
LINE
  5
1B68
  8
0
 10
131.0
 20
110.0
 30
0.0
 11
131.387015
 21
109.500438
 31
0.0
  0
LINE
  5
1B69
  8
0
 10
129.860278
 20
109.467574
 30
0.0
 11
130.203177
 21
109.971356
 31
0.0
  0
LINE
  5
1B6A
  8
0
 10
135.903274
 20
108.803958
 30
0.0
 11
136.397797
 21
109.16008
 31
0.0
  0
LINE
  5
1B6B
  8
0
 10
133.60831
 20
109.300413
 30
0.0
 11
134.125667
 21
109.72654
 31
0.0
  0
LINE
  5
1B6C
  8
0
 10
133.335975
 20
109.836697
 30
0.0
 11
133.60831
 21
109.300413
 31
0.0
  0
LINE
  5
1B6D
  8
0
 10
132.910806
 20
109.400113
 30
0.0
 11
133.335975
 21
109.836697
 31
0.0
  0
LINE
  5
1B6E
  8
0
 10
132.568803
 20
109.931505
 30
0.0
 11
132.910806
 21
109.400113
 31
0.0
  0
LINE
  5
1B6F
  8
0
 10
131.772516
 20
109.972417
 30
0.0
 11
132.090554
 21
109.461909
 31
0.0
  0
LINE
  5
1B70
  8
0
 10
132.090554
 20
109.461909
 30
0.0
 11
132.568803
 21
109.931505
 31
0.0
  0
LINE
  5
1B71
  8
0
 10
135.106215
 20
109.00725
 30
0.0
 11
135.658743
 21
109.386665
 31
0.0
  0
LINE
  5
1B72
  8
0
 10
134.881657
 20
109.56523
 30
0.0
 11
135.106215
 21
109.00725
 31
0.0
  0
LINE
  5
1B73
  8
0
 10
134.420054
 20
109.167363
 30
0.0
 11
134.881657
 21
109.56523
 31
0.0
  0
LINE
  5
1B74
  8
0
 10
135.658743
 20
109.386665
 30
0.0
 11
135.903274
 21
108.803958
 31
0.0
  0
LINE
  5
1B75
  8
0
 10
134.125667
 20
109.72654
 30
0.0
 11
134.420054
 21
109.167363
 31
0.0
  0
LINE
  5
1B76
  8
0
 10
137.99711
 20
108.035835
 30
0.0
 11
138.607129
 21
108.31354
 31
0.0
  0
LINE
  5
1B77
  8
0
 10
137.872856
 20
108.624332
 30
0.0
 11
137.99711
 21
108.035835
 31
0.0
  0
LINE
  5
1B78
  8
0
 10
138.607129
 20
108.31354
 30
0.0
 11
138.746759
 21
107.697224
 31
0.0
  0
LINE
  5
1B79
  8
0
 10
139.368099
 20
107.364976
 30
0.0
 11
140.0
 21
107.588457
 31
0.0
  0
LINE
  5
1B7A
  8
0
 10
139.295609
 20
107.962062
 30
0.0
 11
139.368099
 21
107.364976
 31
0.0
  0
LINE
  5
1B7B
  8
0
 10
138.746759
 20
107.697224
 30
0.0
 11
139.295609
 21
107.962062
 31
0.0
  0
LINE
  5
1B7C
  8
0
 10
140.0
 20
107.588457
 30
0.0
 11
140.085384
 21
106.962317
 31
0.0
  0
LINE
  5
1B7D
  8
0
 10
136.572869
 20
108.584653
 30
0.0
 11
137.156363
 21
108.914467
 31
0.0
  0
LINE
  5
1B7E
  8
0
 10
137.349177
 20
108.312666
 30
0.0
 11
137.872856
 21
108.624332
 31
0.0
  0
LINE
  5
1B7F
  8
0
 10
137.156363
 20
108.914467
 30
0.0
 11
137.349177
 21
108.312666
 31
0.0
  0
LINE
  5
1B80
  8
0
 10
136.397797
 20
109.16008
 30
0.0
 11
136.572869
 21
108.584653
 31
0.0
  0
LINE
  5
1B81
  8
0
 10
147.286752
 20
98.391344
 30
0.0
 11
147.914467
 21
98.156363
 31
0.0
  0
LINE
  5
1B82
  8
0
 10
148.385996
 20
93.958243
 30
0.0
 11
148.931505
 21
93.568803
 31
0.0
  0
LINE
  5
1B83
  8
0
 10
148.490509
 20
92.435501
 30
0.0
 11
149.0
 21
92.0
 31
0.0
  0
LINE
  5
1B84
  8
0
 10
148.971356
 20
92.796823
 30
0.0
 11
148.490509
 21
92.435501
 31
0.0
  0
LINE
  5
1B85
  8
0
 10
148.467574
 20
93.139722
 30
0.0
 11
148.971356
 21
92.796823
 31
0.0
  0
LINE
  5
1B86
  8
0
 10
148.931505
 20
93.568803
 30
0.0
 11
148.467574
 21
93.139722
 31
0.0
  0
LINE
  5
1B87
  8
0
 10
148.461909
 20
90.909446
 30
0.0
 11
148.931505
 21
90.431197
 31
0.0
  0
LINE
  5
1B88
  8
0
 10
148.972417
 20
91.227484
 30
0.0
 11
148.461909
 21
90.909446
 31
0.0
  0
LINE
  5
1B89
  8
0
 10
148.500438
 20
91.612985
 30
0.0
 11
148.972417
 21
91.227484
 31
0.0
  0
LINE
  5
1B8A
  8
0
 10
148.931505
 20
90.431197
 30
0.0
 11
148.400113
 21
90.089194
 31
0.0
  0
LINE
  5
1B8B
  8
0
 10
149.0
 20
92.0
 30
0.0
 11
148.500438
 21
91.612985
 31
0.0
  0
LINE
  5
1B8C
  8
0
 10
148.167363
 20
88.579946
 30
0.0
 11
148.56523
 21
88.118343
 31
0.0
  0
LINE
  5
1B8D
  8
0
 10
148.00725
 20
87.893785
 30
0.0
 11
148.386665
 21
87.341257
 31
0.0
  0
LINE
  5
1B8E
  8
0
 10
148.56523
 20
88.118343
 30
0.0
 11
148.00725
 21
87.893785
 31
0.0
  0
LINE
  5
1B8F
  8
0
 10
147.584653
 20
86.427131
 30
0.0
 11
147.914467
 21
85.843637
 31
0.0
  0
LINE
  5
1B90
  8
0
 10
148.16008
 20
86.602203
 30
0.0
 11
147.584653
 21
86.427131
 31
0.0
  0
LINE
  5
1B91
  8
0
 10
147.803958
 20
87.096726
 30
0.0
 11
148.16008
 21
86.602203
 31
0.0
  0
LINE
  5
1B92
  8
0
 10
148.386665
 20
87.341257
 30
0.0
 11
147.803958
 21
87.096726
 31
0.0
  0
LINE
  5
1B93
  8
0
 10
147.624332
 20
85.127144
 30
0.0
 11
147.035835
 21
85.00289
 31
0.0
  0
LINE
  5
1B94
  8
0
 10
147.312666
 20
85.650823
 30
0.0
 11
147.624332
 21
85.127144
 31
0.0
  0
LINE
  5
1B95
  8
0
 10
147.914467
 20
85.843637
 30
0.0
 11
147.312666
 21
85.650823
 31
0.0
  0
LINE
  5
1B96
  8
0
 10
148.300413
 20
89.39169
 30
0.0
 11
148.72654
 21
88.874333
 31
0.0
  0
LINE
  5
1B97
  8
0
 10
148.836697
 20
89.664025
 30
0.0
 11
148.300413
 21
89.39169
 31
0.0
  0
LINE
  5
1B98
  8
0
 10
148.400113
 20
90.089194
 30
0.0
 11
148.836697
 21
89.664025
 31
0.0
  0
LINE
  5
1B99
  8
0
 10
148.72654
 20
88.874333
 30
0.0
 11
148.167363
 21
88.579946
 31
0.0
  0
LINE
  5
1B9A
  8
0
 10
148.72654
 20
95.125667
 30
0.0
 11
148.301771
 21
94.657784
 31
0.0
  0
LINE
  5
1B9B
  8
0
 10
148.833521
 20
94.360098
 30
0.0
 11
148.385996
 21
93.958243
 31
0.0
  0
LINE
  5
1B9C
  8
0
 10
148.301771
 20
94.657784
 30
0.0
 11
148.833521
 21
94.360098
 31
0.0
  0
LINE
  5
1B9D
  8
0
 10
147.781818
 20
96.947539
 30
0.0
 11
148.386665
 21
96.658743
 31
0.0
  0
LINE
  5
1B9E
  8
0
 10
148.152764
 20
97.421001
 30
0.0
 11
147.781818
 21
96.947539
 31
0.0
  0
LINE
  5
1B9F
  8
0
 10
147.577399
 20
97.621827
 30
0.0
 11
148.152764
 21
97.421001
 31
0.0
  0
LINE
  5
1BA0
  8
0
 10
147.914467
 20
98.156363
 30
0.0
 11
147.577399
 21
97.621827
 31
0.0
  0
LINE
  5
1BA1
  8
0
 10
148.149165
 20
95.46608
 30
0.0
 11
148.72654
 21
95.125667
 31
0.0
  0
LINE
  5
1BA2
  8
0
 10
148.559963
 20
95.905411
 30
0.0
 11
148.149165
 21
95.46608
 31
0.0
  0
LINE
  5
1BA3
  8
0
 10
148.004292
 20
96.155619
 30
0.0
 11
148.559963
 21
95.905411
 31
0.0
  0
LINE
  5
1BA4
  8
0
 10
148.386665
 20
96.658743
 30
0.0
 11
148.004292
 21
96.155619
 31
0.0
  0
LINE
  5
1BA5
  8
0
 10
143.144228
 20
105.271107
 30
0.0
 11
143.059711
 21
104.675604
 31
0.0
  0
LINE
  5
1BA6
  8
0
 10
144.118572
 20
103.576296
 30
0.0
 11
144.7888
 21
103.570177
 31
0.0
  0
LINE
  5
1BA7
  8
0
 10
144.254669
 20
104.162167
 30
0.0
 11
144.118572
 21
103.576296
 31
0.0
  0
LINE
  5
1BA8
  8
0
 10
143.648339
 20
104.101018
 30
0.0
 11
144.254669
 21
104.162167
 31
0.0
  0
LINE
  5
1BA9
  8
0
 10
143.727922
 20
104.727922
 30
0.0
 11
143.648339
 21
104.101018
 31
0.0
  0
LINE
  5
1BAA
  8
0
 10
143.059711
 20
104.675604
 30
0.0
 11
143.727922
 21
104.727922
 31
0.0
  0
LINE
  5
1BAB
  8
0
 10
146.165239
 20
101.675747
 30
0.0
 11
145.929474
 21
101.12241
 31
0.0
  0
LINE
  5
1BAC
  8
0
 10
146.667734
 20
99.786507
 30
0.0
 11
147.31354
 21
99.607129
 31
0.0
  0
LINE
  5
1BAD
  8
0
 10
146.950827
 20
100.31719
 30
0.0
 11
146.667734
 21
99.786507
 31
0.0
  0
LINE
  5
1BAE
  8
0
 10
146.349331
 20
100.415054
 30
0.0
 11
146.950827
 21
100.31719
 31
0.0
  0
LINE
  5
1BAF
  8
0
 10
145.929474
 20
101.12241
 30
0.0
 11
146.588457
 21
101.0
 31
0.0
  0
LINE
  5
1BB0
  8
0
 10
146.588457
 20
101.0
 30
0.0
 11
146.349331
 21
100.415054
 31
0.0
  0
LINE
  5
1BB1
  8
0
 10
147.31354
 20
99.607129
 30
0.0
 11
147.024343
 21
99.04525
 31
0.0
  0
LINE
  5
1BB2
  8
0
 10
147.615021
 20
98.895335
 30
0.0
 11
147.286752
 21
98.391344
 31
0.0
  0
LINE
  5
1BB3
  8
0
 10
147.024343
 20
99.04525
 30
0.0
 11
147.615021
 21
98.895335
 31
0.0
  0
LINE
  5
1BB4
  8
0
 10
145.557502
 20
101.720815
 30
0.0
 11
146.165239
 21
101.675747
 31
0.0
  0
LINE
  5
1BB5
  8
0
 10
145.744737
 20
102.324376
 30
0.0
 11
145.557502
 21
101.720815
 31
0.0
  0
LINE
  5
1BB6
  8
0
 10
144.7888
 20
103.570177
 30
0.0
 11
144.654881
 21
102.952594
 31
0.0
  0
LINE
  5
1BB7
  8
0
 10
145.077593
 20
102.388886
 30
0.0
 11
145.744737
 21
102.324376
 31
0.0
  0
LINE
  5
1BB8
  8
0
 10
145.264234
 20
102.960666
 30
0.0
 11
145.077593
 21
102.388886
 31
0.0
  0
LINE
  5
1BB9
  8
0
 10
144.654881
 20
102.952594
 30
0.0
 11
145.264234
 21
102.960666
 31
0.0
  0
LINE
  5
1BBA
  8
0
 10
141.909069
 20
105.678442
 30
0.0
 11
142.570177
 21
105.7888
 31
0.0
  0
LINE
  5
1BBB
  8
0
 10
141.941363
 20
106.279045
 30
0.0
 11
141.909069
 21
105.678442
 31
0.0
  0
LINE
  5
1BBC
  8
0
 10
141.354863
 20
106.113537
 30
0.0
 11
141.941363
 21
106.279045
 31
0.0
  0
LINE
  5
1BBD
  8
0
 10
141.324376
 20
106.744737
 30
0.0
 11
141.354863
 21
106.113537
 31
0.0
  0
LINE
  5
1BBE
  8
0
 10
140.655227
 20
107.178312
 30
0.0
 11
140.675402
 21
106.57718
 31
0.0
  0
LINE
  5
1BBF
  8
0
 10
140.675402
 20
106.57718
 30
0.0
 11
141.324376
 21
106.744737
 31
0.0
  0
LINE
  5
1BC0
  8
0
 10
142.570177
 20
105.7888
 30
0.0
 11
142.545535
 21
105.157345
 31
0.0
  0
LINE
  5
1BC1
  8
0
 10
142.545535
 20
105.157345
 30
0.0
 11
143.144228
 21
105.271107
 31
0.0
  0
CIRCLE
  5
1C40
  8
0
 10
131.0
 20
92.0
 30
0.0
 40
14.0
  0
TEXT
  5
1C44
  8
0
 10
140.75
 20
30.5
 30
0.0
 40
7.0
  1
ＫＮＴＢ－１０
 41
0.8
  0
LINE
  5
1C46
  8
2
 10
33.5
 20
88.291901
 30
0.0
 11
33.5
 21
74.25
 31
0.0
  0
LINE
  5
1C47
  8
2
 10
30.5
 20
88.291901
 30
0.0
 11
30.5
 21
74.5
 31
0.0
  0
LINE
  5
1C48
  8
2
 10
129.5
 20
88.291901
 30
0.0
 11
129.5
 21
74.5
 31
0.0
  0
LINE
  5
1C49
  8
2
 10
132.5
 20
88.291901
 30
0.0
 11
132.5
 21
74.25
 31
0.0
  0
LINE
  5
1C4A
  8
1
 10
89.0
 20
87.0
 30
0.0
 11
89.0
 21
72.75
 31
0.0
  0
LINE
  5
1C4B
  8
2
 10
90.5
 20
87.0
 30
0.0
 11
90.5
 21
78.0
 31
0.0
  0
LINE
  5
1C4C
  8
2
 10
87.5
 20
87.0
 30
0.0
 11
87.5
 21
78.0
 31
0.0
  0
TEXT
  5
1C55
  8
0
 10
140.75
 20
2.0
 30
0.0
 40
7.0
  1
ＫＮＴＢ００１０
 41
0.8
  0
VIEWPORT
  5
22
 67
     1
  8
0
 10
261.517699
 20
148.5
 30
0.0
 40
523.035398
 41
297.0
 68
    -1
 69
     1
1001
ACAD
1000
MVIEW
1002
{
1070
    16
1010
0.0
1020
0.0
1030
0.0
1010
0.0
1020
0.0
1030
1.0
1040
0.0
1040
297.0
1040
261.517699
1040
148.5
1040
50.0
1040
0.0
1040
0.0
1070
     0
1070
   100
1070
     1
1070
     1
1070
     0
1070
     0
1070
     0
1070
     0
1040
0.0
1040
0.0
1040
0.0
1040
1.0
1040
1.0
1040
10.0
1040
10.0
1070
     0
1002
{
1002
}
1002
}
  0
ENDSEC
  0
EOF
