  0
SECTION
  2
HEADER
  9
$ACADVER
  1
AC1014
  9
$ACADMAINTVER
 70
     0
  9
$DWGCODEPAGE
  3
ANSI_932
  9
$INSBASE
 10
0.0
 20
0.0
 30
0.0
  9
$EXTMIN
 10
19.25
 20
2.966667
 30
0.0
  9
$EXTMAX
 10
192.02
 20
109.5
 30
0.0
  9
$LIMMIN
 10
0.0
 20
0.0
  9
$LIMMAX
 10
220.0
 20
170.0
  9
$ORTHOMODE
 70
     1
  9
$REGENMODE
 70
     1
  9
$FILLMODE
 70
     1
  9
$QTEXTMODE
 70
     0
  9
$MIRRTEXT
 70
     1
  9
$DRAGMODE
 70
     2
  9
$LTSCALE
 40
1.0
  9
$OSMODE
 70
     0
  9
$ATTMODE
 70
     1
  9
$TEXTSIZE
 40
7.0
  9
$TRACEWID
 40
1.0
  9
$TEXTSTYLE
  7
STANDARD
  9
$CLAYER
  8
0
  9
$CELTYPE
  6
BYLAYER
  9
$CECOLOR
 62
   256
  9
$CELTSCALE
 40
1.0
  9
$DELOBJ
 70
     1
  9
$DISPSILH
 70
     0
  9
$DIMSCALE
 40
1.0
  9
$DIMASZ
 40
2.5
  9
$DIMEXO
 40
0.625
  9
$DIMDLI
 40
3.75
  9
$DIMRND
 40
0.0
  9
$DIMDLE
 40
0.0
  9
$DIMEXE
 40
1.25
  9
$DIMTP
 40
0.0
  9
$DIMTM
 40
0.0
  9
$DIMTXT
 40
2.5
  9
$DIMCEN
 40
2.5
  9
$DIMTSZ
 40
0.0
  9
$DIMTOL
 70
     0
  9
$DIMLIM
 70
     0
  9
$DIMTIH
 70
     1
  9
$DIMTOH
 70
     0
  9
$DIMSE1
 70
     0
  9
$DIMSE2
 70
     0
  9
$DIMTAD
 70
     1
  9
$DIMZIN
 70
     8
  9
$DIMBLK
  1

  9
$DIMASO
 70
     1
  9
$DIMSHO
 70
     1
  9
$DIMPOST
  1

  9
$DIMAPOST
  1

  9
$DIMALT
 70
     0
  9
$DIMALTD
 70
     2
  9
$DIMALTF
 40
0.0394
  9
$DIMLFAC
 40
1.0
  9
$DIMTOFL
 70
     1
  9
$DIMTVP
 40
1.0
  9
$DIMTIX
 70
     0
  9
$DIMSOXD
 70
     0
  9
$DIMSAH
 70
     0
  9
$DIMBLK1
  1

  9
$DIMBLK2
  1

  9
$DIMSTYLE
  2
ISO-25
  9
$DIMCLRD
 70
     0
  9
$DIMCLRE
 70
     0
  9
$DIMCLRT
 70
     0
  9
$DIMTFAC
 40
1.0
  9
$DIMGAP
 40
0.625
  9
$DIMJUST
 70
     0
  9
$DIMSD1
 70
     0
  9
$DIMSD2
 70
     0
  9
$DIMTOLJ
 70
     1
  9
$DIMTZIN
 70
     8
  9
$DIMALTZ
 70
     8
  9
$DIMALTTZ
 70
     8
  9
$DIMFIT
 70
     5
  9
$DIMUPT
 70
     0
  9
$DIMUNIT
 70
     2
  9
$DIMDEC
 70
     4
  9
$DIMTDEC
 70
     4
  9
$DIMALTU
 70
     2
  9
$DIMALTTD
 70
     2
  9
$DIMTXSTY
  7
STANDARD
  9
$DIMAUNIT
 70
     0
  9
$LUNITS
 70
     2
  9
$LUPREC
 70
     4
  9
$SKETCHINC
 40
1.0
  9
$FILLETRAD
 40
0.5
  9
$AUNITS
 70
     0
  9
$AUPREC
 70
     0
  9
$MENU
  1
.
  9
$ELEVATION
 40
0.0
  9
$PELEVATION
 40
0.0
  9
$THICKNESS
 40
0.0
  9
$LIMCHECK
 70
     0
  9
$BLIPMODE
 70
     1
  9
$CHAMFERA
 40
0.5
  9
$CHAMFERB
 40
0.5
  9
$CHAMFERC
 40
0.0
  9
$CHAMFERD
 40
0.0
  9
$SKPOLY
 70
     0
  9
$TDCREATE
 40
2450687.603148148
  9
$TDUPDATE
 40
2453550.782755162
  9
$TDINDWG
 40
0.0001497338
  9
$TDUSRTIMER
 40
0.0001497338
  9
$USRTIMER
 70
     1
  9
$ANGBASE
 50
0.0
  9
$ANGDIR
 70
     0
  9
$PDMODE
 70
     0
  9
$PDSIZE
 40
0.0
  9
$PLINEWID
 40
0.0
  9
$COORDS
 70
     2
  9
$SPLFRAME
 70
     0
  9
$SPLINETYPE
 70
     6
  9
$SPLINESEGS
 70
     8
  9
$ATTDIA
 70
     0
  9
$ATTREQ
 70
     1
  9
$HANDLING
 70
     1
  9
$HANDSEED
  5
1919
  9
$SURFTAB1
 70
     6
  9
$SURFTAB2
 70
     6
  9
$SURFTYPE
 70
     6
  9
$SURFU
 70
     6
  9
$SURFV
 70
     6
  9
$UCSNAME
  2

  9
$UCSORG
 10
0.0
 20
0.0
 30
0.0
  9
$UCSXDIR
 10
1.0
 20
0.0
 30
0.0
  9
$UCSYDIR
 10
0.0
 20
1.0
 30
0.0
  9
$PUCSNAME
  2

  9
$PUCSORG
 10
0.0
 20
0.0
 30
0.0
  9
$PUCSXDIR
 10
1.0
 20
0.0
 30
0.0
  9
$PUCSYDIR
 10
0.0
 20
1.0
 30
0.0
  9
$USERI1
 70
     0
  9
$USERI2
 70
     0
  9
$USERI3
 70
     0
  9
$USERI4
 70
     0
  9
$USERI5
 70
     0
  9
$USERR1
 40
0.0
  9
$USERR2
 40
0.0
  9
$USERR3
 40
0.0
  9
$USERR4
 40
0.0
  9
$USERR5
 40
0.0
  9
$WORLDVIEW
 70
     1
  9
$SHADEDGE
 70
     3
  9
$SHADEDIF
 70
    70
  9
$TILEMODE
 70
     1
  9
$MAXACTVP
 70
    16
  9
$PINSBASE
 10
0.0
 20
0.0
 30
0.0
  9
$PLIMCHECK
 70
     0
  9
$PEXTMIN
 10
1.000000E+20
 20
1.000000E+20
 30
1.000000E+20
  9
$PEXTMAX
 10
-1.000000E+20
 20
-1.000000E+20
 30
-1.000000E+20
  9
$PLIMMIN
 10
0.0
 20
0.0
  9
$PLIMMAX
 10
420.0
 20
297.0
  9
$UNITMODE
 70
     0
  9
$VISRETAIN
 70
     0
  9
$PLINEGEN
 70
     0
  9
$PSLTSCALE
 70
     1
  9
$TREEDEPTH
 70
  3020
  9
$PICKSTYLE
 70
     1
  9
$CMLSTYLE
  2
STANDARD
  9
$CMLJUST
 70
     0
  9
$CMLSCALE
 40
1.0
  9
$PROXYGRAPHICS
 70
     1
  9
$MEASUREMENT
 70
     0
  0
ENDSEC
  0
SECTION
  2
CLASSES
  0
CLASS
  1
DICTIONARYVAR
  2
AcDbDictionaryVar
  3
"AutoCAD"
 90
        0
280
     0
281
     0
  0
ENDSEC
  0
SECTION
  2
TABLES
  0
TABLE
  2
VPORT
  5
18EA
100
AcDbSymbolTable
 70
     3
  0
VPORT
  5
1918
100
AcDbSymbolTableRecord
100
AcDbViewportTableRecord
  2
*ACTIVE
 70
     0
 10
0.0
 20
0.0
 11
1.0
 21
1.0
 12
131.824561
 22
91.867376
 13
0.0
 23
0.0
 14
0.25
 24
0.25
 15
0.5
 25
0.5
 16
0.0
 26
0.0
 36
1.0
 17
0.0
 27
0.0
 37
0.0
 40
183.734751
 41
1.434944
 42
50.0
 43
0.0
 44
0.0
 50
0.0
 51
0.0
 71
     0
 72
 20000
 73
     1
 74
     1
 75
     1
 76
     1
 77
     0
 78
     0
  0
ENDTAB
  0
TABLE
  2
LTYPE
  5
18E7
100
AcDbSymbolTable
 70
     3
  0
LTYPE
  5
18F3
100
AcDbSymbolTableRecord
100
AcDbLinetypeTableRecord
  2
BYBLOCK
 70
     0
  3

 72
    65
 73
     0
 40
0.0
  0
LTYPE
  5
18F4
100
AcDbSymbolTableRecord
100
AcDbLinetypeTableRecord
  2
BYLAYER
 70
     0
  3

 72
    65
 73
     0
 40
0.0
  0
LTYPE
  5
18F5
100
AcDbSymbolTableRecord
100
AcDbLinetypeTableRecord
  2
CONTINUOUS
 70
     0
  3
Solid line
 72
    65
 73
     0
 40
0.0
  0
LTYPE
  5
18FE
100
AcDbSymbolTableRecord
100
AcDbLinetypeTableRecord
  2
TENSEN
 70
     0
  3

 72
    65
 73
     2
 40
2.5
 49
1.5
 74
     0
 49
-1.0
 74
     0
  0
LTYPE
  5
18FF
100
AcDbSymbolTableRecord
100
AcDbLinetypeTableRecord
  2
ITTEN
 70
     0
  3

 72
    65
 73
     4
 40
3.6
 49
2.0
 74
     0
 49
-0.5
 74
     0
 49
0.6
 74
     0
 49
-0.5
 74
     0
  0
ENDTAB
  0
TABLE
  2
LAYER
  5
18E4
100
AcDbSymbolTable
 70
     4
  0
LAYER
  5
18F0
100
AcDbSymbolTableRecord
100
AcDbLayerTableRecord
  2
0
 70
     0
 62
     7
  6
CONTINUOUS
  0
LAYER
  5
190B
100
AcDbSymbolTableRecord
100
AcDbLayerTableRecord
  2
2
 70
     0
 62
     2
  6
TENSEN
  0
LAYER
  5
190C
100
AcDbSymbolTableRecord
100
AcDbLayerTableRecord
  2
1
 70
     0
 62
     1
  6
ITTEN
  0
LAYER
  5
190D
100
AcDbSymbolTableRecord
100
AcDbLayerTableRecord
  2
3
 70
     0
 62
     3
  6
CONTINUOUS
  0
ENDTAB
  0
TABLE
  2
STYLE
  5
18E5
100
AcDbSymbolTable
 70
     1
  0
STYLE
  5
18F1
100
AcDbSymbolTableRecord
100
AcDbTextStyleTableRecord
  2
STANDARD
 70
     0
 40
7.0
 41
0.8
 50
0.0
 71
     0
 42
7.0
  3
ISOCP
  4
B:\r13\com\fonts\bigfont.shx
  0
ENDTAB
  0
TABLE
  2
VIEW
  5
18E8
100
AcDbSymbolTable
 70
     0
  0
ENDTAB
  0
TABLE
  2
UCS
  5
18E9
100
AcDbSymbolTable
 70
     0
  0
ENDTAB
  0
TABLE
  2
APPID
  5
18EB
100
AcDbSymbolTable
 70
     1
  0
APPID
  5
18F2
100
AcDbSymbolTableRecord
100
AcDbRegAppTableRecord
  2
ACAD
 70
     0
  0
ENDTAB
  0
TABLE
  2
DIMSTYLE
  5
18EC
100
AcDbSymbolTable
 70
     8
  0
DIMSTYLE
105
1901
100
AcDbSymbolTableRecord
100
AcDbDimStyleTableRecord
  2
STANDARD
 70
     0
  3

  4

  5

  6

  7

 40
1.0
 41
0.18
 42
0.0625
 43
0.38
 44
0.18
 45
0.0
 46
0.0
 47
0.0
 48
0.0
140
0.18
141
0.09
142
0.0
143
25.4
144
1.0
145
0.0
146
1.0
147
0.09
 71
     0
 72
     0
 73
     1
 74
     1
 75
     0
 76
     0
 77
     0
 78
     0
170
     0
171
     2
172
     0
173
     0
174
     0
175
     0
176
     0
177
     0
178
     0
270
     2
271
     4
272
     4
273
     2
274
     2
340
18F1
275
     0
280
     0
281
     0
282
     0
283
     1
284
     8
285
     8
286
     8
287
     5
288
     0
  0
DIMSTYLE
105
1902
100
AcDbSymbolTableRecord
100
AcDbDimStyleTableRecord
  2
ISO-25
 70
     0
  3

  4

  5

  6

  7

 40
1.0
 41
2.5
 42
0.625
 43
3.75
 44
1.25
 45
0.0
 46
0.0
 47
0.0
 48
0.0
140
2.5
141
2.5
142
0.0
143
0.0394
144
1.0
145
1.0
146
1.0
147
0.625
 71
     0
 72
     0
 73
     1
 74
     0
 75
     0
 76
     0
 77
     1
 78
     8
170
     0
171
     2
172
     1
173
     0
174
     0
175
     0
176
     0
177
     0
178
     0
270
     2
271
     4
272
     4
273
     2
274
     2
340
18F1
275
     0
280
     0
281
     0
282
     0
283
     1
284
     8
285
     8
286
     8
287
     5
288
     0
  0
DIMSTYLE
105
1903
100
AcDbSymbolTableRecord
100
AcDbDimStyleTableRecord
  2
ISO-35
 70
     0
  3

  4

  5

  6

  7

 40
1.0
 41
3.5
 42
0.875
 43
5.25
 44
1.75
 45
0.0
 46
0.0
 47
0.0
 48
0.0
140
3.5
141
3.5
142
0.0
143
0.0394
144
1.0
145
1.4
146
1.0
147
0.875
 71
     0
 72
     0
 73
     1
 74
     0
 75
     0
 76
     0
 77
     1
 78
     8
170
     0
171
     2
172
     1
173
     0
174
     0
175
     0
176
     0
177
     0
178
     0
270
     2
271
     4
272
     4
273
     2
274
     2
340
18F1
275
     0
280
     0
281
     0
282
     0
283
     1
284
     8
285
     8
286
     8
287
     5
288
     0
  0
DIMSTYLE
105
1904
100
AcDbSymbolTableRecord
100
AcDbDimStyleTableRecord
  2
ISO-5
 70
     0
  3

  4

  5

  6

  7

 40
1.0
 41
5.0
 42
1.25
 43
7.5
 44
2.5
 45
0.0
 46
0.0
 47
0.0
 48
0.0
140
5.0
141
5.0
142
0.0
143
0.0394
144
1.0
145
2.0
146
1.0
147
1.25
 71
     0
 72
     0
 73
     1
 74
     0
 75
     0
 76
     0
 77
     1
 78
     8
170
     0
171
     2
172
     1
173
     0
174
     0
175
     0
176
     0
177
     0
178
     0
270
     2
271
     4
272
     4
273
     2
274
     2
340
18F1
275
     0
280
     0
281
     0
282
     0
283
     1
284
     8
285
     8
286
     8
287
     5
288
     0
  0
DIMSTYLE
105
1905
100
AcDbSymbolTableRecord
100
AcDbDimStyleTableRecord
  2
ISO-7
 70
     0
  3

  4

  5

  6

  7

 40
1.0
 41
7.0
 42
1.75
 43
10.5
 44
3.5
 45
0.0
 46
0.0
 47
0.0
 48
0.0
140
7.0
141
7.0
142
0.0
143
0.0394
144
1.0
145
2.8
146
1.0
147
1.75
 71
     0
 72
     0
 73
     1
 74
     0
 75
     0
 76
     0
 77
     1
 78
     8
170
     0
171
     2
172
     1
173
     0
174
     0
175
     0
176
     0
177
     0
178
     0
270
     2
271
     4
272
     4
273
     2
274
     2
340
18F1
275
     0
280
     0
281
     0
282
     0
283
     1
284
     8
285
     8
286
     8
287
     5
288
     0
  0
DIMSTYLE
105
1906
100
AcDbSymbolTableRecord
100
AcDbDimStyleTableRecord
  2
ISO1
 70
     0
  3

  4

  5

  6

  7

 40
1.0
 41
10.0
 42
2.5
 43
15.0
 44
5.0
 45
0.0
 46
0.0
 47
0.0
 48
0.0
140
10.0
141
10.0
142
0.0
143
0.0394
144
1.0
145
4.0
146
1.0
147
2.5
 71
     0
 72
     0
 73
     1
 74
     0
 75
     0
 76
     0
 77
     1
 78
     8
170
     0
171
     2
172
     1
173
     0
174
     0
175
     0
176
     0
177
     0
178
     0
270
     2
271
     4
272
     4
273
     2
274
     2
340
18F1
275
     0
280
     0
281
     0
282
     0
283
     1
284
     8
285
     8
286
     8
287
     5
288
     0
  0
DIMSTYLE
105
1907
100
AcDbSymbolTableRecord
100
AcDbDimStyleTableRecord
  2
ISO1-4
 70
     0
  3

  4

  5

  6

  7

 40
1.0
 41
14.0
 42
3.5
 43
21.0
 44
7.0
 45
0.0
 46
0.0
 47
0.0
 48
0.0
140
14.0
141
14.0
142
0.0
143
0.0394
144
1.0
145
5.6
146
1.0
147
3.5
 71
     0
 72
     0
 73
     1
 74
     0
 75
     0
 76
     0
 77
     1
 78
     8
170
     0
171
     2
172
     1
173
     0
174
     0
175
     0
176
     0
177
     0
178
     0
270
     2
271
     4
272
     4
273
     2
274
     2
340
18F1
275
     0
280
     0
281
     0
282
     0
283
     1
284
     8
285
     8
286
     8
287
     5
288
     0
  0
DIMSTYLE
105
1908
100
AcDbSymbolTableRecord
100
AcDbDimStyleTableRecord
  2
ISO2
 70
     0
  3

  4

  5

  6

  7

 40
1.0
 41
20.0
 42
5.0
 43
30.0
 44
10.0
 45
0.0
 46
0.0
 47
0.0
 48
0.0
140
20.0
141
20.0
142
0.0
143
0.0394
144
1.0
145
8.0
146
1.0
147
5.0
 71
     0
 72
     0
 73
     1
 74
     0
 75
     0
 76
     0
 77
     1
 78
     8
170
     0
171
     2
172
     1
173
     0
174
     0
175
     0
176
     0
177
     0
178
     0
270
     2
271
     4
272
     4
273
     2
274
     2
340
18F1
275
     0
280
     0
281
     0
282
     0
283
     1
284
     8
285
     8
286
     8
287
     5
288
     0
  0
ENDTAB
  0
TABLE
  2
BLOCK_RECORD
  5
18E3
100
AcDbSymbolTable
 70
     0
  0
BLOCK_RECORD
  5
18F9
100
AcDbSymbolTableRecord
100
AcDbBlockTableRecord
  2
*MODEL_SPACE
  0
BLOCK_RECORD
  5
18F6
100
AcDbSymbolTableRecord
100
AcDbBlockTableRecord
  2
*PAPER_SPACE
  0
ENDTAB
  0
ENDSEC
  0
SECTION
  2
BLOCKS
  0
BLOCK
  5
1910
100
AcDbEntity
  8
0
100
AcDbBlockBegin
  2
*MODEL_SPACE
 70
     0
 10
0.0
 20
0.0
 30
0.0
  3
*MODEL_SPACE
  1

  0
ENDBLK
  5
1911
100
AcDbEntity
  8
0
100
AcDbBlockEnd
  0
BLOCK
  5
190E
100
AcDbEntity
 67
     1
  8
0
100
AcDbBlockBegin
  2
*PAPER_SPACE
 70
     0
 10
0.0
 20
0.0
 30
0.0
  3
*PAPER_SPACE
  1

  0
ENDBLK
  5
190F
100
AcDbEntity
 67
     1
  8
0
100
AcDbBlockEnd
  0
ENDSEC
  0
SECTION
  2
ENTITIES
  0
LINE
  5
1589
100
AcDbEntity
  8
1
100
AcDbLine
 10
19.25
 20
88.0
 30
0.0
 11
63.5
 21
88.0
 31
0.0
  0
LINE
  5
158A
100
AcDbEntity
  8
1
100
AcDbLine
 10
41.0
 20
67.5
 30
0.0
 11
41.0
 21
109.5
 31
0.0
  0
CIRCLE
  5
158D
100
AcDbEntity
  8
0
100
AcDbCircle
 10
41.0
 20
88.0
 30
0.0
 40
3.0
  0
CIRCLE
  5
158E
100
AcDbEntity
  8
0
100
AcDbCircle
 10
41.0
 20
88.0
 30
0.0
 40
4.0
  0
CIRCLE
  5
158F
100
AcDbEntity
  8
0
100
AcDbCircle
 10
41.0
 20
88.0
 30
0.0
 40
12.0
  0
LINE
  5
15D8
100
AcDbEntity
  8
0
100
AcDbLine
 10
43.604723
 20
102.772116
 30
0.0
 11
43.883373
 21
102.334939
 31
0.0
  0
LINE
  5
15D9
100
AcDbEntity
  8
0
100
AcDbLine
 10
43.883373
 20
102.334939
 30
0.0
 11
44.282892
 21
102.634413
 31
0.0
  0
LINE
  5
15DA
100
AcDbEntity
  8
0
100
AcDbLine
 10
44.282892
 20
102.634413
 30
0.0
 11
44.461624
 21
102.214098
 31
0.0
  0
LINE
  5
15DB
100
AcDbEntity
  8
0
100
AcDbLine
 10
44.461624
 20
102.214098
 30
0.0
 11
44.882286
 21
102.488887
 31
0.0
  0
LINE
  5
15DC
100
AcDbEntity
  8
0
100
AcDbLine
 10
42.307336
 20
102.94292
 30
0.0
 11
42.623028
 21
102.531693
 31
0.0
  0
LINE
  5
15DD
100
AcDbEntity
  8
0
100
AcDbLine
 10
42.623028
 20
102.531693
 30
0.0
 11
42.994927
 21
102.864848
 31
0.0
  0
LINE
  5
15DE
100
AcDbEntity
  8
0
100
AcDbLine
 10
42.994927
 20
102.864848
 30
0.0
 11
43.209611
 21
102.46171
 31
0.0
  0
LINE
  5
15DF
100
AcDbEntity
  8
0
100
AcDbLine
 10
43.209611
 20
102.46171
 30
0.0
 11
43.604723
 21
102.772116
 31
0.0
  0
LINE
  5
15E0
100
AcDbEntity
  8
0
100
AcDbLine
 10
41.0
 20
103.0
 30
0.0
 11
41.350332
 21
102.617851
 31
0.0
  0
LINE
  5
15E1
100
AcDbEntity
  8
0
100
AcDbLine
 10
41.350332
 20
102.617851
 30
0.0
 11
41.691778
 21
102.982152
 31
0.0
  0
LINE
  5
15E2
100
AcDbEntity
  8
0
100
AcDbLine
 10
41.691778
 20
102.982152
 30
0.0
 11
41.940782
 21
102.599259
 31
0.0
  0
LINE
  5
15E3
100
AcDbEntity
  8
0
100
AcDbLine
 10
41.940782
 20
102.599259
 30
0.0
 11
42.307336
 21
102.94292
 31
0.0
  0
LINE
  5
15E4
100
AcDbEntity
  8
0
100
AcDbLine
 10
39.692664
 20
102.94292
 30
0.0
 11
40.074969
 21
102.592759
 31
0.0
  0
LINE
  5
15E5
100
AcDbEntity
  8
0
100
AcDbLine
 10
40.074969
 20
102.592759
 30
0.0
 11
40.383365
 21
102.985433
 31
0.0
  0
LINE
  5
15E6
100
AcDbEntity
  8
0
100
AcDbLine
 10
40.383365
 20
102.985433
 30
0.0
 11
40.664793
 21
102.625699
 31
0.0
  0
LINE
  5
15E7
100
AcDbEntity
  8
0
100
AcDbLine
 10
40.664793
 20
102.625699
 30
0.0
 11
41.0
 21
103.0
 31
0.0
  0
LINE
  5
15E8
100
AcDbEntity
  8
0
100
AcDbLine
 10
38.395277
 20
102.772116
 30
0.0
 11
38.806646
 21
102.456608
 31
0.0
  0
LINE
  5
15E9
100
AcDbEntity
  8
0
100
AcDbLine
 10
38.806646
 20
102.456608
 30
0.0
 11
39.079645
 21
102.874666
 31
0.0
  0
LINE
  5
15EA
100
AcDbEntity
  8
0
100
AcDbLine
 10
39.079645
 20
102.874666
 30
0.0
 11
39.391355
 21
102.540828
 31
0.0
  0
LINE
  5
15EB
100
AcDbEntity
  8
0
100
AcDbLine
 10
39.391355
 20
102.540828
 30
0.0
 11
39.692664
 21
102.94292
 31
0.0
  0
LINE
  5
15EC
100
AcDbEntity
  8
0
100
AcDbLine
 10
37.117714
 20
102.488887
 30
0.0
 11
37.555016
 21
102.210433
 31
0.0
  0
LINE
  5
15ED
100
AcDbEntity
  8
0
100
AcDbLine
 10
37.555016
 20
102.210433
 30
0.0
 11
37.79054
 21
102.650693
 31
0.0
  0
LINE
  5
15EE
100
AcDbEntity
  8
0
100
AcDbLine
 10
37.79054
 20
102.650693
 30
0.0
 11
38.13016
 21
102.345293
 31
0.0
  0
LINE
  5
15EF
100
AcDbEntity
  8
0
100
AcDbLine
 10
38.13016
 20
102.345293
 30
0.0
 11
38.395277
 21
102.772116
 31
0.0
  0
LINE
  5
15F0
100
AcDbEntity
  8
0
100
AcDbLine
 10
35.869698
 20
102.095389
 30
0.0
 11
36.329605
 21
101.856108
 31
0.0
  0
LINE
  5
15F1
100
AcDbEntity
  8
0
100
AcDbLine
 10
36.329605
 20
101.856108
 30
0.0
 11
36.525861
 21
102.31522
 31
0.0
  0
LINE
  5
15F2
100
AcDbEntity
  8
0
100
AcDbLine
 10
36.525861
 20
102.31522
 30
0.0
 11
36.890805
 21
102.040582
 31
0.0
  0
LINE
  5
15F3
100
AcDbEntity
  8
0
100
AcDbLine
 10
36.890805
 20
102.040582
 30
0.0
 11
37.117714
 21
102.488887
 31
0.0
  0
LINE
  5
15F4
100
AcDbEntity
  8
0
100
AcDbLine
 10
34.660726
 20
101.594617
 30
0.0
 11
35.139738
 21
101.396329
 31
0.0
  0
LINE
  5
15F5
100
AcDbEntity
  8
0
100
AcDbLine
 10
35.139738
 20
101.396329
 30
0.0
 11
35.295233
 21
101.870799
 31
0.0
  0
LINE
  5
15F6
100
AcDbEntity
  8
0
100
AcDbLine
 10
35.295233
 20
101.870799
 30
0.0
 11
35.682725
 21
101.629014
 31
0.0
  0
LINE
  5
15F7
100
AcDbEntity
  8
0
100
AcDbLine
 10
35.682725
 20
101.629014
 30
0.0
 11
35.869698
 21
102.095389
 31
0.0
  0
LINE
  5
15F8
100
AcDbEntity
  8
0
100
AcDbLine
 10
33.5
 20
100.990381
 30
0.0
 11
33.994471
 21
100.834597
 31
0.0
  0
LINE
  5
15F9
100
AcDbEntity
  8
0
100
AcDbLine
 10
33.994471
 20
100.834597
 30
0.0
 11
34.108022
 21
101.320813
 31
0.0
  0
LINE
  5
15FA
100
AcDbEntity
  8
0
100
AcDbLine
 10
34.108022
 20
101.320813
 30
0.0
 11
34.515112
 21
101.11372
 31
0.0
  0
LINE
  5
15FB
100
AcDbEntity
  8
0
100
AcDbLine
 10
34.515112
 20
101.11372
 30
0.0
 11
34.660726
 21
101.594617
 31
0.0
  0
LINE
  5
15FC
100
AcDbEntity
  8
0
100
AcDbLine
 10
32.396353
 20
100.287281
 30
0.0
 11
32.90252
 21
100.175185
 31
0.0
  0
LINE
  5
15FD
100
AcDbEntity
  8
0
100
AcDbLine
 10
32.90252
 20
100.175185
 30
0.0
 11
32.973262
 21
100.669448
 31
0.0
  0
LINE
  5
15FE
100
AcDbEntity
  8
0
100
AcDbLine
 10
32.973262
 20
100.669448
 30
0.0
 11
33.396853
 21
100.498623
 31
0.0
  0
LINE
  5
15FF
100
AcDbEntity
  8
0
100
AcDbLine
 10
33.396853
 20
100.498623
 30
0.0
 11
33.5
 21
100.990381
 31
0.0
  0
LINE
  5
1600
100
AcDbEntity
  8
0
100
AcDbLine
 10
31.358186
 20
99.490667
 30
0.0
 11
31.872196
 21
99.423113
 31
0.0
  0
LINE
  5
1601
100
AcDbEntity
  8
0
100
AcDbLine
 10
31.872196
 20
99.423113
 30
0.0
 11
31.899591
 21
99.921661
 31
0.0
  0
LINE
  5
1602
100
AcDbEntity
  8
0
100
AcDbLine
 10
31.899591
 20
99.921661
 30
0.0
 11
32.336458
 21
99.788404
 31
0.0
  0
LINE
  5
1603
100
AcDbEntity
  8
0
100
AcDbLine
 10
32.336458
 20
99.788404
 30
0.0
 11
32.396353
 21
100.287281
 31
0.0
  0
LINE
  5
1604
100
AcDbEntity
  8
0
100
AcDbLine
 10
30.393398
 20
98.606602
 30
0.0
 11
30.91134
 21
98.584104
 31
0.0
  0
LINE
  5
1605
100
AcDbEntity
  8
0
100
AcDbLine
 10
30.91134
 20
98.584104
 30
0.0
 11
30.89518
 21
99.083142
 31
0.0
  0
LINE
  5
1606
100
AcDbEntity
  8
0
100
AcDbLine
 10
30.89518
 20
99.083142
 30
0.0
 11
31.341999
 21
98.988468
 31
0.0
  0
LINE
  5
1607
100
AcDbEntity
  8
0
100
AcDbLine
 10
31.341999
 20
98.988468
 30
0.0
 11
31.358186
 21
99.490667
 31
0.0
  0
LINE
  5
1608
100
AcDbEntity
  8
0
100
AcDbLine
 10
29.509333
 20
97.641814
 30
0.0
 11
30.027265
 21
97.664543
 31
0.0
  0
LINE
  5
1609
100
AcDbEntity
  8
0
100
AcDbLine
 10
30.027265
 20
97.664543
 30
0.0
 11
29.967672
 21
98.160275
 31
0.0
  0
LINE
  5
160A
100
AcDbEntity
  8
0
100
AcDbLine
 10
29.967672
 20
98.160275
 30
0.0
 11
30.421042
 21
98.104904
 31
0.0
  0
LINE
  5
160B
100
AcDbEntity
  8
0
100
AcDbLine
 10
30.421042
 20
98.104904
 30
0.0
 11
30.393398
 21
98.606602
 31
0.0
  0
LINE
  5
160C
100
AcDbEntity
  8
0
100
AcDbLine
 10
28.712719
 20
96.603647
 30
0.0
 11
29.226699
 21
96.67143
 31
0.0
  0
LINE
  5
160D
100
AcDbEntity
  8
0
100
AcDbLine
 10
29.226699
 20
96.67143
 30
0.0
 11
29.124127
 21
97.160081
 31
0.0
  0
LINE
  5
160E
100
AcDbEntity
  8
0
100
AcDbLine
 10
29.124127
 20
97.160081
 30
0.0
 11
29.580598
 21
97.144434
 31
0.0
  0
LINE
  5
160F
100
AcDbEntity
  8
0
100
AcDbLine
 10
29.580598
 20
97.144434
 30
0.0
 11
29.509333
 21
97.641814
 31
0.0
  0
LINE
  5
1610
100
AcDbEntity
  8
0
100
AcDbLine
 10
28.009619
 20
95.5
 30
0.0
 11
28.515735
 21
95.612322
 31
0.0
  0
LINE
  5
1611
100
AcDbEntity
  8
0
100
AcDbLine
 10
28.515735
 20
95.612322
 30
0.0
 11
28.370965
 21
96.090174
 31
0.0
  0
LINE
  5
1612
100
AcDbEntity
  8
0
100
AcDbLine
 10
28.370965
 20
96.090174
 30
0.0
 11
28.827062
 21
96.114371
 31
0.0
  0
LINE
  5
1613
100
AcDbEntity
  8
0
100
AcDbLine
 10
28.827062
 20
96.114371
 30
0.0
 11
28.712719
 21
96.603647
 31
0.0
  0
LINE
  5
1614
100
AcDbEntity
  8
0
100
AcDbLine
 10
27.405383
 20
94.339274
 30
0.0
 11
27.899784
 21
94.495279
 31
0.0
  0
LINE
  5
1615
100
AcDbEntity
  8
0
100
AcDbLine
 10
27.899784
 20
94.495279
 30
0.0
 11
27.713917
 21
94.958695
 31
0.0
  0
LINE
  5
1616
100
AcDbEntity
  8
0
100
AcDbLine
 10
27.713917
 20
94.958695
 30
0.0
 11
28.16617
 21
95.022552
 31
0.0
  0
LINE
  5
1617
100
AcDbEntity
  8
0
100
AcDbLine
 10
28.16617
 20
95.022552
 30
0.0
 11
28.009619
 21
95.5
 31
0.0
  0
LINE
  5
1618
100
AcDbEntity
  8
0
100
AcDbLine
 10
26.904611
 20
93.130302
 30
0.0
 11
27.383534
 21
93.328804
 31
0.0
  0
LINE
  5
1619
100
AcDbEntity
  8
0
100
AcDbLine
 10
27.383534
 20
93.328804
 30
0.0
 11
27.157984
 21
93.774257
 31
0.0
  0
LINE
  5
161A
100
AcDbEntity
  8
0
100
AcDbLine
 10
27.157984
 20
93.774257
 30
0.0
 11
27.602951
 21
93.877287
 31
0.0
  0
LINE
  5
161B
100
AcDbEntity
  8
0
100
AcDbLine
 10
27.602951
 20
93.877287
 30
0.0
 11
27.405383
 21
94.339274
 31
0.0
  0
LINE
  5
161C
100
AcDbEntity
  8
0
100
AcDbLine
 10
26.511113
 20
91.882286
 30
0.0
 11
26.970912
 21
92.121773
 31
0.0
  0
LINE
  5
161D
100
AcDbEntity
  8
0
100
AcDbLine
 10
26.970912
 20
92.121773
 30
0.0
 11
26.707398
 21
92.545873
 31
0.0
  0
LINE
  5
161E
100
AcDbEntity
  8
0
100
AcDbLine
 10
26.707398
 20
92.545873
 30
0.0
 11
27.141691
 21
92.687292
 31
0.0
  0
LINE
  5
161F
100
AcDbEntity
  8
0
100
AcDbLine
 10
27.141691
 20
92.687292
 30
0.0
 11
26.904611
 21
93.130302
 31
0.0
  0
LINE
  5
1620
100
AcDbEntity
  8
0
100
AcDbLine
 10
26.227884
 20
90.604723
 30
0.0
 11
26.665061
 21
90.883373
 31
0.0
  0
LINE
  5
1621
100
AcDbEntity
  8
0
100
AcDbLine
 10
26.665061
 20
90.883373
 30
0.0
 11
26.365587
 21
91.282892
 31
0.0
  0
LINE
  5
1622
100
AcDbEntity
  8
0
100
AcDbLine
 10
26.365587
 20
91.282892
 30
0.0
 11
26.785902
 21
91.461624
 31
0.0
  0
LINE
  5
1623
100
AcDbEntity
  8
0
100
AcDbLine
 10
26.785902
 20
91.461624
 30
0.0
 11
26.511113
 21
91.882286
 31
0.0
  0
LINE
  5
1624
100
AcDbEntity
  8
0
100
AcDbLine
 10
26.05708
 20
89.307336
 30
0.0
 11
26.468307
 21
89.623028
 31
0.0
  0
LINE
  5
1625
100
AcDbEntity
  8
0
100
AcDbLine
 10
26.468307
 20
89.623028
 30
0.0
 11
26.135152
 21
89.994927
 31
0.0
  0
LINE
  5
1626
100
AcDbEntity
  8
0
100
AcDbLine
 10
26.135152
 20
89.994927
 30
0.0
 11
26.53829
 21
90.209611
 31
0.0
  0
LINE
  5
1627
100
AcDbEntity
  8
0
100
AcDbLine
 10
26.53829
 20
90.209611
 30
0.0
 11
26.227884
 21
90.604723
 31
0.0
  0
LINE
  5
1628
100
AcDbEntity
  8
0
100
AcDbLine
 10
26.0
 20
88.0
 30
0.0
 11
26.382149
 21
88.350332
 31
0.0
  0
LINE
  5
1629
100
AcDbEntity
  8
0
100
AcDbLine
 10
26.382149
 20
88.350332
 30
0.0
 11
26.017848
 21
88.691778
 31
0.0
  0
LINE
  5
162A
100
AcDbEntity
  8
0
100
AcDbLine
 10
26.017848
 20
88.691778
 30
0.0
 11
26.400741
 21
88.940782
 31
0.0
  0
LINE
  5
162B
100
AcDbEntity
  8
0
100
AcDbLine
 10
26.400741
 20
88.940782
 30
0.0
 11
26.05708
 21
89.307336
 31
0.0
  0
LINE
  5
162C
100
AcDbEntity
  8
0
100
AcDbLine
 10
26.05708
 20
86.692664
 30
0.0
 11
26.407241
 21
87.074969
 31
0.0
  0
LINE
  5
162D
100
AcDbEntity
  8
0
100
AcDbLine
 10
26.407241
 20
87.074969
 30
0.0
 11
26.014567
 21
87.383365
 31
0.0
  0
LINE
  5
162E
100
AcDbEntity
  8
0
100
AcDbLine
 10
26.014567
 20
87.383365
 30
0.0
 11
26.374301
 21
87.664793
 31
0.0
  0
LINE
  5
162F
100
AcDbEntity
  8
0
100
AcDbLine
 10
26.374301
 20
87.664793
 30
0.0
 11
26.0
 21
88.0
 31
0.0
  0
LINE
  5
1630
100
AcDbEntity
  8
0
100
AcDbLine
 10
26.227884
 20
85.395277
 30
0.0
 11
26.543392
 21
85.806646
 31
0.0
  0
LINE
  5
1631
100
AcDbEntity
  8
0
100
AcDbLine
 10
26.543392
 20
85.806646
 30
0.0
 11
26.125334
 21
86.079645
 31
0.0
  0
LINE
  5
1632
100
AcDbEntity
  8
0
100
AcDbLine
 10
26.125334
 20
86.079645
 30
0.0
 11
26.459172
 21
86.391355
 31
0.0
  0
LINE
  5
1633
100
AcDbEntity
  8
0
100
AcDbLine
 10
26.459172
 20
86.391355
 30
0.0
 11
26.05708
 21
86.692664
 31
0.0
  0
LINE
  5
1634
100
AcDbEntity
  8
0
100
AcDbLine
 10
26.511113
 20
84.117714
 30
0.0
 11
26.789567
 21
84.555016
 31
0.0
  0
LINE
  5
1635
100
AcDbEntity
  8
0
100
AcDbLine
 10
26.789567
 20
84.555016
 30
0.0
 11
26.349307
 21
84.79054
 31
0.0
  0
LINE
  5
1636
100
AcDbEntity
  8
0
100
AcDbLine
 10
26.349307
 20
84.79054
 30
0.0
 11
26.654707
 21
85.13016
 31
0.0
  0
LINE
  5
1637
100
AcDbEntity
  8
0
100
AcDbLine
 10
26.654707
 20
85.13016
 30
0.0
 11
26.227884
 21
85.395277
 31
0.0
  0
LINE
  5
1638
100
AcDbEntity
  8
0
100
AcDbLine
 10
26.904611
 20
82.869698
 30
0.0
 11
27.143892
 21
83.329605
 31
0.0
  0
LINE
  5
1639
100
AcDbEntity
  8
0
100
AcDbLine
 10
27.143892
 20
83.329605
 30
0.0
 11
26.68478
 21
83.525861
 31
0.0
  0
LINE
  5
163A
100
AcDbEntity
  8
0
100
AcDbLine
 10
26.68478
 20
83.525861
 30
0.0
 11
26.959418
 21
83.890805
 31
0.0
  0
LINE
  5
163B
100
AcDbEntity
  8
0
100
AcDbLine
 10
26.959418
 20
83.890805
 30
0.0
 11
26.511113
 21
84.117714
 31
0.0
  0
LINE
  5
163C
100
AcDbEntity
  8
0
100
AcDbLine
 10
27.405383
 20
81.660726
 30
0.0
 11
27.603671
 21
82.139738
 31
0.0
  0
LINE
  5
163D
100
AcDbEntity
  8
0
100
AcDbLine
 10
27.603671
 20
82.139738
 30
0.0
 11
27.129201
 21
82.295233
 31
0.0
  0
LINE
  5
163E
100
AcDbEntity
  8
0
100
AcDbLine
 10
27.129201
 20
82.295233
 30
0.0
 11
27.370986
 21
82.682725
 31
0.0
  0
LINE
  5
163F
100
AcDbEntity
  8
0
100
AcDbLine
 10
27.370986
 20
82.682725
 30
0.0
 11
26.904611
 21
82.869698
 31
0.0
  0
LINE
  5
1640
100
AcDbEntity
  8
0
100
AcDbLine
 10
28.009619
 20
80.5
 30
0.0
 11
28.165403
 21
80.994471
 31
0.0
  0
LINE
  5
1641
100
AcDbEntity
  8
0
100
AcDbLine
 10
28.165403
 20
80.994471
 30
0.0
 11
27.679187
 21
81.108022
 31
0.0
  0
LINE
  5
1642
100
AcDbEntity
  8
0
100
AcDbLine
 10
27.679187
 20
81.108022
 30
0.0
 11
27.88628
 21
81.515112
 31
0.0
  0
LINE
  5
1643
100
AcDbEntity
  8
0
100
AcDbLine
 10
27.88628
 20
81.515112
 30
0.0
 11
27.405383
 21
81.660726
 31
0.0
  0
LINE
  5
1644
100
AcDbEntity
  8
0
100
AcDbLine
 10
28.712719
 20
79.396353
 30
0.0
 11
28.824815
 21
79.90252
 31
0.0
  0
LINE
  5
1645
100
AcDbEntity
  8
0
100
AcDbLine
 10
28.824815
 20
79.90252
 30
0.0
 11
28.330552
 21
79.973262
 31
0.0
  0
LINE
  5
1646
100
AcDbEntity
  8
0
100
AcDbLine
 10
28.330552
 20
79.973262
 30
0.0
 11
28.501377
 21
80.396853
 31
0.0
  0
LINE
  5
1647
100
AcDbEntity
  8
0
100
AcDbLine
 10
28.501377
 20
80.396853
 30
0.0
 11
28.009619
 21
80.5
 31
0.0
  0
LINE
  5
1648
100
AcDbEntity
  8
0
100
AcDbLine
 10
29.509333
 20
78.358186
 30
0.0
 11
29.576887
 21
78.872196
 31
0.0
  0
LINE
  5
1649
100
AcDbEntity
  8
0
100
AcDbLine
 10
29.576887
 20
78.872196
 30
0.0
 11
29.078339
 21
78.899591
 31
0.0
  0
LINE
  5
164A
100
AcDbEntity
  8
0
100
AcDbLine
 10
29.078339
 20
78.899591
 30
0.0
 11
29.211596
 21
79.336458
 31
0.0
  0
LINE
  5
164B
100
AcDbEntity
  8
0
100
AcDbLine
 10
29.211596
 20
79.336458
 30
0.0
 11
28.712719
 21
79.396353
 31
0.0
  0
LINE
  5
164C
100
AcDbEntity
  8
0
100
AcDbLine
 10
30.393398
 20
77.393398
 30
0.0
 11
30.415896
 21
77.91134
 31
0.0
  0
LINE
  5
164D
100
AcDbEntity
  8
0
100
AcDbLine
 10
30.415896
 20
77.91134
 30
0.0
 11
29.916858
 21
77.89518
 31
0.0
  0
LINE
  5
164E
100
AcDbEntity
  8
0
100
AcDbLine
 10
29.916858
 20
77.89518
 30
0.0
 11
30.011532
 21
78.341999
 31
0.0
  0
LINE
  5
164F
100
AcDbEntity
  8
0
100
AcDbLine
 10
30.011532
 20
78.341999
 30
0.0
 11
29.509333
 21
78.358186
 31
0.0
  0
LINE
  5
1650
100
AcDbEntity
  8
0
100
AcDbLine
 10
31.358186
 20
76.509333
 30
0.0
 11
31.335457
 21
77.027265
 31
0.0
  0
LINE
  5
1651
100
AcDbEntity
  8
0
100
AcDbLine
 10
31.335457
 20
77.027265
 30
0.0
 11
30.839725
 21
76.967672
 31
0.0
  0
LINE
  5
1652
100
AcDbEntity
  8
0
100
AcDbLine
 10
30.839725
 20
76.967672
 30
0.0
 11
30.895096
 21
77.421042
 31
0.0
  0
LINE
  5
1653
100
AcDbEntity
  8
0
100
AcDbLine
 10
30.895096
 20
77.421042
 30
0.0
 11
30.393398
 21
77.393398
 31
0.0
  0
LINE
  5
1654
100
AcDbEntity
  8
0
100
AcDbLine
 10
32.396353
 20
75.712719
 30
0.0
 11
32.32857
 21
76.226699
 31
0.0
  0
LINE
  5
1655
100
AcDbEntity
  8
0
100
AcDbLine
 10
32.32857
 20
76.226699
 30
0.0
 11
31.839919
 21
76.124127
 31
0.0
  0
LINE
  5
1656
100
AcDbEntity
  8
0
100
AcDbLine
 10
31.839919
 20
76.124127
 30
0.0
 11
31.855566
 21
76.580598
 31
0.0
  0
LINE
  5
1657
100
AcDbEntity
  8
0
100
AcDbLine
 10
31.855566
 20
76.580598
 30
0.0
 11
31.358186
 21
76.509333
 31
0.0
  0
LINE
  5
1658
100
AcDbEntity
  8
0
100
AcDbLine
 10
33.5
 20
75.009619
 30
0.0
 11
33.387678
 21
75.515735
 31
0.0
  0
LINE
  5
1659
100
AcDbEntity
  8
0
100
AcDbLine
 10
33.387678
 20
75.515735
 30
0.0
 11
32.909826
 21
75.370965
 31
0.0
  0
LINE
  5
165A
100
AcDbEntity
  8
0
100
AcDbLine
 10
32.909826
 20
75.370965
 30
0.0
 11
32.885629
 21
75.827062
 31
0.0
  0
LINE
  5
165B
100
AcDbEntity
  8
0
100
AcDbLine
 10
32.885629
 20
75.827062
 30
0.0
 11
32.396353
 21
75.712719
 31
0.0
  0
LINE
  5
165C
100
AcDbEntity
  8
0
100
AcDbLine
 10
34.660726
 20
74.405383
 30
0.0
 11
34.504721
 21
74.899784
 31
0.0
  0
LINE
  5
165D
100
AcDbEntity
  8
0
100
AcDbLine
 10
34.504721
 20
74.899784
 30
0.0
 11
34.041305
 21
74.713917
 31
0.0
  0
LINE
  5
165E
100
AcDbEntity
  8
0
100
AcDbLine
 10
34.041305
 20
74.713917
 30
0.0
 11
33.977448
 21
75.16617
 31
0.0
  0
LINE
  5
165F
100
AcDbEntity
  8
0
100
AcDbLine
 10
33.977448
 20
75.16617
 30
0.0
 11
33.5
 21
75.009619
 31
0.0
  0
LINE
  5
1660
100
AcDbEntity
  8
0
100
AcDbLine
 10
35.869698
 20
73.904611
 30
0.0
 11
35.671196
 21
74.383534
 31
0.0
  0
LINE
  5
1661
100
AcDbEntity
  8
0
100
AcDbLine
 10
35.671196
 20
74.383534
 30
0.0
 11
35.225743
 21
74.157984
 31
0.0
  0
LINE
  5
1662
100
AcDbEntity
  8
0
100
AcDbLine
 10
35.225743
 20
74.157984
 30
0.0
 11
35.122713
 21
74.602951
 31
0.0
  0
LINE
  5
1663
100
AcDbEntity
  8
0
100
AcDbLine
 10
35.122713
 20
74.602951
 30
0.0
 11
34.660726
 21
74.405383
 31
0.0
  0
LINE
  5
1664
100
AcDbEntity
  8
0
100
AcDbLine
 10
37.117714
 20
73.511113
 30
0.0
 11
36.878227
 21
73.970912
 31
0.0
  0
LINE
  5
1665
100
AcDbEntity
  8
0
100
AcDbLine
 10
36.878227
 20
73.970912
 30
0.0
 11
36.454127
 21
73.707398
 31
0.0
  0
LINE
  5
1666
100
AcDbEntity
  8
0
100
AcDbLine
 10
36.454127
 20
73.707398
 30
0.0
 11
36.312708
 21
74.141691
 31
0.0
  0
LINE
  5
1667
100
AcDbEntity
  8
0
100
AcDbLine
 10
36.312708
 20
74.141691
 30
0.0
 11
35.869698
 21
73.904611
 31
0.0
  0
LINE
  5
1668
100
AcDbEntity
  8
0
100
AcDbLine
 10
38.395277
 20
73.227884
 30
0.0
 11
38.116627
 21
73.665061
 31
0.0
  0
LINE
  5
1669
100
AcDbEntity
  8
0
100
AcDbLine
 10
38.116627
 20
73.665061
 30
0.0
 11
37.717108
 21
73.365587
 31
0.0
  0
LINE
  5
166A
100
AcDbEntity
  8
0
100
AcDbLine
 10
37.717108
 20
73.365587
 30
0.0
 11
37.538376
 21
73.785902
 31
0.0
  0
LINE
  5
166B
100
AcDbEntity
  8
0
100
AcDbLine
 10
37.538376
 20
73.785902
 30
0.0
 11
37.117714
 21
73.511113
 31
0.0
  0
LINE
  5
166C
100
AcDbEntity
  8
0
100
AcDbLine
 10
39.692664
 20
73.05708
 30
0.0
 11
39.376972
 21
73.468307
 31
0.0
  0
LINE
  5
166D
100
AcDbEntity
  8
0
100
AcDbLine
 10
39.376972
 20
73.468307
 30
0.0
 11
39.005073
 21
73.135152
 31
0.0
  0
LINE
  5
166E
100
AcDbEntity
  8
0
100
AcDbLine
 10
39.005073
 20
73.135152
 30
0.0
 11
38.790389
 21
73.53829
 31
0.0
  0
LINE
  5
166F
100
AcDbEntity
  8
0
100
AcDbLine
 10
38.790389
 20
73.53829
 30
0.0
 11
38.395277
 21
73.227884
 31
0.0
  0
LINE
  5
1670
100
AcDbEntity
  8
0
100
AcDbLine
 10
41.0
 20
73.0
 30
0.0
 11
40.649668
 21
73.382149
 31
0.0
  0
LINE
  5
1671
100
AcDbEntity
  8
0
100
AcDbLine
 10
40.649668
 20
73.382149
 30
0.0
 11
40.308222
 21
73.017848
 31
0.0
  0
LINE
  5
1672
100
AcDbEntity
  8
0
100
AcDbLine
 10
40.308222
 20
73.017848
 30
0.0
 11
40.059218
 21
73.400741
 31
0.0
  0
LINE
  5
1673
100
AcDbEntity
  8
0
100
AcDbLine
 10
40.059218
 20
73.400741
 30
0.0
 11
39.692664
 21
73.05708
 31
0.0
  0
LINE
  5
1674
100
AcDbEntity
  8
0
100
AcDbLine
 10
42.307336
 20
73.05708
 30
0.0
 11
41.925031
 21
73.407241
 31
0.0
  0
LINE
  5
1675
100
AcDbEntity
  8
0
100
AcDbLine
 10
41.925031
 20
73.407241
 30
0.0
 11
41.616635
 21
73.014567
 31
0.0
  0
LINE
  5
1676
100
AcDbEntity
  8
0
100
AcDbLine
 10
41.616635
 20
73.014567
 30
0.0
 11
41.335207
 21
73.374301
 31
0.0
  0
LINE
  5
1677
100
AcDbEntity
  8
0
100
AcDbLine
 10
41.335207
 20
73.374301
 30
0.0
 11
41.0
 21
73.0
 31
0.0
  0
LINE
  5
1678
100
AcDbEntity
  8
0
100
AcDbLine
 10
43.604723
 20
73.227884
 30
0.0
 11
43.193354
 21
73.543392
 31
0.0
  0
LINE
  5
1679
100
AcDbEntity
  8
0
100
AcDbLine
 10
43.193354
 20
73.543392
 30
0.0
 11
42.920355
 21
73.125334
 31
0.0
  0
LINE
  5
167A
100
AcDbEntity
  8
0
100
AcDbLine
 10
42.920355
 20
73.125334
 30
0.0
 11
42.608645
 21
73.459172
 31
0.0
  0
LINE
  5
167B
100
AcDbEntity
  8
0
100
AcDbLine
 10
42.608645
 20
73.459172
 30
0.0
 11
42.307336
 21
73.05708
 31
0.0
  0
LINE
  5
167C
100
AcDbEntity
  8
0
100
AcDbLine
 10
44.882286
 20
73.511113
 30
0.0
 11
44.444984
 21
73.789567
 31
0.0
  0
LINE
  5
167D
100
AcDbEntity
  8
0
100
AcDbLine
 10
44.444984
 20
73.789567
 30
0.0
 11
44.20946
 21
73.349307
 31
0.0
  0
LINE
  5
167E
100
AcDbEntity
  8
0
100
AcDbLine
 10
44.20946
 20
73.349307
 30
0.0
 11
43.86984
 21
73.654707
 31
0.0
  0
LINE
  5
167F
100
AcDbEntity
  8
0
100
AcDbLine
 10
43.86984
 20
73.654707
 30
0.0
 11
43.604723
 21
73.227884
 31
0.0
  0
LINE
  5
1680
100
AcDbEntity
  8
0
100
AcDbLine
 10
46.130302
 20
73.904611
 30
0.0
 11
45.670395
 21
74.143892
 31
0.0
  0
LINE
  5
1681
100
AcDbEntity
  8
0
100
AcDbLine
 10
45.670395
 20
74.143892
 30
0.0
 11
45.474139
 21
73.68478
 31
0.0
  0
LINE
  5
1682
100
AcDbEntity
  8
0
100
AcDbLine
 10
45.474139
 20
73.68478
 30
0.0
 11
45.109195
 21
73.959418
 31
0.0
  0
LINE
  5
1683
100
AcDbEntity
  8
0
100
AcDbLine
 10
45.109195
 20
73.959418
 30
0.0
 11
44.882286
 21
73.511113
 31
0.0
  0
LINE
  5
1684
100
AcDbEntity
  8
0
100
AcDbLine
 10
47.339274
 20
74.405383
 30
0.0
 11
46.860262
 21
74.603671
 31
0.0
  0
LINE
  5
1685
100
AcDbEntity
  8
0
100
AcDbLine
 10
46.860262
 20
74.603671
 30
0.0
 11
46.704767
 21
74.129201
 31
0.0
  0
LINE
  5
1686
100
AcDbEntity
  8
0
100
AcDbLine
 10
46.704767
 20
74.129201
 30
0.0
 11
46.317275
 21
74.370986
 31
0.0
  0
LINE
  5
1687
100
AcDbEntity
  8
0
100
AcDbLine
 10
46.317275
 20
74.370986
 30
0.0
 11
46.130302
 21
73.904611
 31
0.0
  0
LINE
  5
1688
100
AcDbEntity
  8
0
100
AcDbLine
 10
48.5
 20
75.009619
 30
0.0
 11
48.005529
 21
75.165403
 31
0.0
  0
LINE
  5
1689
100
AcDbEntity
  8
0
100
AcDbLine
 10
48.005529
 20
75.165403
 30
0.0
 11
47.891978
 21
74.679187
 31
0.0
  0
LINE
  5
168A
100
AcDbEntity
  8
0
100
AcDbLine
 10
47.891978
 20
74.679187
 30
0.0
 11
47.484888
 21
74.88628
 31
0.0
  0
LINE
  5
168B
100
AcDbEntity
  8
0
100
AcDbLine
 10
47.484888
 20
74.88628
 30
0.0
 11
47.339274
 21
74.405383
 31
0.0
  0
LINE
  5
168C
100
AcDbEntity
  8
0
100
AcDbLine
 10
49.603647
 20
75.712719
 30
0.0
 11
49.09748
 21
75.824815
 31
0.0
  0
LINE
  5
168D
100
AcDbEntity
  8
0
100
AcDbLine
 10
49.09748
 20
75.824815
 30
0.0
 11
49.026738
 21
75.330552
 31
0.0
  0
LINE
  5
168E
100
AcDbEntity
  8
0
100
AcDbLine
 10
49.026738
 20
75.330552
 30
0.0
 11
48.603147
 21
75.501377
 31
0.0
  0
LINE
  5
168F
100
AcDbEntity
  8
0
100
AcDbLine
 10
48.603147
 20
75.501377
 30
0.0
 11
48.5
 21
75.009619
 31
0.0
  0
LINE
  5
1690
100
AcDbEntity
  8
0
100
AcDbLine
 10
50.641814
 20
76.509333
 30
0.0
 11
50.127804
 21
76.576887
 31
0.0
  0
LINE
  5
1691
100
AcDbEntity
  8
0
100
AcDbLine
 10
50.127804
 20
76.576887
 30
0.0
 11
50.100409
 21
76.078339
 31
0.0
  0
LINE
  5
1692
100
AcDbEntity
  8
0
100
AcDbLine
 10
50.100409
 20
76.078339
 30
0.0
 11
49.663542
 21
76.211596
 31
0.0
  0
LINE
  5
1693
100
AcDbEntity
  8
0
100
AcDbLine
 10
49.663542
 20
76.211596
 30
0.0
 11
49.603647
 21
75.712719
 31
0.0
  0
LINE
  5
1694
100
AcDbEntity
  8
0
100
AcDbLine
 10
51.606602
 20
77.393398
 30
0.0
 11
51.08866
 21
77.415896
 31
0.0
  0
LINE
  5
1695
100
AcDbEntity
  8
0
100
AcDbLine
 10
51.08866
 20
77.415896
 30
0.0
 11
51.10482
 21
76.916858
 31
0.0
  0
LINE
  5
1696
100
AcDbEntity
  8
0
100
AcDbLine
 10
51.10482
 20
76.916858
 30
0.0
 11
50.658001
 21
77.011532
 31
0.0
  0
LINE
  5
1697
100
AcDbEntity
  8
0
100
AcDbLine
 10
50.658001
 20
77.011532
 30
0.0
 11
50.641814
 21
76.509333
 31
0.0
  0
LINE
  5
1698
100
AcDbEntity
  8
0
100
AcDbLine
 10
52.490667
 20
78.358186
 30
0.0
 11
51.972735
 21
78.335457
 31
0.0
  0
LINE
  5
1699
100
AcDbEntity
  8
0
100
AcDbLine
 10
51.972735
 20
78.335457
 30
0.0
 11
52.032328
 21
77.839725
 31
0.0
  0
LINE
  5
169A
100
AcDbEntity
  8
0
100
AcDbLine
 10
52.032328
 20
77.839725
 30
0.0
 11
51.578958
 21
77.895096
 31
0.0
  0
LINE
  5
169B
100
AcDbEntity
  8
0
100
AcDbLine
 10
51.578958
 20
77.895096
 30
0.0
 11
51.606602
 21
77.393398
 31
0.0
  0
LINE
  5
169C
100
AcDbEntity
  8
0
100
AcDbLine
 10
53.287281
 20
79.396353
 30
0.0
 11
52.773301
 21
79.32857
 31
0.0
  0
LINE
  5
169D
100
AcDbEntity
  8
0
100
AcDbLine
 10
52.773301
 20
79.32857
 30
0.0
 11
52.875873
 21
78.839919
 31
0.0
  0
LINE
  5
169E
100
AcDbEntity
  8
0
100
AcDbLine
 10
52.875873
 20
78.839919
 30
0.0
 11
52.419402
 21
78.855566
 31
0.0
  0
LINE
  5
169F
100
AcDbEntity
  8
0
100
AcDbLine
 10
52.419402
 20
78.855566
 30
0.0
 11
52.490667
 21
78.358186
 31
0.0
  0
LINE
  5
16A0
100
AcDbEntity
  8
0
100
AcDbLine
 10
53.990381
 20
80.5
 30
0.0
 11
53.484265
 21
80.387678
 31
0.0
  0
LINE
  5
16A1
100
AcDbEntity
  8
0
100
AcDbLine
 10
53.484265
 20
80.387678
 30
0.0
 11
53.629035
 21
79.909826
 31
0.0
  0
LINE
  5
16A2
100
AcDbEntity
  8
0
100
AcDbLine
 10
53.629035
 20
79.909826
 30
0.0
 11
53.172938
 21
79.885629
 31
0.0
  0
LINE
  5
16A3
100
AcDbEntity
  8
0
100
AcDbLine
 10
53.172938
 20
79.885629
 30
0.0
 11
53.287281
 21
79.396353
 31
0.0
  0
LINE
  5
16A4
100
AcDbEntity
  8
0
100
AcDbLine
 10
54.594617
 20
81.660726
 30
0.0
 11
54.100216
 21
81.504721
 31
0.0
  0
LINE
  5
16A5
100
AcDbEntity
  8
0
100
AcDbLine
 10
54.100216
 20
81.504721
 30
0.0
 11
54.286083
 21
81.041305
 31
0.0
  0
LINE
  5
16A6
100
AcDbEntity
  8
0
100
AcDbLine
 10
54.286083
 20
81.041305
 30
0.0
 11
53.83383
 21
80.977448
 31
0.0
  0
LINE
  5
16A7
100
AcDbEntity
  8
0
100
AcDbLine
 10
53.83383
 20
80.977448
 30
0.0
 11
53.990381
 21
80.5
 31
0.0
  0
LINE
  5
16A8
100
AcDbEntity
  8
0
100
AcDbLine
 10
55.095389
 20
82.869698
 30
0.0
 11
54.616466
 21
82.671196
 31
0.0
  0
LINE
  5
16A9
100
AcDbEntity
  8
0
100
AcDbLine
 10
54.616466
 20
82.671196
 30
0.0
 11
54.842016
 21
82.225743
 31
0.0
  0
LINE
  5
16AA
100
AcDbEntity
  8
0
100
AcDbLine
 10
54.842016
 20
82.225743
 30
0.0
 11
54.397049
 21
82.122713
 31
0.0
  0
LINE
  5
16AB
100
AcDbEntity
  8
0
100
AcDbLine
 10
54.397049
 20
82.122713
 30
0.0
 11
54.594617
 21
81.660726
 31
0.0
  0
LINE
  5
16AC
100
AcDbEntity
  8
0
100
AcDbLine
 10
55.488887
 20
84.117714
 30
0.0
 11
55.029088
 21
83.878227
 31
0.0
  0
LINE
  5
16AD
100
AcDbEntity
  8
0
100
AcDbLine
 10
55.029088
 20
83.878227
 30
0.0
 11
55.292602
 21
83.454127
 31
0.0
  0
LINE
  5
16AE
100
AcDbEntity
  8
0
100
AcDbLine
 10
55.292602
 20
83.454127
 30
0.0
 11
54.858309
 21
83.312708
 31
0.0
  0
LINE
  5
16AF
100
AcDbEntity
  8
0
100
AcDbLine
 10
54.858309
 20
83.312708
 30
0.0
 11
55.095389
 21
82.869698
 31
0.0
  0
LINE
  5
16B0
100
AcDbEntity
  8
0
100
AcDbLine
 10
55.772116
 20
85.395277
 30
0.0
 11
55.334939
 21
85.116627
 31
0.0
  0
LINE
  5
16B1
100
AcDbEntity
  8
0
100
AcDbLine
 10
55.334939
 20
85.116627
 30
0.0
 11
55.634413
 21
84.717108
 31
0.0
  0
LINE
  5
16B2
100
AcDbEntity
  8
0
100
AcDbLine
 10
55.634413
 20
84.717108
 30
0.0
 11
55.214098
 21
84.538376
 31
0.0
  0
LINE
  5
16B3
100
AcDbEntity
  8
0
100
AcDbLine
 10
55.214098
 20
84.538376
 30
0.0
 11
55.488887
 21
84.117714
 31
0.0
  0
LINE
  5
16B4
100
AcDbEntity
  8
0
100
AcDbLine
 10
55.94292
 20
86.692664
 30
0.0
 11
55.531693
 21
86.376972
 31
0.0
  0
LINE
  5
16B5
100
AcDbEntity
  8
0
100
AcDbLine
 10
55.531693
 20
86.376972
 30
0.0
 11
55.864848
 21
86.005073
 31
0.0
  0
LINE
  5
16B6
100
AcDbEntity
  8
0
100
AcDbLine
 10
55.864848
 20
86.005073
 30
0.0
 11
55.46171
 21
85.790389
 31
0.0
  0
LINE
  5
16B7
100
AcDbEntity
  8
0
100
AcDbLine
 10
55.46171
 20
85.790389
 30
0.0
 11
55.772116
 21
85.395277
 31
0.0
  0
LINE
  5
16B8
100
AcDbEntity
  8
0
100
AcDbLine
 10
56.0
 20
88.0
 30
0.0
 11
55.617851
 21
87.649668
 31
0.0
  0
LINE
  5
16B9
100
AcDbEntity
  8
0
100
AcDbLine
 10
55.617851
 20
87.649668
 30
0.0
 11
55.982152
 21
87.308222
 31
0.0
  0
LINE
  5
16BA
100
AcDbEntity
  8
0
100
AcDbLine
 10
55.982152
 20
87.308222
 30
0.0
 11
55.599259
 21
87.059218
 31
0.0
  0
LINE
  5
16BB
100
AcDbEntity
  8
0
100
AcDbLine
 10
55.599259
 20
87.059218
 30
0.0
 11
55.94292
 21
86.692664
 31
0.0
  0
LINE
  5
16BC
100
AcDbEntity
  8
0
100
AcDbLine
 10
55.94292
 20
89.307336
 30
0.0
 11
55.592759
 21
88.925031
 31
0.0
  0
LINE
  5
16BD
100
AcDbEntity
  8
0
100
AcDbLine
 10
55.592759
 20
88.925031
 30
0.0
 11
55.985433
 21
88.616635
 31
0.0
  0
LINE
  5
16BE
100
AcDbEntity
  8
0
100
AcDbLine
 10
55.985433
 20
88.616635
 30
0.0
 11
55.625699
 21
88.335207
 31
0.0
  0
LINE
  5
16BF
100
AcDbEntity
  8
0
100
AcDbLine
 10
55.625699
 20
88.335207
 30
0.0
 11
56.0
 21
88.0
 31
0.0
  0
LINE
  5
16C0
100
AcDbEntity
  8
0
100
AcDbLine
 10
55.772116
 20
90.604723
 30
0.0
 11
55.456608
 21
90.193354
 31
0.0
  0
LINE
  5
16C1
100
AcDbEntity
  8
0
100
AcDbLine
 10
55.456608
 20
90.193354
 30
0.0
 11
55.874666
 21
89.920355
 31
0.0
  0
LINE
  5
16C2
100
AcDbEntity
  8
0
100
AcDbLine
 10
55.874666
 20
89.920355
 30
0.0
 11
55.540828
 21
89.608645
 31
0.0
  0
LINE
  5
16C3
100
AcDbEntity
  8
0
100
AcDbLine
 10
55.540828
 20
89.608645
 30
0.0
 11
55.94292
 21
89.307336
 31
0.0
  0
LINE
  5
16C4
100
AcDbEntity
  8
0
100
AcDbLine
 10
55.488887
 20
91.882286
 30
0.0
 11
55.210433
 21
91.444984
 31
0.0
  0
LINE
  5
16C5
100
AcDbEntity
  8
0
100
AcDbLine
 10
55.210433
 20
91.444984
 30
0.0
 11
55.650693
 21
91.20946
 31
0.0
  0
LINE
  5
16C6
100
AcDbEntity
  8
0
100
AcDbLine
 10
55.650693
 20
91.20946
 30
0.0
 11
55.345293
 21
90.86984
 31
0.0
  0
LINE
  5
16C7
100
AcDbEntity
  8
0
100
AcDbLine
 10
55.345293
 20
90.86984
 30
0.0
 11
55.772116
 21
90.604723
 31
0.0
  0
LINE
  5
16C8
100
AcDbEntity
  8
0
100
AcDbLine
 10
55.095389
 20
93.130302
 30
0.0
 11
54.856108
 21
92.670395
 31
0.0
  0
LINE
  5
16C9
100
AcDbEntity
  8
0
100
AcDbLine
 10
54.856108
 20
92.670395
 30
0.0
 11
55.31522
 21
92.474139
 31
0.0
  0
LINE
  5
16CA
100
AcDbEntity
  8
0
100
AcDbLine
 10
55.31522
 20
92.474139
 30
0.0
 11
55.040582
 21
92.109195
 31
0.0
  0
LINE
  5
16CB
100
AcDbEntity
  8
0
100
AcDbLine
 10
55.040582
 20
92.109195
 30
0.0
 11
55.488887
 21
91.882286
 31
0.0
  0
LINE
  5
16CC
100
AcDbEntity
  8
0
100
AcDbLine
 10
54.594617
 20
94.339274
 30
0.0
 11
54.396329
 21
93.860262
 31
0.0
  0
LINE
  5
16CD
100
AcDbEntity
  8
0
100
AcDbLine
 10
54.396329
 20
93.860262
 30
0.0
 11
54.870799
 21
93.704767
 31
0.0
  0
LINE
  5
16CE
100
AcDbEntity
  8
0
100
AcDbLine
 10
54.870799
 20
93.704767
 30
0.0
 11
54.629014
 21
93.317275
 31
0.0
  0
LINE
  5
16CF
100
AcDbEntity
  8
0
100
AcDbLine
 10
54.629014
 20
93.317275
 30
0.0
 11
55.095389
 21
93.130302
 31
0.0
  0
LINE
  5
16D0
100
AcDbEntity
  8
0
100
AcDbLine
 10
53.990381
 20
95.5
 30
0.0
 11
53.834597
 21
95.005529
 31
0.0
  0
LINE
  5
16D1
100
AcDbEntity
  8
0
100
AcDbLine
 10
53.834597
 20
95.005529
 30
0.0
 11
54.320813
 21
94.891978
 31
0.0
  0
LINE
  5
16D2
100
AcDbEntity
  8
0
100
AcDbLine
 10
54.320813
 20
94.891978
 30
0.0
 11
54.11372
 21
94.484888
 31
0.0
  0
LINE
  5
16D3
100
AcDbEntity
  8
0
100
AcDbLine
 10
54.11372
 20
94.484888
 30
0.0
 11
54.594617
 21
94.339274
 31
0.0
  0
LINE
  5
16D4
100
AcDbEntity
  8
0
100
AcDbLine
 10
53.287281
 20
96.603647
 30
0.0
 11
53.175185
 21
96.09748
 31
0.0
  0
LINE
  5
16D5
100
AcDbEntity
  8
0
100
AcDbLine
 10
53.175185
 20
96.09748
 30
0.0
 11
53.669448
 21
96.026738
 31
0.0
  0
LINE
  5
16D6
100
AcDbEntity
  8
0
100
AcDbLine
 10
53.669448
 20
96.026738
 30
0.0
 11
53.498623
 21
95.603147
 31
0.0
  0
LINE
  5
16D7
100
AcDbEntity
  8
0
100
AcDbLine
 10
53.498623
 20
95.603147
 30
0.0
 11
53.990381
 21
95.5
 31
0.0
  0
LINE
  5
16D8
100
AcDbEntity
  8
0
100
AcDbLine
 10
52.490667
 20
97.641814
 30
0.0
 11
52.423113
 21
97.127804
 31
0.0
  0
LINE
  5
16D9
100
AcDbEntity
  8
0
100
AcDbLine
 10
52.423113
 20
97.127804
 30
0.0
 11
52.921661
 21
97.100409
 31
0.0
  0
LINE
  5
16DA
100
AcDbEntity
  8
0
100
AcDbLine
 10
52.921661
 20
97.100409
 30
0.0
 11
52.788404
 21
96.663542
 31
0.0
  0
LINE
  5
16DB
100
AcDbEntity
  8
0
100
AcDbLine
 10
52.788404
 20
96.663542
 30
0.0
 11
53.287281
 21
96.603647
 31
0.0
  0
LINE
  5
16DC
100
AcDbEntity
  8
0
100
AcDbLine
 10
51.606602
 20
98.606602
 30
0.0
 11
51.584104
 21
98.08866
 31
0.0
  0
LINE
  5
16DD
100
AcDbEntity
  8
0
100
AcDbLine
 10
51.584104
 20
98.08866
 30
0.0
 11
52.083142
 21
98.10482
 31
0.0
  0
LINE
  5
16DE
100
AcDbEntity
  8
0
100
AcDbLine
 10
52.083142
 20
98.10482
 30
0.0
 11
51.988468
 21
97.658001
 31
0.0
  0
LINE
  5
16DF
100
AcDbEntity
  8
0
100
AcDbLine
 10
51.988468
 20
97.658001
 30
0.0
 11
52.490667
 21
97.641814
 31
0.0
  0
LINE
  5
16E0
100
AcDbEntity
  8
0
100
AcDbLine
 10
50.641814
 20
99.490667
 30
0.0
 11
50.664543
 21
98.972735
 31
0.0
  0
LINE
  5
16E1
100
AcDbEntity
  8
0
100
AcDbLine
 10
50.664543
 20
98.972735
 30
0.0
 11
51.160275
 21
99.032328
 31
0.0
  0
LINE
  5
16E2
100
AcDbEntity
  8
0
100
AcDbLine
 10
51.160275
 20
99.032328
 30
0.0
 11
51.104904
 21
98.578958
 31
0.0
  0
LINE
  5
16E3
100
AcDbEntity
  8
0
100
AcDbLine
 10
51.104904
 20
98.578958
 30
0.0
 11
51.606602
 21
98.606602
 31
0.0
  0
LINE
  5
16E4
100
AcDbEntity
  8
0
100
AcDbLine
 10
49.603647
 20
100.287281
 30
0.0
 11
49.67143
 21
99.773301
 31
0.0
  0
LINE
  5
16E5
100
AcDbEntity
  8
0
100
AcDbLine
 10
49.67143
 20
99.773301
 30
0.0
 11
50.160081
 21
99.875873
 31
0.0
  0
LINE
  5
16E6
100
AcDbEntity
  8
0
100
AcDbLine
 10
50.160081
 20
99.875873
 30
0.0
 11
50.144434
 21
99.419402
 31
0.0
  0
LINE
  5
16E7
100
AcDbEntity
  8
0
100
AcDbLine
 10
50.144434
 20
99.419402
 30
0.0
 11
50.641814
 21
99.490667
 31
0.0
  0
LINE
  5
16E8
100
AcDbEntity
  8
0
100
AcDbLine
 10
48.5
 20
100.990381
 30
0.0
 11
48.612322
 21
100.484265
 31
0.0
  0
LINE
  5
16E9
100
AcDbEntity
  8
0
100
AcDbLine
 10
48.612322
 20
100.484265
 30
0.0
 11
49.090174
 21
100.629035
 31
0.0
  0
LINE
  5
16EA
100
AcDbEntity
  8
0
100
AcDbLine
 10
49.090174
 20
100.629035
 30
0.0
 11
49.114371
 21
100.172938
 31
0.0
  0
LINE
  5
16EB
100
AcDbEntity
  8
0
100
AcDbLine
 10
49.114371
 20
100.172938
 30
0.0
 11
49.603647
 21
100.287281
 31
0.0
  0
LINE
  5
16EC
100
AcDbEntity
  8
0
100
AcDbLine
 10
47.339274
 20
101.594617
 30
0.0
 11
47.495279
 21
101.100216
 31
0.0
  0
LINE
  5
16ED
100
AcDbEntity
  8
0
100
AcDbLine
 10
47.495279
 20
101.100216
 30
0.0
 11
47.958695
 21
101.286083
 31
0.0
  0
LINE
  5
16EE
100
AcDbEntity
  8
0
100
AcDbLine
 10
47.958695
 20
101.286083
 30
0.0
 11
48.022552
 21
100.83383
 31
0.0
  0
LINE
  5
16EF
100
AcDbEntity
  8
0
100
AcDbLine
 10
48.022552
 20
100.83383
 30
0.0
 11
48.5
 21
100.990381
 31
0.0
  0
LINE
  5
16F0
100
AcDbEntity
  8
0
100
AcDbLine
 10
46.130302
 20
102.095389
 30
0.0
 11
46.328804
 21
101.616466
 31
0.0
  0
LINE
  5
16F1
100
AcDbEntity
  8
0
100
AcDbLine
 10
46.328804
 20
101.616466
 30
0.0
 11
46.774257
 21
101.842016
 31
0.0
  0
LINE
  5
16F2
100
AcDbEntity
  8
0
100
AcDbLine
 10
46.774257
 20
101.842016
 30
0.0
 11
46.877287
 21
101.397049
 31
0.0
  0
LINE
  5
16F3
100
AcDbEntity
  8
0
100
AcDbLine
 10
46.877287
 20
101.397049
 30
0.0
 11
47.339274
 21
101.594617
 31
0.0
  0
LINE
  5
16F4
100
AcDbEntity
  8
0
100
AcDbLine
 10
44.882286
 20
102.488887
 30
0.0
 11
45.121773
 21
102.029088
 31
0.0
  0
LINE
  5
16F5
100
AcDbEntity
  8
0
100
AcDbLine
 10
45.121773
 20
102.029088
 30
0.0
 11
45.545873
 21
102.292602
 31
0.0
  0
LINE
  5
16F6
100
AcDbEntity
  8
0
100
AcDbLine
 10
45.545873
 20
102.292602
 30
0.0
 11
45.687292
 21
101.858309
 31
0.0
  0
LINE
  5
16F7
100
AcDbEntity
  8
0
100
AcDbLine
 10
45.687292
 20
101.858309
 30
0.0
 11
46.130302
 21
102.095389
 31
0.0
  0
LINE
  5
16F8
100
AcDbEntity
  8
1
100
AcDbLine
 10
79.0
 20
88.0
 30
0.0
 11
106.75
 21
88.0
 31
0.0
  0
LINE
  5
16F9
100
AcDbEntity
  8
0
100
AcDbLine
 10
84.5
 20
88.0
 30
0.0
 11
84.5
 21
102.5
 31
0.0
  0
LINE
  5
16FA
100
AcDbEntity
  8
0
100
AcDbLine
 10
85.0
 20
103.0
 30
0.0
 11
96.0
 21
103.0
 31
0.0
  0
LINE
  5
16FB
100
AcDbEntity
  8
0
100
AcDbLine
 10
96.5
 20
102.5
 30
0.0
 11
96.5
 21
88.0
 31
0.0
  0
LINE
  5
16FC
100
AcDbEntity
  8
0
100
AcDbLine
 10
96.5
 20
88.0
 30
0.0
 11
96.5
 21
98.0
 31
0.0
  0
LINE
  5
16FD
100
AcDbEntity
  8
0
100
AcDbLine
 10
96.5
 20
98.0
 30
0.0
 11
101.0
 21
98.0
 31
0.0
  0
LINE
  5
16FE
100
AcDbEntity
  8
0
100
AcDbLine
 10
101.5
 20
97.5
 30
0.0
 11
101.5
 21
88.0
 31
0.0
  0
ARC
  5
16FF
100
AcDbEntity
  8
0
100
AcDbCircle
 10
101.0
 20
97.5
 30
0.0
 40
0.5
100
AcDbArc
 50
0.0
 51
90.0
  0
ARC
  5
1700
100
AcDbEntity
  8
0
100
AcDbCircle
 10
96.0
 20
102.5
 30
0.0
 40
0.5
100
AcDbArc
 50
0.0
 51
90.0
  0
ARC
  5
1701
100
AcDbEntity
  8
0
100
AcDbCircle
 10
85.0
 20
102.5
 30
0.0
 40
0.5
100
AcDbArc
 50
90.0
 51
180.0
  0
LINE
  5
1702
100
AcDbEntity
  8
0
100
AcDbLine
 10
85.5
 20
88.5
 30
0.0
 11
95.75
 21
88.5
 31
0.0
  0
LINE
  5
1703
100
AcDbEntity
  8
0
100
AcDbLine
 10
85.5
 20
89.5
 30
0.0
 11
95.75
 21
89.5
 31
0.0
  0
LINE
  5
1704
100
AcDbEntity
  8
0
100
AcDbLine
 10
85.5
 20
90.5
 30
0.0
 11
95.75
 21
90.5
 31
0.0
  0
LINE
  5
1705
100
AcDbEntity
  8
0
100
AcDbLine
 10
85.5
 20
91.5
 30
0.0
 11
95.75
 21
91.5
 31
0.0
  0
LINE
  5
1706
100
AcDbEntity
  8
0
100
AcDbLine
 10
85.5
 20
92.5
 30
0.0
 11
95.75
 21
92.5
 31
0.0
  0
LINE
  5
1707
100
AcDbEntity
  8
0
100
AcDbLine
 10
85.5
 20
93.5
 30
0.0
 11
95.75
 21
93.5
 31
0.0
  0
LINE
  5
1708
100
AcDbEntity
  8
0
100
AcDbLine
 10
85.5
 20
94.5
 30
0.0
 11
95.75
 21
94.5
 31
0.0
  0
LINE
  5
1709
100
AcDbEntity
  8
0
100
AcDbLine
 10
85.5
 20
95.5
 30
0.0
 11
95.75
 21
95.5
 31
0.0
  0
LINE
  5
170A
100
AcDbEntity
  8
0
100
AcDbLine
 10
85.5
 20
96.5
 30
0.0
 11
95.75
 21
96.5
 31
0.0
  0
LINE
  5
170B
100
AcDbEntity
  8
0
100
AcDbLine
 10
85.5
 20
97.5
 30
0.0
 11
95.75
 21
97.5
 31
0.0
  0
LINE
  5
170C
100
AcDbEntity
  8
0
100
AcDbLine
 10
85.5
 20
98.5
 30
0.0
 11
95.75
 21
98.5
 31
0.0
  0
LINE
  5
170D
100
AcDbEntity
  8
0
100
AcDbLine
 10
85.5
 20
99.5
 30
0.0
 11
95.75
 21
99.5
 31
0.0
  0
LINE
  5
170E
100
AcDbEntity
  8
0
100
AcDbLine
 10
85.5
 20
100.5
 30
0.0
 11
95.75
 21
100.5
 31
0.0
  0
LINE
  5
170F
100
AcDbEntity
  8
0
100
AcDbLine
 10
85.5
 20
101.5
 30
0.0
 11
95.75
 21
101.5
 31
0.0
  0
LINE
  5
1710
100
AcDbEntity
  8
0
100
AcDbLine
 10
85.5
 20
102.5
 30
0.0
 11
95.75
 21
102.5
 31
0.0
  0
LINE
  5
1712
100
AcDbEntity
  8
2
100
AcDbLine
 10
91.5
 20
88.0
 30
0.0
 11
91.5
 21
100.0
 31
0.0
  0
LINE
  5
1713
100
AcDbEntity
  8
2
100
AcDbLine
 10
91.5
 20
100.0
 30
0.0
 11
84.5
 21
100.0
 31
0.0
  0
LINE
  5
1714
100
AcDbEntity
  8
2
100
AcDbLine
 10
101.5
 20
92.5
 30
0.0
 11
101.0
 21
91.5
 31
0.0
  0
LINE
  5
1715
100
AcDbEntity
  8
2
100
AcDbLine
 10
101.0
 20
91.5
 30
0.0
 11
101.0
 21
88.0
 31
0.0
  0
LINE
  5
1716
100
AcDbEntity
  8
2
100
AcDbLine
 10
101.0
 20
91.5
 30
0.0
 11
91.5
 21
91.5
 31
0.0
  0
LINE
  5
1717
100
AcDbEntity
  8
2
100
AcDbLine
 10
101.25
 20
92.0
 30
0.0
 11
91.5
 21
92.0
 31
0.0
  0
LINE
  5
1718
100
AcDbEntity
  8
2
100
AcDbLine
 10
101.25
 20
84.0
 30
0.0
 11
91.5
 21
84.0
 31
0.0
  0
LINE
  5
1719
100
AcDbEntity
  8
2
100
AcDbLine
 10
101.0
 20
84.5
 30
0.0
 11
91.5
 21
84.5
 31
0.0
  0
LINE
  5
171A
100
AcDbEntity
  8
0
100
AcDbLine
 10
85.5
 20
73.5
 30
0.0
 11
95.75
 21
73.5
 31
0.0
  0
LINE
  5
171B
100
AcDbEntity
  8
0
100
AcDbLine
 10
85.5
 20
74.5
 30
0.0
 11
95.75
 21
74.5
 31
0.0
  0
LINE
  5
171C
100
AcDbEntity
  8
0
100
AcDbLine
 10
85.5
 20
75.5
 30
0.0
 11
95.75
 21
75.5
 31
0.0
  0
LINE
  5
171D
100
AcDbEntity
  8
0
100
AcDbLine
 10
85.5
 20
76.5
 30
0.0
 11
95.75
 21
76.5
 31
0.0
  0
LINE
  5
171E
100
AcDbEntity
  8
0
100
AcDbLine
 10
85.5
 20
77.5
 30
0.0
 11
95.75
 21
77.5
 31
0.0
  0
LINE
  5
171F
100
AcDbEntity
  8
0
100
AcDbLine
 10
85.5
 20
78.5
 30
0.0
 11
95.75
 21
78.5
 31
0.0
  0
LINE
  5
1720
100
AcDbEntity
  8
0
100
AcDbLine
 10
85.5
 20
79.5
 30
0.0
 11
95.75
 21
79.5
 31
0.0
  0
LINE
  5
1721
100
AcDbEntity
  8
0
100
AcDbLine
 10
85.5
 20
80.5
 30
0.0
 11
95.75
 21
80.5
 31
0.0
  0
LINE
  5
1722
100
AcDbEntity
  8
0
100
AcDbLine
 10
85.5
 20
81.5
 30
0.0
 11
95.75
 21
81.5
 31
0.0
  0
LINE
  5
1723
100
AcDbEntity
  8
0
100
AcDbLine
 10
85.5
 20
82.5
 30
0.0
 11
95.75
 21
82.5
 31
0.0
  0
LINE
  5
1724
100
AcDbEntity
  8
0
100
AcDbLine
 10
85.5
 20
83.5
 30
0.0
 11
95.75
 21
83.5
 31
0.0
  0
LINE
  5
1725
100
AcDbEntity
  8
0
100
AcDbLine
 10
85.5
 20
84.5
 30
0.0
 11
95.75
 21
84.5
 31
0.0
  0
LINE
  5
1726
100
AcDbEntity
  8
0
100
AcDbLine
 10
85.5
 20
85.5
 30
0.0
 11
95.75
 21
85.5
 31
0.0
  0
LINE
  5
1727
100
AcDbEntity
  8
0
100
AcDbLine
 10
85.5
 20
86.5
 30
0.0
 11
95.75
 21
86.5
 31
0.0
  0
LINE
  5
1728
100
AcDbEntity
  8
0
100
AcDbLine
 10
85.5
 20
87.5
 30
0.0
 11
95.75
 21
87.5
 31
0.0
  0
LINE
  5
1729
100
AcDbEntity
  8
0
100
AcDbLine
 10
85.0
 20
73.0
 30
0.0
 11
96.0
 21
73.0
 31
0.0
  0
LINE
  5
172A
100
AcDbEntity
  8
2
100
AcDbLine
 10
91.5
 20
88.0
 30
0.0
 11
91.5
 21
76.0
 31
0.0
  0
LINE
  5
172B
100
AcDbEntity
  8
0
100
AcDbLine
 10
84.5
 20
88.0
 30
0.0
 11
84.5
 21
73.5
 31
0.0
  0
LINE
  5
172C
100
AcDbEntity
  8
2
100
AcDbLine
 10
91.5
 20
76.0
 30
0.0
 11
84.5
 21
76.0
 31
0.0
  0
ARC
  5
172D
100
AcDbEntity
  8
0
100
AcDbCircle
 10
85.0
 20
73.5
 30
0.0
 40
0.5
100
AcDbArc
 50
180.0
 51
270.0
  0
LINE
  5
172E
100
AcDbEntity
  8
0
100
AcDbLine
 10
96.5
 20
73.5
 30
0.0
 11
96.5
 21
88.0
 31
0.0
  0
LINE
  5
172F
100
AcDbEntity
  8
2
100
AcDbLine
 10
101.5
 20
83.5
 30
0.0
 11
101.0
 21
84.5
 31
0.0
  0
ARC
  5
1730
100
AcDbEntity
  8
0
100
AcDbCircle
 10
101.0
 20
78.5
 30
0.0
 40
0.5
100
AcDbArc
 50
270.0
 51
0.0
  0
LINE
  5
1731
100
AcDbEntity
  8
0
100
AcDbLine
 10
96.5
 20
88.0
 30
0.0
 11
96.5
 21
78.0
 31
0.0
  0
LINE
  5
1732
100
AcDbEntity
  8
2
100
AcDbLine
 10
101.0
 20
84.5
 30
0.0
 11
101.0
 21
88.0
 31
0.0
  0
LINE
  5
1733
100
AcDbEntity
  8
0
100
AcDbLine
 10
96.5
 20
78.0
 30
0.0
 11
101.0
 21
78.0
 31
0.0
  0
LINE
  5
1734
100
AcDbEntity
  8
0
100
AcDbLine
 10
101.5
 20
78.5
 30
0.0
 11
101.5
 21
88.0
 31
0.0
  0
ARC
  5
1735
100
AcDbEntity
  8
0
100
AcDbCircle
 10
96.0
 20
73.5
 30
0.0
 40
0.5
100
AcDbArc
 50
270.0
 51
0.0
  0
LINE
  5
1736
100
AcDbEntity
  8
0
100
AcDbLine
 10
159.084939
 20
85.116627
 30
0.0
 11
159.384413
 21
84.717108
 31
0.0
  0
LINE
  5
1737
100
AcDbEntity
  8
0
100
AcDbLine
 10
130.099307
 20
84.79054
 30
0.0
 11
130.404707
 21
85.13016
 31
0.0
  0
CIRCLE
  5
1739
100
AcDbEntity
  8
0
100
AcDbCircle
 10
144.75
 20
88.0
 30
0.0
 40
4.0
  0
CIRCLE
  5
173A
100
AcDbEntity
  8
0
100
AcDbCircle
 10
144.75
 20
88.0
 30
0.0
 40
3.0
  0
LINE
  5
173B
100
AcDbEntity
  8
1
100
AcDbLine
 10
144.75
 20
67.5
 30
0.0
 11
144.75
 21
109.5
 31
0.0
  0
LINE
  5
173C
100
AcDbEntity
  8
0
100
AcDbLine
 10
131.63628
 20
81.515112
 30
0.0
 11
131.155383
 21
81.660726
 31
0.0
  0
LINE
  5
173D
100
AcDbEntity
  8
0
100
AcDbLine
 10
131.429187
 20
81.108022
 30
0.0
 11
131.63628
 21
81.515112
 31
0.0
  0
LINE
  5
173E
100
AcDbEntity
  8
0
100
AcDbLine
 10
131.915403
 20
80.994471
 30
0.0
 11
131.429187
 21
81.108022
 31
0.0
  0
LINE
  5
173F
100
AcDbEntity
  8
0
100
AcDbLine
 10
131.155383
 20
81.660726
 30
0.0
 11
131.353671
 21
82.139738
 31
0.0
  0
LINE
  5
1740
100
AcDbEntity
  8
0
100
AcDbLine
 10
131.120986
 20
82.682725
 30
0.0
 11
130.654611
 21
82.869698
 31
0.0
  0
LINE
  5
1741
100
AcDbEntity
  8
0
100
AcDbLine
 10
130.879201
 20
82.295233
 30
0.0
 11
131.120986
 21
82.682725
 31
0.0
  0
LINE
  5
1742
100
AcDbEntity
  8
0
100
AcDbLine
 10
131.353671
 20
82.139738
 30
0.0
 11
130.879201
 21
82.295233
 31
0.0
  0
LINE
  5
1743
100
AcDbEntity
  8
0
100
AcDbLine
 10
130.709418
 20
83.890805
 30
0.0
 11
130.261113
 21
84.117714
 31
0.0
  0
LINE
  5
1744
100
AcDbEntity
  8
0
100
AcDbLine
 10
130.43478
 20
83.525861
 30
0.0
 11
130.709418
 21
83.890805
 31
0.0
  0
LINE
  5
1745
100
AcDbEntity
  8
0
100
AcDbLine
 10
130.893892
 20
83.329605
 30
0.0
 11
130.43478
 21
83.525861
 31
0.0
  0
LINE
  5
1746
100
AcDbEntity
  8
0
100
AcDbLine
 10
130.654611
 20
82.869698
 30
0.0
 11
130.893892
 21
83.329605
 31
0.0
  0
LINE
  5
1747
100
AcDbEntity
  8
0
100
AcDbLine
 10
130.539567
 20
84.555016
 30
0.0
 11
130.099307
 21
84.79054
 31
0.0
  0
LINE
  5
1748
100
AcDbEntity
  8
0
100
AcDbLine
 10
130.261113
 20
84.117714
 30
0.0
 11
130.539567
 21
84.555016
 31
0.0
  0
LINE
  5
1749
100
AcDbEntity
  8
0
100
AcDbLine
 10
148.859195
 20
73.959418
 30
0.0
 11
148.632286
 21
73.511113
 31
0.0
  0
LINE
  5
174A
100
AcDbEntity
  8
0
100
AcDbLine
 10
140.204127
 20
73.707398
 30
0.0
 11
140.062708
 21
74.141691
 31
0.0
  0
LINE
  5
174B
100
AcDbEntity
  8
0
100
AcDbLine
 10
133.259333
 20
78.358186
 30
0.0
 11
133.326887
 21
78.872196
 31
0.0
  0
LINE
  5
174C
100
AcDbEntity
  8
0
100
AcDbLine
 10
136.07857
 20
76.226699
 30
0.0
 11
135.589919
 21
76.124127
 31
0.0
  0
LINE
  5
174D
100
AcDbEntity
  8
0
100
AcDbLine
 10
133.761532
 20
78.341999
 30
0.0
 11
133.259333
 21
78.358186
 31
0.0
  0
LINE
  5
174E
100
AcDbEntity
  8
0
100
AcDbLine
 10
135.605566
 20
76.580598
 30
0.0
 11
135.108186
 21
76.509333
 31
0.0
  0
LINE
  5
174F
100
AcDbEntity
  8
0
100
AcDbLine
 10
135.589919
 20
76.124127
 30
0.0
 11
135.605566
 21
76.580598
 31
0.0
  0
LINE
  5
1750
100
AcDbEntity
  8
0
100
AcDbLine
 10
134.645096
 20
77.421042
 30
0.0
 11
134.143398
 21
77.393398
 31
0.0
  0
LINE
  5
1751
100
AcDbEntity
  8
0
100
AcDbLine
 10
134.589725
 20
76.967672
 30
0.0
 11
134.645096
 21
77.421042
 31
0.0
  0
LINE
  5
1752
100
AcDbEntity
  8
0
100
AcDbLine
 10
135.085457
 20
77.027265
 30
0.0
 11
134.589725
 21
76.967672
 31
0.0
  0
LINE
  5
1753
100
AcDbEntity
  8
0
100
AcDbLine
 10
135.108186
 20
76.509333
 30
0.0
 11
135.085457
 21
77.027265
 31
0.0
  0
LINE
  5
1754
100
AcDbEntity
  8
0
100
AcDbLine
 10
133.666858
 20
77.89518
 30
0.0
 11
133.761532
 21
78.341999
 31
0.0
  0
LINE
  5
1755
100
AcDbEntity
  8
0
100
AcDbLine
 10
134.165896
 20
77.91134
 30
0.0
 11
133.666858
 21
77.89518
 31
0.0
  0
LINE
  5
1756
100
AcDbEntity
  8
0
100
AcDbLine
 10
134.143398
 20
77.393398
 30
0.0
 11
134.165896
 21
77.91134
 31
0.0
  0
LINE
  5
1757
100
AcDbEntity
  8
0
100
AcDbLine
 10
137.727448
 20
75.16617
 30
0.0
 11
137.25
 21
75.009619
 31
0.0
  0
LINE
  5
1758
100
AcDbEntity
  8
0
100
AcDbLine
 10
137.791305
 20
74.713917
 30
0.0
 11
137.727448
 21
75.16617
 31
0.0
  0
LINE
  5
1759
100
AcDbEntity
  8
0
100
AcDbLine
 10
137.25
 20
75.009619
 30
0.0
 11
137.137678
 21
75.515735
 31
0.0
  0
LINE
  5
175A
100
AcDbEntity
  8
0
100
AcDbLine
 10
138.254721
 20
74.899784
 30
0.0
 11
137.791305
 21
74.713917
 31
0.0
  0
LINE
  5
175B
100
AcDbEntity
  8
0
100
AcDbLine
 10
140.062708
 20
74.141691
 30
0.0
 11
139.619698
 21
73.904611
 31
0.0
  0
LINE
  5
175C
100
AcDbEntity
  8
0
100
AcDbLine
 10
138.872713
 20
74.602951
 30
0.0
 11
138.410726
 21
74.405383
 31
0.0
  0
LINE
  5
175D
100
AcDbEntity
  8
0
100
AcDbLine
 10
138.975743
 20
74.157984
 30
0.0
 11
138.872713
 21
74.602951
 31
0.0
  0
LINE
  5
175E
100
AcDbEntity
  8
0
100
AcDbLine
 10
139.421196
 20
74.383534
 30
0.0
 11
138.975743
 21
74.157984
 31
0.0
  0
LINE
  5
175F
100
AcDbEntity
  8
0
100
AcDbLine
 10
139.619698
 20
73.904611
 30
0.0
 11
139.421196
 21
74.383534
 31
0.0
  0
LINE
  5
1760
100
AcDbEntity
  8
0
100
AcDbLine
 10
138.410726
 20
74.405383
 30
0.0
 11
138.254721
 21
74.899784
 31
0.0
  0
LINE
  5
1761
100
AcDbEntity
  8
0
100
AcDbLine
 10
136.635629
 20
75.827062
 30
0.0
 11
136.146353
 21
75.712719
 31
0.0
  0
LINE
  5
1762
100
AcDbEntity
  8
0
100
AcDbLine
 10
136.659826
 20
75.370965
 30
0.0
 11
136.635629
 21
75.827062
 31
0.0
  0
LINE
  5
1763
100
AcDbEntity
  8
0
100
AcDbLine
 10
137.137678
 20
75.515735
 30
0.0
 11
136.659826
 21
75.370965
 31
0.0
  0
LINE
  5
1764
100
AcDbEntity
  8
0
100
AcDbLine
 10
136.146353
 20
75.712719
 30
0.0
 11
136.07857
 21
76.226699
 31
0.0
  0
LINE
  5
1765
100
AcDbEntity
  8
0
100
AcDbLine
 10
132.961596
 20
79.336458
 30
0.0
 11
132.462719
 21
79.396353
 31
0.0
  0
LINE
  5
1766
100
AcDbEntity
  8
0
100
AcDbLine
 10
132.828339
 20
78.899591
 30
0.0
 11
132.961596
 21
79.336458
 31
0.0
  0
LINE
  5
1767
100
AcDbEntity
  8
0
100
AcDbLine
 10
133.326887
 20
78.872196
 30
0.0
 11
132.828339
 21
78.899591
 31
0.0
  0
LINE
  5
1768
100
AcDbEntity
  8
0
100
AcDbLine
 10
132.251377
 20
80.396853
 30
0.0
 11
131.759619
 21
80.5
 31
0.0
  0
LINE
  5
1769
100
AcDbEntity
  8
0
100
AcDbLine
 10
132.080552
 20
79.973262
 30
0.0
 11
132.251377
 21
80.396853
 31
0.0
  0
LINE
  5
176A
100
AcDbEntity
  8
0
100
AcDbLine
 10
132.574815
 20
79.90252
 30
0.0
 11
132.080552
 21
79.973262
 31
0.0
  0
LINE
  5
176B
100
AcDbEntity
  8
0
100
AcDbLine
 10
132.462719
 20
79.396353
 30
0.0
 11
132.574815
 21
79.90252
 31
0.0
  0
LINE
  5
176C
100
AcDbEntity
  8
0
100
AcDbLine
 10
131.759619
 20
80.5
 30
0.0
 11
131.915403
 21
80.994471
 31
0.0
  0
LINE
  5
176D
100
AcDbEntity
  8
0
100
AcDbLine
 10
144.399668
 20
73.382149
 30
0.0
 11
144.058222
 21
73.017848
 31
0.0
  0
LINE
  5
176E
100
AcDbEntity
  8
0
100
AcDbLine
 10
142.540389
 20
73.53829
 30
0.0
 11
142.145277
 21
73.227884
 31
0.0
  0
LINE
  5
176F
100
AcDbEntity
  8
0
100
AcDbLine
 10
141.288376
 20
73.785902
 30
0.0
 11
140.867714
 21
73.511113
 31
0.0
  0
LINE
  5
1770
100
AcDbEntity
  8
0
100
AcDbLine
 10
141.467108
 20
73.365587
 30
0.0
 11
141.288376
 21
73.785902
 31
0.0
  0
LINE
  5
1771
100
AcDbEntity
  8
0
100
AcDbLine
 10
141.866627
 20
73.665061
 30
0.0
 11
141.467108
 21
73.365587
 31
0.0
  0
LINE
  5
1772
100
AcDbEntity
  8
0
100
AcDbLine
 10
142.145277
 20
73.227884
 30
0.0
 11
141.866627
 21
73.665061
 31
0.0
  0
LINE
  5
1773
100
AcDbEntity
  8
0
100
AcDbLine
 10
140.628227
 20
73.970912
 30
0.0
 11
140.204127
 21
73.707398
 31
0.0
  0
LINE
  5
1774
100
AcDbEntity
  8
0
100
AcDbLine
 10
140.867714
 20
73.511113
 30
0.0
 11
140.628227
 21
73.970912
 31
0.0
  0
LINE
  5
1775
100
AcDbEntity
  8
0
100
AcDbLine
 10
143.809218
 20
73.400741
 30
0.0
 11
143.442664
 21
73.05708
 31
0.0
  0
LINE
  5
1776
100
AcDbEntity
  8
0
100
AcDbLine
 10
144.058222
 20
73.017848
 30
0.0
 11
143.809218
 21
73.400741
 31
0.0
  0
LINE
  5
1777
100
AcDbEntity
  8
0
100
AcDbLine
 10
142.755073
 20
73.135152
 30
0.0
 11
142.540389
 21
73.53829
 31
0.0
  0
LINE
  5
1778
100
AcDbEntity
  8
0
100
AcDbLine
 10
143.126972
 20
73.468307
 30
0.0
 11
142.755073
 21
73.135152
 31
0.0
  0
LINE
  5
1779
100
AcDbEntity
  8
0
100
AcDbLine
 10
143.442664
 20
73.05708
 30
0.0
 11
143.126972
 21
73.468307
 31
0.0
  0
LINE
  5
177A
100
AcDbEntity
  8
0
100
AcDbLine
 10
146.670355
 20
73.125334
 30
0.0
 11
146.358645
 21
73.459172
 31
0.0
  0
LINE
  5
177B
100
AcDbEntity
  8
0
100
AcDbLine
 10
146.358645
 20
73.459172
 30
0.0
 11
146.057336
 21
73.05708
 31
0.0
  0
LINE
  5
177C
100
AcDbEntity
  8
0
100
AcDbLine
 10
145.085207
 20
73.374301
 30
0.0
 11
144.75
 21
73.0
 31
0.0
  0
LINE
  5
177D
100
AcDbEntity
  8
0
100
AcDbLine
 10
145.366635
 20
73.014567
 30
0.0
 11
145.085207
 21
73.374301
 31
0.0
  0
LINE
  5
177E
100
AcDbEntity
  8
0
100
AcDbLine
 10
145.675031
 20
73.407241
 30
0.0
 11
145.366635
 21
73.014567
 31
0.0
  0
LINE
  5
177F
100
AcDbEntity
  8
0
100
AcDbLine
 10
146.057336
 20
73.05708
 30
0.0
 11
145.675031
 21
73.407241
 31
0.0
  0
LINE
  5
1780
100
AcDbEntity
  8
0
100
AcDbLine
 10
144.75
 20
73.0
 30
0.0
 11
144.399668
 21
73.382149
 31
0.0
  0
LINE
  5
1781
100
AcDbEntity
  8
0
100
AcDbLine
 10
147.61984
 20
73.654707
 30
0.0
 11
147.354723
 21
73.227884
 31
0.0
  0
LINE
  5
1782
100
AcDbEntity
  8
0
100
AcDbLine
 10
147.95946
 20
73.349307
 30
0.0
 11
147.61984
 21
73.654707
 31
0.0
  0
LINE
  5
1783
100
AcDbEntity
  8
0
100
AcDbLine
 10
148.194984
 20
73.789567
 30
0.0
 11
147.95946
 21
73.349307
 31
0.0
  0
LINE
  5
1784
100
AcDbEntity
  8
0
100
AcDbLine
 10
148.632286
 20
73.511113
 30
0.0
 11
148.194984
 21
73.789567
 31
0.0
  0
LINE
  5
1785
100
AcDbEntity
  8
0
100
AcDbLine
 10
146.943354
 20
73.543392
 30
0.0
 11
146.670355
 21
73.125334
 31
0.0
  0
LINE
  5
1786
100
AcDbEntity
  8
0
100
AcDbLine
 10
147.354723
 20
73.227884
 30
0.0
 11
146.943354
 21
73.543392
 31
0.0
  0
LINE
  5
1787
100
AcDbEntity
  8
0
100
AcDbLine
 10
157.379035
 20
79.909826
 30
0.0
 11
156.922938
 21
79.885629
 31
0.0
  0
LINE
  5
1788
100
AcDbEntity
  8
0
100
AcDbLine
 10
157.234265
 20
80.387678
 30
0.0
 11
157.379035
 21
79.909826
 31
0.0
  0
LINE
  5
1789
100
AcDbEntity
  8
0
100
AcDbLine
 10
157.740381
 20
80.5
 30
0.0
 11
157.234265
 21
80.387678
 31
0.0
  0
LINE
  5
178A
100
AcDbEntity
  8
0
100
AcDbLine
 10
156.169402
 20
78.855566
 30
0.0
 11
156.240667
 21
78.358186
 31
0.0
  0
LINE
  5
178B
100
AcDbEntity
  8
0
100
AcDbLine
 10
153.353647
 20
75.712719
 30
0.0
 11
152.84748
 21
75.824815
 31
0.0
  0
LINE
  5
178C
100
AcDbEntity
  8
0
100
AcDbLine
 10
152.353147
 20
75.501377
 30
0.0
 11
152.25
 21
75.009619
 31
0.0
  0
LINE
  5
178D
100
AcDbEntity
  8
0
100
AcDbLine
 10
151.755529
 20
75.165403
 30
0.0
 11
151.641978
 21
74.679187
 31
0.0
  0
LINE
  5
178E
100
AcDbEntity
  8
0
100
AcDbLine
 10
152.25
 20
75.009619
 30
0.0
 11
151.755529
 21
75.165403
 31
0.0
  0
LINE
  5
178F
100
AcDbEntity
  8
0
100
AcDbLine
 10
151.089274
 20
74.405383
 30
0.0
 11
150.610262
 21
74.603671
 31
0.0
  0
LINE
  5
1790
100
AcDbEntity
  8
0
100
AcDbLine
 10
150.067275
 20
74.370986
 30
0.0
 11
149.880302
 21
73.904611
 31
0.0
  0
LINE
  5
1791
100
AcDbEntity
  8
0
100
AcDbLine
 10
150.454767
 20
74.129201
 30
0.0
 11
150.067275
 21
74.370986
 31
0.0
  0
LINE
  5
1792
100
AcDbEntity
  8
0
100
AcDbLine
 10
150.610262
 20
74.603671
 30
0.0
 11
150.454767
 21
74.129201
 31
0.0
  0
LINE
  5
1793
100
AcDbEntity
  8
0
100
AcDbLine
 10
149.224139
 20
73.68478
 30
0.0
 11
148.859195
 21
73.959418
 31
0.0
  0
LINE
  5
1794
100
AcDbEntity
  8
0
100
AcDbLine
 10
149.420395
 20
74.143892
 30
0.0
 11
149.224139
 21
73.68478
 31
0.0
  0
LINE
  5
1795
100
AcDbEntity
  8
0
100
AcDbLine
 10
149.880302
 20
73.904611
 30
0.0
 11
149.420395
 21
74.143892
 31
0.0
  0
LINE
  5
1796
100
AcDbEntity
  8
0
100
AcDbLine
 10
151.234888
 20
74.88628
 30
0.0
 11
151.089274
 21
74.405383
 31
0.0
  0
LINE
  5
1797
100
AcDbEntity
  8
0
100
AcDbLine
 10
151.641978
 20
74.679187
 30
0.0
 11
151.234888
 21
74.88628
 31
0.0
  0
LINE
  5
1798
100
AcDbEntity
  8
0
100
AcDbLine
 10
152.776738
 20
75.330552
 30
0.0
 11
152.353147
 21
75.501377
 31
0.0
  0
LINE
  5
1799
100
AcDbEntity
  8
0
100
AcDbLine
 10
152.84748
 20
75.824815
 30
0.0
 11
152.776738
 21
75.330552
 31
0.0
  0
LINE
  5
179A
100
AcDbEntity
  8
0
100
AcDbLine
 10
155.356602
 20
77.393398
 30
0.0
 11
154.83866
 21
77.415896
 31
0.0
  0
LINE
  5
179B
100
AcDbEntity
  8
0
100
AcDbLine
 10
154.408001
 20
77.011532
 30
0.0
 11
154.391814
 21
76.509333
 31
0.0
  0
LINE
  5
179C
100
AcDbEntity
  8
0
100
AcDbLine
 10
154.85482
 20
76.916858
 30
0.0
 11
154.408001
 21
77.011532
 31
0.0
  0
LINE
  5
179D
100
AcDbEntity
  8
0
100
AcDbLine
 10
154.83866
 20
77.415896
 30
0.0
 11
154.85482
 21
76.916858
 31
0.0
  0
LINE
  5
179E
100
AcDbEntity
  8
0
100
AcDbLine
 10
153.413542
 20
76.211596
 30
0.0
 11
153.353647
 21
75.712719
 31
0.0
  0
LINE
  5
179F
100
AcDbEntity
  8
0
100
AcDbLine
 10
153.850409
 20
76.078339
 30
0.0
 11
153.413542
 21
76.211596
 31
0.0
  0
LINE
  5
17A0
100
AcDbEntity
  8
0
100
AcDbLine
 10
153.877804
 20
76.576887
 30
0.0
 11
153.850409
 21
76.078339
 31
0.0
  0
LINE
  5
17A1
100
AcDbEntity
  8
0
100
AcDbLine
 10
154.391814
 20
76.509333
 30
0.0
 11
153.877804
 21
76.576887
 31
0.0
  0
LINE
  5
17A2
100
AcDbEntity
  8
0
100
AcDbLine
 10
155.328958
 20
77.895096
 30
0.0
 11
155.356602
 21
77.393398
 31
0.0
  0
LINE
  5
17A3
100
AcDbEntity
  8
0
100
AcDbLine
 10
155.782328
 20
77.839725
 30
0.0
 11
155.328958
 21
77.895096
 31
0.0
  0
LINE
  5
17A4
100
AcDbEntity
  8
0
100
AcDbLine
 10
155.722735
 20
78.335457
 30
0.0
 11
155.782328
 21
77.839725
 31
0.0
  0
LINE
  5
17A5
100
AcDbEntity
  8
0
100
AcDbLine
 10
156.240667
 20
78.358186
 30
0.0
 11
155.722735
 21
78.335457
 31
0.0
  0
LINE
  5
17A6
100
AcDbEntity
  8
0
100
AcDbLine
 10
156.922938
 20
79.885629
 30
0.0
 11
157.037281
 21
79.396353
 31
0.0
  0
LINE
  5
17A7
100
AcDbEntity
  8
0
100
AcDbLine
 10
156.625873
 20
78.839919
 30
0.0
 11
156.169402
 21
78.855566
 31
0.0
  0
LINE
  5
17A8
100
AcDbEntity
  8
0
100
AcDbLine
 10
156.523301
 20
79.32857
 30
0.0
 11
156.625873
 21
78.839919
 31
0.0
  0
LINE
  5
17A9
100
AcDbEntity
  8
0
100
AcDbLine
 10
157.037281
 20
79.396353
 30
0.0
 11
156.523301
 21
79.32857
 31
0.0
  0
LINE
  5
17AA
100
AcDbEntity
  8
0
100
AcDbLine
 10
158.147049
 20
82.122713
 30
0.0
 11
158.344617
 21
81.660726
 31
0.0
  0
LINE
  5
17AB
100
AcDbEntity
  8
0
100
AcDbLine
 10
157.58383
 20
80.977448
 30
0.0
 11
157.740381
 21
80.5
 31
0.0
  0
LINE
  5
17AC
100
AcDbEntity
  8
0
100
AcDbLine
 10
158.036083
 20
81.041305
 30
0.0
 11
157.58383
 21
80.977448
 31
0.0
  0
LINE
  5
17AD
100
AcDbEntity
  8
0
100
AcDbLine
 10
157.850216
 20
81.504721
 30
0.0
 11
158.036083
 21
81.041305
 31
0.0
  0
LINE
  5
17AE
100
AcDbEntity
  8
0
100
AcDbLine
 10
158.344617
 20
81.660726
 30
0.0
 11
157.850216
 21
81.504721
 31
0.0
  0
LINE
  5
17AF
100
AcDbEntity
  8
0
100
AcDbLine
 10
158.964098
 20
84.538376
 30
0.0
 11
159.238887
 21
84.117714
 31
0.0
  0
LINE
  5
17B0
100
AcDbEntity
  8
0
100
AcDbLine
 10
159.384413
 20
84.717108
 30
0.0
 11
158.964098
 21
84.538376
 31
0.0
  0
LINE
  5
17B1
100
AcDbEntity
  8
0
100
AcDbLine
 10
158.608309
 20
83.312708
 30
0.0
 11
158.845389
 21
82.869698
 31
0.0
  0
LINE
  5
17B2
100
AcDbEntity
  8
0
100
AcDbLine
 10
159.042602
 20
83.454127
 30
0.0
 11
158.608309
 21
83.312708
 31
0.0
  0
LINE
  5
17B3
100
AcDbEntity
  8
0
100
AcDbLine
 10
158.779088
 20
83.878227
 30
0.0
 11
159.042602
 21
83.454127
 31
0.0
  0
LINE
  5
17B4
100
AcDbEntity
  8
0
100
AcDbLine
 10
159.238887
 20
84.117714
 30
0.0
 11
158.779088
 21
83.878227
 31
0.0
  0
LINE
  5
17B5
100
AcDbEntity
  8
0
100
AcDbLine
 10
158.592016
 20
82.225743
 30
0.0
 11
158.147049
 21
82.122713
 31
0.0
  0
LINE
  5
17B6
100
AcDbEntity
  8
0
100
AcDbLine
 10
158.366466
 20
82.671196
 30
0.0
 11
158.592016
 21
82.225743
 31
0.0
  0
LINE
  5
17B7
100
AcDbEntity
  8
0
100
AcDbLine
 10
158.845389
 20
82.869698
 30
0.0
 11
158.366466
 21
82.671196
 31
0.0
  0
LINE
  5
17B8
100
AcDbEntity
  8
0
100
AcDbLine
 10
131.463917
 20
94.958695
 30
0.0
 11
131.91617
 21
95.022552
 31
0.0
  0
LINE
  5
17B9
100
AcDbEntity
  8
0
100
AcDbLine
 10
131.649784
 20
94.495279
 30
0.0
 11
131.463917
 21
94.958695
 31
0.0
  0
LINE
  5
17BA
100
AcDbEntity
  8
0
100
AcDbLine
 10
131.155383
 20
94.339274
 30
0.0
 11
131.649784
 21
94.495279
 31
0.0
  0
LINE
  5
17BB
100
AcDbEntity
  8
1
100
AcDbLine
 10
123.0
 20
88.0
 30
0.0
 11
167.25
 21
88.0
 31
0.0
  0
LINE
  5
17BC
100
AcDbEntity
  8
0
100
AcDbLine
 10
130.535902
 20
91.461624
 30
0.0
 11
130.261113
 21
91.882286
 31
0.0
  0
LINE
  5
17BD
100
AcDbEntity
  8
0
100
AcDbLine
 10
129.75
 20
88.0
 30
0.0
 11
130.132149
 21
88.350332
 31
0.0
  0
LINE
  5
17BE
100
AcDbEntity
  8
0
100
AcDbLine
 10
130.404707
 20
85.13016
 30
0.0
 11
129.977884
 21
85.395277
 31
0.0
  0
LINE
  5
17BF
100
AcDbEntity
  8
0
100
AcDbLine
 10
130.209172
 20
86.391355
 30
0.0
 11
129.80708
 21
86.692664
 31
0.0
  0
LINE
  5
17C0
100
AcDbEntity
  8
0
100
AcDbLine
 10
129.875334
 20
86.079645
 30
0.0
 11
130.209172
 21
86.391355
 31
0.0
  0
LINE
  5
17C1
100
AcDbEntity
  8
0
100
AcDbLine
 10
130.293392
 20
85.806646
 30
0.0
 11
129.875334
 21
86.079645
 31
0.0
  0
LINE
  5
17C2
100
AcDbEntity
  8
0
100
AcDbLine
 10
129.977884
 20
85.395277
 30
0.0
 11
130.293392
 21
85.806646
 31
0.0
  0
LINE
  5
17C3
100
AcDbEntity
  8
0
100
AcDbLine
 10
130.124301
 20
87.664793
 30
0.0
 11
129.75
 21
88.0
 31
0.0
  0
LINE
  5
17C4
100
AcDbEntity
  8
0
100
AcDbLine
 10
129.764567
 20
87.383365
 30
0.0
 11
130.124301
 21
87.664793
 31
0.0
  0
LINE
  5
17C5
100
AcDbEntity
  8
0
100
AcDbLine
 10
130.157241
 20
87.074969
 30
0.0
 11
129.764567
 21
87.383365
 31
0.0
  0
LINE
  5
17C6
100
AcDbEntity
  8
0
100
AcDbLine
 10
129.80708
 20
86.692664
 30
0.0
 11
130.157241
 21
87.074969
 31
0.0
  0
LINE
  5
17C7
100
AcDbEntity
  8
0
100
AcDbLine
 10
130.150741
 20
88.940782
 30
0.0
 11
129.80708
 21
89.307336
 31
0.0
  0
LINE
  5
17C8
100
AcDbEntity
  8
0
100
AcDbLine
 10
129.767848
 20
88.691778
 30
0.0
 11
130.150741
 21
88.940782
 31
0.0
  0
LINE
  5
17C9
100
AcDbEntity
  8
0
100
AcDbLine
 10
130.132149
 20
88.350332
 30
0.0
 11
129.767848
 21
88.691778
 31
0.0
  0
LINE
  5
17CA
100
AcDbEntity
  8
0
100
AcDbLine
 10
130.28829
 20
90.209611
 30
0.0
 11
129.977884
 21
90.604723
 31
0.0
  0
LINE
  5
17CB
100
AcDbEntity
  8
0
100
AcDbLine
 10
129.885152
 20
89.994927
 30
0.0
 11
130.28829
 21
90.209611
 31
0.0
  0
LINE
  5
17CC
100
AcDbEntity
  8
0
100
AcDbLine
 10
130.218307
 20
89.623028
 30
0.0
 11
129.885152
 21
89.994927
 31
0.0
  0
LINE
  5
17CD
100
AcDbEntity
  8
0
100
AcDbLine
 10
129.80708
 20
89.307336
 30
0.0
 11
130.218307
 21
89.623028
 31
0.0
  0
LINE
  5
17CE
100
AcDbEntity
  8
0
100
AcDbLine
 10
130.115587
 20
91.282892
 30
0.0
 11
130.535902
 21
91.461624
 31
0.0
  0
LINE
  5
17CF
100
AcDbEntity
  8
0
100
AcDbLine
 10
130.415061
 20
90.883373
 30
0.0
 11
130.115587
 21
91.282892
 31
0.0
  0
LINE
  5
17D0
100
AcDbEntity
  8
0
100
AcDbLine
 10
129.977884
 20
90.604723
 30
0.0
 11
130.415061
 21
90.883373
 31
0.0
  0
LINE
  5
17D1
100
AcDbEntity
  8
0
100
AcDbLine
 10
130.891691
 20
92.687292
 30
0.0
 11
130.654611
 21
93.130302
 31
0.0
  0
LINE
  5
17D2
100
AcDbEntity
  8
0
100
AcDbLine
 10
130.457398
 20
92.545873
 30
0.0
 11
130.891691
 21
92.687292
 31
0.0
  0
LINE
  5
17D3
100
AcDbEntity
  8
0
100
AcDbLine
 10
130.720912
 20
92.121773
 30
0.0
 11
130.457398
 21
92.545873
 31
0.0
  0
LINE
  5
17D4
100
AcDbEntity
  8
0
100
AcDbLine
 10
130.261113
 20
91.882286
 30
0.0
 11
130.720912
 21
92.121773
 31
0.0
  0
LINE
  5
17D5
100
AcDbEntity
  8
0
100
AcDbLine
 10
131.352951
 20
93.877287
 30
0.0
 11
131.155383
 21
94.339274
 31
0.0
  0
LINE
  5
17D6
100
AcDbEntity
  8
0
100
AcDbLine
 10
130.907984
 20
93.774257
 30
0.0
 11
131.352951
 21
93.877287
 31
0.0
  0
LINE
  5
17D7
100
AcDbEntity
  8
0
100
AcDbLine
 10
131.133534
 20
93.328804
 30
0.0
 11
130.907984
 21
93.774257
 31
0.0
  0
LINE
  5
17D8
100
AcDbEntity
  8
0
100
AcDbLine
 10
130.654611
 20
93.130302
 30
0.0
 11
131.133534
 21
93.328804
 31
0.0
  0
LINE
  5
17D9
100
AcDbEntity
  8
0
100
AcDbLine
 10
148.632286
 20
102.488887
 30
0.0
 11
148.871773
 21
102.029088
 31
0.0
  0
LINE
  5
17DA
100
AcDbEntity
  8
0
100
AcDbLine
 10
134.171042
 20
98.104904
 30
0.0
 11
134.143398
 21
98.606602
 31
0.0
  0
LINE
  5
17DB
100
AcDbEntity
  8
0
100
AcDbLine
 10
133.259333
 20
97.641814
 30
0.0
 11
133.777265
 21
97.664543
 31
0.0
  0
LINE
  5
17DC
100
AcDbEntity
  8
0
100
AcDbLine
 10
131.91617
 20
95.022552
 30
0.0
 11
131.759619
 21
95.5
 31
0.0
  0
LINE
  5
17DD
100
AcDbEntity
  8
0
100
AcDbLine
 10
132.577062
 20
96.114371
 30
0.0
 11
132.462719
 21
96.603647
 31
0.0
  0
LINE
  5
17DE
100
AcDbEntity
  8
0
100
AcDbLine
 10
132.120965
 20
96.090174
 30
0.0
 11
132.577062
 21
96.114371
 31
0.0
  0
LINE
  5
17DF
100
AcDbEntity
  8
0
100
AcDbLine
 10
132.265735
 20
95.612322
 30
0.0
 11
132.120965
 21
96.090174
 31
0.0
  0
LINE
  5
17E0
100
AcDbEntity
  8
0
100
AcDbLine
 10
131.759619
 20
95.5
 30
0.0
 11
132.265735
 21
95.612322
 31
0.0
  0
LINE
  5
17E1
100
AcDbEntity
  8
0
100
AcDbLine
 10
133.330598
 20
97.144434
 30
0.0
 11
133.259333
 21
97.641814
 31
0.0
  0
LINE
  5
17E2
100
AcDbEntity
  8
0
100
AcDbLine
 10
132.874127
 20
97.160081
 30
0.0
 11
133.330598
 21
97.144434
 31
0.0
  0
LINE
  5
17E3
100
AcDbEntity
  8
0
100
AcDbLine
 10
132.976699
 20
96.67143
 30
0.0
 11
132.874127
 21
97.160081
 31
0.0
  0
LINE
  5
17E4
100
AcDbEntity
  8
0
100
AcDbLine
 10
132.462719
 20
96.603647
 30
0.0
 11
132.976699
 21
96.67143
 31
0.0
  0
LINE
  5
17E5
100
AcDbEntity
  8
0
100
AcDbLine
 10
133.717672
 20
98.160275
 30
0.0
 11
134.171042
 21
98.104904
 31
0.0
  0
LINE
  5
17E6
100
AcDbEntity
  8
0
100
AcDbLine
 10
133.777265
 20
97.664543
 30
0.0
 11
133.717672
 21
98.160275
 31
0.0
  0
LINE
  5
17E7
100
AcDbEntity
  8
0
100
AcDbLine
 10
140.079605
 20
101.856108
 30
0.0
 11
140.275861
 21
102.31522
 31
0.0
  0
LINE
  5
17E8
100
AcDbEntity
  8
0
100
AcDbLine
 10
135.649591
 20
99.921661
 30
0.0
 11
136.086458
 21
99.788404
 31
0.0
  0
LINE
  5
17E9
100
AcDbEntity
  8
0
100
AcDbLine
 10
135.091999
 20
98.988468
 30
0.0
 11
135.108186
 21
99.490667
 31
0.0
  0
LINE
  5
17EA
100
AcDbEntity
  8
0
100
AcDbLine
 10
134.64518
 20
99.083142
 30
0.0
 11
135.091999
 21
98.988468
 31
0.0
  0
LINE
  5
17EB
100
AcDbEntity
  8
0
100
AcDbLine
 10
134.66134
 20
98.584104
 30
0.0
 11
134.64518
 21
99.083142
 31
0.0
  0
LINE
  5
17EC
100
AcDbEntity
  8
0
100
AcDbLine
 10
134.143398
 20
98.606602
 30
0.0
 11
134.66134
 21
98.584104
 31
0.0
  0
LINE
  5
17ED
100
AcDbEntity
  8
0
100
AcDbLine
 10
135.622196
 20
99.423113
 30
0.0
 11
135.649591
 21
99.921661
 31
0.0
  0
LINE
  5
17EE
100
AcDbEntity
  8
0
100
AcDbLine
 10
135.108186
 20
99.490667
 30
0.0
 11
135.622196
 21
99.423113
 31
0.0
  0
LINE
  5
17EF
100
AcDbEntity
  8
0
100
AcDbLine
 10
138.889738
 20
101.396329
 30
0.0
 11
139.045233
 21
101.870799
 31
0.0
  0
LINE
  5
17F0
100
AcDbEntity
  8
0
100
AcDbLine
 10
137.858022
 20
101.320813
 30
0.0
 11
138.265112
 21
101.11372
 31
0.0
  0
LINE
  5
17F1
100
AcDbEntity
  8
0
100
AcDbLine
 10
136.086458
 20
99.788404
 30
0.0
 11
136.146353
 21
100.287281
 31
0.0
  0
LINE
  5
17F2
100
AcDbEntity
  8
0
100
AcDbLine
 10
137.146853
 20
100.498623
 30
0.0
 11
137.25
 21
100.990381
 31
0.0
  0
LINE
  5
17F3
100
AcDbEntity
  8
0
100
AcDbLine
 10
136.723262
 20
100.669448
 30
0.0
 11
137.146853
 21
100.498623
 31
0.0
  0
LINE
  5
17F4
100
AcDbEntity
  8
0
100
AcDbLine
 10
136.65252
 20
100.175185
 30
0.0
 11
136.723262
 21
100.669448
 31
0.0
  0
LINE
  5
17F5
100
AcDbEntity
  8
0
100
AcDbLine
 10
136.146353
 20
100.287281
 30
0.0
 11
136.65252
 21
100.175185
 31
0.0
  0
LINE
  5
17F6
100
AcDbEntity
  8
0
100
AcDbLine
 10
137.744471
 20
100.834597
 30
0.0
 11
137.858022
 21
101.320813
 31
0.0
  0
LINE
  5
17F7
100
AcDbEntity
  8
0
100
AcDbLine
 10
137.25
 20
100.990381
 30
0.0
 11
137.744471
 21
100.834597
 31
0.0
  0
LINE
  5
17F8
100
AcDbEntity
  8
0
100
AcDbLine
 10
138.265112
 20
101.11372
 30
0.0
 11
138.410726
 21
101.594617
 31
0.0
  0
LINE
  5
17F9
100
AcDbEntity
  8
0
100
AcDbLine
 10
138.410726
 20
101.594617
 30
0.0
 11
138.889738
 21
101.396329
 31
0.0
  0
LINE
  5
17FA
100
AcDbEntity
  8
0
100
AcDbLine
 10
139.432725
 20
101.629014
 30
0.0
 11
139.619698
 21
102.095389
 31
0.0
  0
LINE
  5
17FB
100
AcDbEntity
  8
0
100
AcDbLine
 10
139.045233
 20
101.870799
 30
0.0
 11
139.432725
 21
101.629014
 31
0.0
  0
LINE
  5
17FC
100
AcDbEntity
  8
0
100
AcDbLine
 10
139.619698
 20
102.095389
 30
0.0
 11
140.079605
 21
101.856108
 31
0.0
  0
LINE
  5
17FD
100
AcDbEntity
  8
0
100
AcDbLine
 10
144.133365
 20
102.985433
 30
0.0
 11
144.414793
 21
102.625699
 31
0.0
  0
LINE
  5
17FE
100
AcDbEntity
  8
0
100
AcDbLine
 10
142.145277
 20
102.772116
 30
0.0
 11
142.556646
 21
102.456608
 31
0.0
  0
LINE
  5
17FF
100
AcDbEntity
  8
0
100
AcDbLine
 10
140.640805
 20
102.040582
 30
0.0
 11
140.867714
 21
102.488887
 31
0.0
  0
LINE
  5
1800
100
AcDbEntity
  8
0
100
AcDbLine
 10
140.275861
 20
102.31522
 30
0.0
 11
140.640805
 21
102.040582
 31
0.0
  0
LINE
  5
1801
100
AcDbEntity
  8
0
100
AcDbLine
 10
141.88016
 20
102.345293
 30
0.0
 11
142.145277
 21
102.772116
 31
0.0
  0
LINE
  5
1802
100
AcDbEntity
  8
0
100
AcDbLine
 10
141.54054
 20
102.650693
 30
0.0
 11
141.88016
 21
102.345293
 31
0.0
  0
LINE
  5
1803
100
AcDbEntity
  8
0
100
AcDbLine
 10
141.305016
 20
102.210433
 30
0.0
 11
141.54054
 21
102.650693
 31
0.0
  0
LINE
  5
1804
100
AcDbEntity
  8
0
100
AcDbLine
 10
140.867714
 20
102.488887
 30
0.0
 11
141.305016
 21
102.210433
 31
0.0
  0
LINE
  5
1805
100
AcDbEntity
  8
0
100
AcDbLine
 10
143.141355
 20
102.540828
 30
0.0
 11
143.442664
 21
102.94292
 31
0.0
  0
LINE
  5
1806
100
AcDbEntity
  8
0
100
AcDbLine
 10
142.829645
 20
102.874666
 30
0.0
 11
143.141355
 21
102.540828
 31
0.0
  0
LINE
  5
1807
100
AcDbEntity
  8
0
100
AcDbLine
 10
142.556646
 20
102.456608
 30
0.0
 11
142.829645
 21
102.874666
 31
0.0
  0
LINE
  5
1808
100
AcDbEntity
  8
0
100
AcDbLine
 10
143.824969
 20
102.592759
 30
0.0
 11
144.133365
 21
102.985433
 31
0.0
  0
LINE
  5
1809
100
AcDbEntity
  8
0
100
AcDbLine
 10
143.442664
 20
102.94292
 30
0.0
 11
143.824969
 21
102.592759
 31
0.0
  0
LINE
  5
180A
100
AcDbEntity
  8
0
100
AcDbLine
 10
146.373028
 20
102.531693
 30
0.0
 11
146.744927
 21
102.864848
 31
0.0
  0
LINE
  5
180B
100
AcDbEntity
  8
0
100
AcDbLine
 10
144.414793
 20
102.625699
 30
0.0
 11
144.75
 21
103.0
 31
0.0
  0
LINE
  5
180C
100
AcDbEntity
  8
0
100
AcDbLine
 10
145.690782
 20
102.599259
 30
0.0
 11
146.057336
 21
102.94292
 31
0.0
  0
LINE
  5
180D
100
AcDbEntity
  8
0
100
AcDbLine
 10
145.441778
 20
102.982152
 30
0.0
 11
145.690782
 21
102.599259
 31
0.0
  0
LINE
  5
180E
100
AcDbEntity
  8
0
100
AcDbLine
 10
145.100332
 20
102.617851
 30
0.0
 11
145.441778
 21
102.982152
 31
0.0
  0
LINE
  5
180F
100
AcDbEntity
  8
0
100
AcDbLine
 10
144.75
 20
103.0
 30
0.0
 11
145.100332
 21
102.617851
 31
0.0
  0
LINE
  5
1810
100
AcDbEntity
  8
0
100
AcDbLine
 10
146.057336
 20
102.94292
 30
0.0
 11
146.373028
 21
102.531693
 31
0.0
  0
LINE
  5
1811
100
AcDbEntity
  8
0
100
AcDbLine
 10
146.959611
 20
102.46171
 30
0.0
 11
147.354723
 21
102.772116
 31
0.0
  0
LINE
  5
1812
100
AcDbEntity
  8
0
100
AcDbLine
 10
146.744927
 20
102.864848
 30
0.0
 11
146.959611
 21
102.46171
 31
0.0
  0
LINE
  5
1813
100
AcDbEntity
  8
0
100
AcDbLine
 10
148.211624
 20
102.214098
 30
0.0
 11
148.632286
 21
102.488887
 31
0.0
  0
LINE
  5
1814
100
AcDbEntity
  8
0
100
AcDbLine
 10
148.032892
 20
102.634413
 30
0.0
 11
148.211624
 21
102.214098
 31
0.0
  0
LINE
  5
1815
100
AcDbEntity
  8
0
100
AcDbLine
 10
147.633373
 20
102.334939
 30
0.0
 11
148.032892
 21
102.634413
 31
0.0
  0
LINE
  5
1816
100
AcDbEntity
  8
0
100
AcDbLine
 10
147.354723
 20
102.772116
 30
0.0
 11
147.633373
 21
102.334939
 31
0.0
  0
LINE
  5
1817
100
AcDbEntity
  8
0
100
AcDbLine
 10
155.356602
 20
98.606602
 30
0.0
 11
155.334104
 21
98.08866
 31
0.0
  0
LINE
  5
1818
100
AcDbEntity
  8
0
100
AcDbLine
 10
157.248623
 20
95.603147
 30
0.0
 11
157.740381
 21
95.5
 31
0.0
  0
LINE
  5
1819
100
AcDbEntity
  8
0
100
AcDbLine
 10
157.419448
 20
96.026738
 30
0.0
 11
157.248623
 21
95.603147
 31
0.0
  0
LINE
  5
181A
100
AcDbEntity
  8
0
100
AcDbLine
 10
156.925185
 20
96.09748
 30
0.0
 11
157.419448
 21
96.026738
 31
0.0
  0
LINE
  5
181B
100
AcDbEntity
  8
0
100
AcDbLine
 10
155.738468
 20
97.658001
 30
0.0
 11
156.240667
 21
97.641814
 31
0.0
  0
LINE
  5
181C
100
AcDbEntity
  8
0
100
AcDbLine
 10
155.833142
 20
98.10482
 30
0.0
 11
155.738468
 21
97.658001
 31
0.0
  0
LINE
  5
181D
100
AcDbEntity
  8
0
100
AcDbLine
 10
155.334104
 20
98.08866
 30
0.0
 11
155.833142
 21
98.10482
 31
0.0
  0
LINE
  5
181E
100
AcDbEntity
  8
0
100
AcDbLine
 10
156.538404
 20
96.663542
 30
0.0
 11
157.037281
 21
96.603647
 31
0.0
  0
LINE
  5
181F
100
AcDbEntity
  8
0
100
AcDbLine
 10
156.671661
 20
97.100409
 30
0.0
 11
156.538404
 21
96.663542
 31
0.0
  0
LINE
  5
1820
100
AcDbEntity
  8
0
100
AcDbLine
 10
156.173113
 20
97.127804
 30
0.0
 11
156.671661
 21
97.100409
 31
0.0
  0
LINE
  5
1821
100
AcDbEntity
  8
0
100
AcDbLine
 10
156.240667
 20
97.641814
 30
0.0
 11
156.173113
 21
97.127804
 31
0.0
  0
LINE
  5
1822
100
AcDbEntity
  8
0
100
AcDbLine
 10
157.037281
 20
96.603647
 30
0.0
 11
156.925185
 21
96.09748
 31
0.0
  0
LINE
  5
1823
100
AcDbEntity
  8
0
100
AcDbLine
 10
159.238887
 20
91.882286
 30
0.0
 11
158.960433
 21
91.444984
 31
0.0
  0
LINE
  5
1824
100
AcDbEntity
  8
0
100
AcDbLine
 10
159.375699
 20
88.335207
 30
0.0
 11
159.75
 21
88.0
 31
0.0
  0
LINE
  5
1825
100
AcDbEntity
  8
0
100
AcDbLine
 10
159.349259
 20
87.059218
 30
0.0
 11
159.69292
 21
86.692664
 31
0.0
  0
LINE
  5
1826
100
AcDbEntity
  8
0
100
AcDbLine
 10
159.732152
 20
87.308222
 30
0.0
 11
159.349259
 21
87.059218
 31
0.0
  0
LINE
  5
1827
100
AcDbEntity
  8
0
100
AcDbLine
 10
159.367851
 20
87.649668
 30
0.0
 11
159.732152
 21
87.308222
 31
0.0
  0
LINE
  5
1828
100
AcDbEntity
  8
0
100
AcDbLine
 10
159.75
 20
88.0
 30
0.0
 11
159.367851
 21
87.649668
 31
0.0
  0
LINE
  5
1829
100
AcDbEntity
  8
0
100
AcDbLine
 10
159.21171
 20
85.790389
 30
0.0
 11
159.522116
 21
85.395277
 31
0.0
  0
LINE
  5
182A
100
AcDbEntity
  8
0
100
AcDbLine
 10
159.614848
 20
86.005073
 30
0.0
 11
159.21171
 21
85.790389
 31
0.0
  0
LINE
  5
182B
100
AcDbEntity
  8
0
100
AcDbLine
 10
159.281693
 20
86.376972
 30
0.0
 11
159.614848
 21
86.005073
 31
0.0
  0
LINE
  5
182C
100
AcDbEntity
  8
0
100
AcDbLine
 10
159.69292
 20
86.692664
 30
0.0
 11
159.281693
 21
86.376972
 31
0.0
  0
LINE
  5
182D
100
AcDbEntity
  8
0
100
AcDbLine
 10
159.522116
 20
85.395277
 30
0.0
 11
159.084939
 21
85.116627
 31
0.0
  0
LINE
  5
182E
100
AcDbEntity
  8
0
100
AcDbLine
 10
159.095293
 20
90.86984
 30
0.0
 11
159.522116
 21
90.604723
 31
0.0
  0
LINE
  5
182F
100
AcDbEntity
  8
0
100
AcDbLine
 10
159.290828
 20
89.608645
 30
0.0
 11
159.69292
 21
89.307336
 31
0.0
  0
LINE
  5
1830
100
AcDbEntity
  8
0
100
AcDbLine
 10
159.624666
 20
89.920355
 30
0.0
 11
159.290828
 21
89.608645
 31
0.0
  0
LINE
  5
1831
100
AcDbEntity
  8
0
100
AcDbLine
 10
159.206608
 20
90.193354
 30
0.0
 11
159.624666
 21
89.920355
 31
0.0
  0
LINE
  5
1832
100
AcDbEntity
  8
0
100
AcDbLine
 10
159.522116
 20
90.604723
 30
0.0
 11
159.206608
 21
90.193354
 31
0.0
  0
LINE
  5
1833
100
AcDbEntity
  8
0
100
AcDbLine
 10
159.735433
 20
88.616635
 30
0.0
 11
159.375699
 21
88.335207
 31
0.0
  0
LINE
  5
1834
100
AcDbEntity
  8
0
100
AcDbLine
 10
159.342759
 20
88.925031
 30
0.0
 11
159.735433
 21
88.616635
 31
0.0
  0
LINE
  5
1835
100
AcDbEntity
  8
0
100
AcDbLine
 10
159.69292
 20
89.307336
 30
0.0
 11
159.342759
 21
88.925031
 31
0.0
  0
LINE
  5
1836
100
AcDbEntity
  8
0
100
AcDbLine
 10
159.400693
 20
91.20946
 30
0.0
 11
159.095293
 21
90.86984
 31
0.0
  0
LINE
  5
1837
100
AcDbEntity
  8
0
100
AcDbLine
 10
158.960433
 20
91.444984
 30
0.0
 11
159.400693
 21
91.20946
 31
0.0
  0
LINE
  5
1838
100
AcDbEntity
  8
0
100
AcDbLine
 10
157.584597
 20
95.005529
 30
0.0
 11
158.070813
 21
94.891978
 31
0.0
  0
LINE
  5
1839
100
AcDbEntity
  8
0
100
AcDbLine
 10
157.86372
 20
94.484888
 30
0.0
 11
158.344617
 21
94.339274
 31
0.0
  0
LINE
  5
183A
100
AcDbEntity
  8
0
100
AcDbLine
 10
158.070813
 20
94.891978
 30
0.0
 11
157.86372
 21
94.484888
 31
0.0
  0
LINE
  5
183B
100
AcDbEntity
  8
0
100
AcDbLine
 10
158.379014
 20
93.317275
 30
0.0
 11
158.845389
 21
93.130302
 31
0.0
  0
LINE
  5
183C
100
AcDbEntity
  8
0
100
AcDbLine
 10
158.620799
 20
93.704767
 30
0.0
 11
158.379014
 21
93.317275
 31
0.0
  0
LINE
  5
183D
100
AcDbEntity
  8
0
100
AcDbLine
 10
158.146329
 20
93.860262
 30
0.0
 11
158.620799
 21
93.704767
 31
0.0
  0
LINE
  5
183E
100
AcDbEntity
  8
0
100
AcDbLine
 10
158.344617
 20
94.339274
 30
0.0
 11
158.146329
 21
93.860262
 31
0.0
  0
LINE
  5
183F
100
AcDbEntity
  8
0
100
AcDbLine
 10
158.790582
 20
92.109195
 30
0.0
 11
159.238887
 21
91.882286
 31
0.0
  0
LINE
  5
1840
100
AcDbEntity
  8
0
100
AcDbLine
 10
159.06522
 20
92.474139
 30
0.0
 11
158.790582
 21
92.109195
 31
0.0
  0
LINE
  5
1841
100
AcDbEntity
  8
0
100
AcDbLine
 10
158.606108
 20
92.670395
 30
0.0
 11
159.06522
 21
92.474139
 31
0.0
  0
LINE
  5
1842
100
AcDbEntity
  8
0
100
AcDbLine
 10
158.845389
 20
93.130302
 30
0.0
 11
158.606108
 21
92.670395
 31
0.0
  0
LINE
  5
1843
100
AcDbEntity
  8
0
100
AcDbLine
 10
157.740381
 20
95.5
 30
0.0
 11
157.584597
 21
95.005529
 31
0.0
  0
LINE
  5
1844
100
AcDbEntity
  8
0
100
AcDbLine
 10
152.864371
 20
100.172938
 30
0.0
 11
153.353647
 21
100.287281
 31
0.0
  0
LINE
  5
1845
100
AcDbEntity
  8
0
100
AcDbLine
 10
150.524257
 20
101.842016
 30
0.0
 11
150.627287
 21
101.397049
 31
0.0
  0
LINE
  5
1846
100
AcDbEntity
  8
0
100
AcDbLine
 10
150.627287
 20
101.397049
 30
0.0
 11
151.089274
 21
101.594617
 31
0.0
  0
LINE
  5
1847
100
AcDbEntity
  8
0
100
AcDbLine
 10
151.772552
 20
100.83383
 30
0.0
 11
152.25
 21
100.990381
 31
0.0
  0
LINE
  5
1848
100
AcDbEntity
  8
0
100
AcDbLine
 10
151.708695
 20
101.286083
 30
0.0
 11
151.772552
 21
100.83383
 31
0.0
  0
LINE
  5
1849
100
AcDbEntity
  8
0
100
AcDbLine
 10
151.245279
 20
101.100216
 30
0.0
 11
151.708695
 21
101.286083
 31
0.0
  0
LINE
  5
184A
100
AcDbEntity
  8
0
100
AcDbLine
 10
151.089274
 20
101.594617
 30
0.0
 11
151.245279
 21
101.100216
 31
0.0
  0
LINE
  5
184B
100
AcDbEntity
  8
0
100
AcDbLine
 10
152.840174
 20
100.629035
 30
0.0
 11
152.864371
 21
100.172938
 31
0.0
  0
LINE
  5
184C
100
AcDbEntity
  8
0
100
AcDbLine
 10
152.362322
 20
100.484265
 30
0.0
 11
152.840174
 21
100.629035
 31
0.0
  0
LINE
  5
184D
100
AcDbEntity
  8
0
100
AcDbLine
 10
152.25
 20
100.990381
 30
0.0
 11
152.362322
 21
100.484265
 31
0.0
  0
LINE
  5
184E
100
AcDbEntity
  8
0
100
AcDbLine
 10
149.437292
 20
101.858309
 30
0.0
 11
149.880302
 21
102.095389
 31
0.0
  0
LINE
  5
184F
100
AcDbEntity
  8
0
100
AcDbLine
 10
149.295873
 20
102.292602
 30
0.0
 11
149.437292
 21
101.858309
 31
0.0
  0
LINE
  5
1850
100
AcDbEntity
  8
0
100
AcDbLine
 10
148.871773
 20
102.029088
 30
0.0
 11
149.295873
 21
102.292602
 31
0.0
  0
LINE
  5
1851
100
AcDbEntity
  8
0
100
AcDbLine
 10
150.078804
 20
101.616466
 30
0.0
 11
150.524257
 21
101.842016
 31
0.0
  0
LINE
  5
1852
100
AcDbEntity
  8
0
100
AcDbLine
 10
149.880302
 20
102.095389
 30
0.0
 11
150.078804
 21
101.616466
 31
0.0
  0
LINE
  5
1853
100
AcDbEntity
  8
0
100
AcDbLine
 10
154.854904
 20
98.578958
 30
0.0
 11
155.356602
 21
98.606602
 31
0.0
  0
LINE
  5
1854
100
AcDbEntity
  8
0
100
AcDbLine
 10
153.894434
 20
99.419402
 30
0.0
 11
154.391814
 21
99.490667
 31
0.0
  0
LINE
  5
1855
100
AcDbEntity
  8
0
100
AcDbLine
 10
153.910081
 20
99.875873
 30
0.0
 11
153.894434
 21
99.419402
 31
0.0
  0
LINE
  5
1856
100
AcDbEntity
  8
0
100
AcDbLine
 10
153.42143
 20
99.773301
 30
0.0
 11
153.910081
 21
99.875873
 31
0.0
  0
LINE
  5
1857
100
AcDbEntity
  8
0
100
AcDbLine
 10
153.353647
 20
100.287281
 30
0.0
 11
153.42143
 21
99.773301
 31
0.0
  0
LINE
  5
1858
100
AcDbEntity
  8
0
100
AcDbLine
 10
154.910275
 20
99.032328
 30
0.0
 11
154.854904
 21
98.578958
 31
0.0
  0
LINE
  5
1859
100
AcDbEntity
  8
0
100
AcDbLine
 10
154.414543
 20
98.972735
 30
0.0
 11
154.910275
 21
99.032328
 31
0.0
  0
LINE
  5
185A
100
AcDbEntity
  8
0
100
AcDbLine
 10
154.391814
 20
99.490667
 30
0.0
 11
154.414543
 21
98.972735
 31
0.0
  0
CIRCLE
  5
185B
100
AcDbEntity
  8
0
100
AcDbCircle
 10
144.75
 20
88.0
 30
0.0
 40
10.0
  0
VIEWPORT
  5
22
100
AcDbEntity
 67
     1
  8
0
100
AcDbViewport
 10
261.517699
 20
148.5
 30
0.0
 40
523.035398
 41
297.0
 68
    -1
 69
     1
1001
ACAD
1000
MVIEW
1002
{
1070
    16
1010
0.0
1020
0.0
1030
0.0
1010
0.0
1020
0.0
1030
1.0
1040
0.0
1040
297.0
1040
261.517699
1040
148.5
1040
50.0
1040
0.0
1040
0.0
1070
     0
1070
   100
1070
     1
1070
     1
1070
     0
1070
     0
1070
     0
1070
     0
1040
0.0
1040
0.0
1040
0.0
1040
1.0
1040
1.0
1040
10.0
1040
10.0
1070
     0
1002
{
1002
}
1002
}
  0
ENDSEC
  0
SECTION
  2
OBJECTS
  0
DICTIONARY
  5
18EE
100
AcDbDictionary
  3
ACAD_GROUP
350
18EF
  3
ACAD_MLINESTYLE
350
18FC
  3
ACDBVARIABLEDICTIONARY
350
1912
  0
DICTIONARY
  5
18EF
102
{ACAD_REACTORS
330
18EE
102
}
100
AcDbDictionary
  0
DICTIONARY
  5
18FC
102
{ACAD_REACTORS
330
18EE
102
}
100
AcDbDictionary
  3
STANDARD
350
18FD
  0
DICTIONARY
  5
1912
102
{ACAD_REACTORS
330
18EE
102
}
100
AcDbDictionary
  3
DIMADEC
350
1913
  0
MLINESTYLE
  5
18FD
102
{ACAD_REACTORS
330
18FC
102
}
100
AcDbMlineStyle
  2
STANDARD
 70
     0
  3

 62
   256
 51
90.0
 52
90.0
 71
     2
 49
0.5
 62
   256
  6
BYLAYER
 49
-0.5
 62
   256
  6
BYLAYER
  0
DICTIONARYVAR
  5
1913
102
{ACAD_REACTORS
330
1912
102
}
100
DictionaryVariables
280
     0
  1
0
  0
ENDSEC
  0
EOF
