  0
SECTION
  2
HEADER
  9
$ACADVER
  1
AC1009
  9
$INSBASE
 10
0.0
 20
0.0
 30
0.0
  9
$EXTMIN
 10
12.5
 20
3.216667
 30
0.0
  9
$EXTMAX
 10
192.52
 20
115.75
 30
0.0
  9
$LIMMIN
 10
0.0
 20
0.0
  9
$LIMMAX
 10
220.0
 20
170.0
  9
$ORTHOMODE
 70
     1
  9
$REGENMODE
 70
     1
  9
$FILLMODE
 70
     1
  9
$QTEXTMODE
 70
     0
  9
$MIRRTEXT
 70
     1
  9
$DRAGMODE
 70
     2
  9
$LTSCALE
 40
1.0
  9
$OSMODE
 70
     0
  9
$ATTMODE
 70
     1
  9
$TEXTSIZE
 40
7.0
  9
$TRACEWID
 40
1.0
  9
$TEXTSTYLE
  7
STANDARD
  9
$CLAYER
  8
0
  9
$CELTYPE
  6
BYLAYER
  9
$CECOLOR
 62
   256
  9
$DIMSCALE
 40
1.0
  9
$DIMASZ
 40
2.5
  9
$DIMEXO
 40
0.625
  9
$DIMDLI
 40
3.75
  9
$DIMRND
 40
0.0
  9
$DIMDLE
 40
0.0
  9
$DIMEXE
 40
1.25
  9
$DIMTP
 40
0.0
  9
$DIMTM
 40
0.0
  9
$DIMTXT
 40
2.5
  9
$DIMCEN
 40
2.5
  9
$DIMTSZ
 40
0.0
  9
$DIMTOL
 70
     0
  9
$DIMLIM
 70
     0
  9
$DIMTIH
 70
     1
  9
$DIMTOH
 70
     0
  9
$DIMSE1
 70
     0
  9
$DIMSE2
 70
     0
  9
$DIMTAD
 70
     1
  9
$DIMZIN
 70
     8
  9
$DIMBLK
  1

  9
$DIMASO
 70
     1
  9
$DIMSHO
 70
     1
  9
$DIMPOST
  1

  9
$DIMAPOST
  1

  9
$DIMALT
 70
     0
  9
$DIMALTD
 70
     2
  9
$DIMALTF
 40
0.0394
  9
$DIMLFAC
 40
1.0
  9
$DIMTOFL
 70
     1
  9
$DIMTVP
 40
1.0
  9
$DIMTIX
 70
     0
  9
$DIMSOXD
 70
     0
  9
$DIMSAH
 70
     0
  9
$DIMBLK1
  1

  9
$DIMBLK2
  1

  9
$DIMSTYLE
  2
ISO-25
  9
$DIMCLRD
 70
     0
  9
$DIMCLRE
 70
     0
  9
$DIMCLRT
 70
     0
  9
$DIMTFAC
 40
1.0
  9
$DIMGAP
 40
0.625
  9
$LUNITS
 70
     2
  9
$LUPREC
 70
     4
  9
$SKETCHINC
 40
1.0
  9
$FILLETRAD
 40
0.5
  9
$AUNITS
 70
     0
  9
$AUPREC
 70
     0
  9
$MENU
  1
.
  9
$ELEVATION
 40
0.0
  9
$PELEVATION
 40
0.0
  9
$THICKNESS
 40
0.0
  9
$LIMCHECK
 70
     0
  9
$BLIPMODE
 70
     1
  9
$CHAMFERA
 40
0.5
  9
$CHAMFERB
 40
0.5
  9
$SKPOLY
 70
     0
  9
$TDCREATE
 40
2450687.602685
  9
$TDUPDATE
 40
2450687.602685
  9
$TDINDWG
 40
0.0
  9
$TDUSRTIMER
 40
0.0
  9
$USRTIMER
 70
     1
  9
$ANGBASE
 50
0.0
  9
$ANGDIR
 70
     0
  9
$PDMODE
 70
     0
  9
$PDSIZE
 40
0.0
  9
$PLINEWID
 40
0.0
  9
$COORDS
 70
     2
  9
$SPLFRAME
 70
     0
  9
$SPLINETYPE
 70
     6
  9
$SPLINESEGS
 70
     8
  9
$ATTDIA
 70
     0
  9
$ATTREQ
 70
     1
  9
$HANDLING
 70
     1
  9
$HANDSEED
  5
1265
  9
$SURFTAB1
 70
     6
  9
$SURFTAB2
 70
     6
  9
$SURFTYPE
 70
     6
  9
$SURFU
 70
     6
  9
$SURFV
 70
     6
  9
$UCSNAME
  2

  9
$UCSORG
 10
0.0
 20
0.0
 30
0.0
  9
$UCSXDIR
 10
1.0
 20
0.0
 30
0.0
  9
$UCSYDIR
 10
0.0
 20
1.0
 30
0.0
  9
$PUCSNAME
  2

  9
$PUCSORG
 10
0.0
 20
0.0
 30
0.0
  9
$PUCSXDIR
 10
1.0
 20
0.0
 30
0.0
  9
$PUCSYDIR
 10
0.0
 20
1.0
 30
0.0
  9
$USERI1
 70
     0
  9
$USERI2
 70
     0
  9
$USERI3
 70
     0
  9
$USERI4
 70
     0
  9
$USERI5
 70
     0
  9
$USERR1
 40
0.0
  9
$USERR2
 40
0.0
  9
$USERR3
 40
0.0
  9
$USERR4
 40
0.0
  9
$USERR5
 40
0.0
  9
$WORLDVIEW
 70
     1
  9
$SHADEDGE
 70
     3
  9
$SHADEDIF
 70
    70
  9
$TILEMODE
 70
     1
  9
$MAXACTVP
 70
    16
  9
$PLIMCHECK
 70
     0
  9
$PEXTMIN
 10
1.000000E+020
 20
1.000000E+020
 30
1.000000E+020
  9
$PEXTMAX
 10
-1.000000E+020
 20
-1.000000E+020
 30
-1.000000E+020
  9
$PLIMMIN
 10
0.0
 20
0.0
  9
$PLIMMAX
 10
420.0
 20
297.0
  9
$UNITMODE
 70
     0
  9
$VISRETAIN
 70
     0
  9
$PLINEGEN
 70
     0
  9
$PSLTSCALE
 70
     1
  0
ENDSEC
  0
SECTION
  2
TABLES
  0
TABLE
  2
VPORT
 70
     2
  0
VPORT
  2
*ACTIVE
 70
     0
 10
0.0
 20
0.0
 11
1.0
 21
1.0
 12
131.824561
 22
97.390177
 13
0.0
 23
0.0
 14
0.25
 24
0.25
 15
0.5
 25
0.5
 16
0.0
 26
0.0
 36
1.0
 17
0.0
 27
0.0
 37
0.0
 40
194.780355
 41
1.353571
 42
50.0
 43
0.0
 44
0.0
 50
0.0
 51
0.0
 71
     0
 72
 20000
 73
     1
 74
     1
 75
     1
 76
     0
 77
     0
 78
     0
  0
ENDTAB
  0
TABLE
  2
LTYPE
 70
     3
  0
LTYPE
  2
CONTINUOUS
 70
     0
  3
Solid line
 72
    65
 73
     0
 40
0.0
  0
LTYPE
  2
TENSEN
 70
     0
  3

 72
    65
 73
     2
 40
2.5
 49
1.5
 49
-1.0
  0
LTYPE
  2
ITTEN
 70
     0
  3

 72
    65
 73
     4
 40
3.6
 49
2.0
 49
-0.5
 49
0.6
 49
-0.5
  0
ENDTAB
  0
TABLE
  2
LAYER
 70
     4
  0
LAYER
  2
0
 70
     0
 62
     7
  6
CONTINUOUS
  0
LAYER
  2
2
 70
     0
 62
     2
  6
TENSEN
  0
LAYER
  2
1
 70
     0
 62
     1
  6
ITTEN
  0
LAYER
  2
3
 70
     0
 62
     3
  6
CONTINUOUS
  0
ENDTAB
  0
TABLE
  2
STYLE
 70
     1
  0
STYLE
  2
STANDARD
 70
     0
 40
7.0
 41
0.8
 50
0.0
 71
     0
 42
7.0
  3
ISOCP
  4
B:\r13\com\fonts\bigfont.shx
  0
ENDTAB
  0
TABLE
  2
VIEW
 70
     0
  0
ENDTAB
  0
TABLE
  2
UCS
 70
     0
  0
ENDTAB
  0
TABLE
  2
APPID
 70
     1
  0
APPID
  2
ACAD
 70
     0
  0
ENDTAB
  0
TABLE
  2
DIMSTYLE
 70
     8
  0
DIMSTYLE
  2
STANDARD
 70
     0
  3

  4

  5

  6

  7

 40
1.0
 41
0.18
 42
0.0625
 43
0.38
 44
0.18
 45
0.0
 46
0.0
 47
0.0
 48
0.0
140
0.18
141
0.09
142
0.0
143
25.4
144
1.0
145
0.0
146
1.0
147
0.09
 71
     0
 72
     0
 73
     1
 74
     1
 75
     0
 76
     0
 77
     0
 78
     0
170
     0
171
     2
172
     0
173
     0
174
     0
175
     0
176
     0
177
     0
178
     0
  0
DIMSTYLE
  2
ISO-25
 70
     0
  3

  4

  5

  6

  7

 40
1.0
 41
2.5
 42
0.625
 43
3.75
 44
1.25
 45
0.0
 46
0.0
 47
0.0
 48
0.0
140
2.5
141
2.5
142
0.0
143
0.0394
144
1.0
145
1.0
146
1.0
147
0.625
 71
     0
 72
     0
 73
     1
 74
     0
 75
     0
 76
     0
 77
     1
 78
     8
170
     0
171
     2
172
     1
173
     0
174
     0
175
     0
176
     0
177
     0
178
     0
  0
DIMSTYLE
  2
ISO-35
 70
     0
  3

  4

  5

  6

  7

 40
1.0
 41
3.5
 42
0.875
 43
5.25
 44
1.75
 45
0.0
 46
0.0
 47
0.0
 48
0.0
140
3.5
141
3.5
142
0.0
143
0.0394
144
1.0
145
1.4
146
1.0
147
0.875
 71
     0
 72
     0
 73
     1
 74
     0
 75
     0
 76
     0
 77
     1
 78
     8
170
     0
171
     2
172
     1
173
     0
174
     0
175
     0
176
     0
177
     0
178
     0
  0
DIMSTYLE
  2
ISO-5
 70
     0
  3

  4

  5

  6

  7

 40
1.0
 41
5.0
 42
1.25
 43
7.5
 44
2.5
 45
0.0
 46
0.0
 47
0.0
 48
0.0
140
5.0
141
5.0
142
0.0
143
0.0394
144
1.0
145
2.0
146
1.0
147
1.25
 71
     0
 72
     0
 73
     1
 74
     0
 75
     0
 76
     0
 77
     1
 78
     8
170
     0
171
     2
172
     1
173
     0
174
     0
175
     0
176
     0
177
     0
178
     0
  0
DIMSTYLE
  2
ISO-7
 70
     0
  3

  4

  5

  6

  7

 40
1.0
 41
7.0
 42
1.75
 43
10.5
 44
3.5
 45
0.0
 46
0.0
 47
0.0
 48
0.0
140
7.0
141
7.0
142
0.0
143
0.0394
144
1.0
145
2.8
146
1.0
147
1.75
 71
     0
 72
     0
 73
     1
 74
     0
 75
     0
 76
     0
 77
     1
 78
     8
170
     0
171
     2
172
     1
173
     0
174
     0
175
     0
176
     0
177
     0
178
     0
  0
DIMSTYLE
  2
ISO1
 70
     0
  3

  4

  5

  6

  7

 40
1.0
 41
10.0
 42
2.5
 43
15.0
 44
5.0
 45
0.0
 46
0.0
 47
0.0
 48
0.0
140
10.0
141
10.0
142
0.0
143
0.0394
144
1.0
145
4.0
146
1.0
147
2.5
 71
     0
 72
     0
 73
     1
 74
     0
 75
     0
 76
     0
 77
     1
 78
     8
170
     0
171
     2
172
     1
173
     0
174
     0
175
     0
176
     0
177
     0
178
     0
  0
DIMSTYLE
  2
ISO1-4
 70
     0
  3

  4

  5

  6

  7

 40
1.0
 41
14.0
 42
3.5
 43
21.0
 44
7.0
 45
0.0
 46
0.0
 47
0.0
 48
0.0
140
14.0
141
14.0
142
0.0
143
0.0394
144
1.0
145
5.6
146
1.0
147
3.5
 71
     0
 72
     0
 73
     1
 74
     0
 75
     0
 76
     0
 77
     1
 78
     8
170
     0
171
     2
172
     1
173
     0
174
     0
175
     0
176
     0
177
     0
178
     0
  0
DIMSTYLE
  2
ISO2
 70
     0
  3

  4

  5

  6

  7

 40
1.0
 41
20.0
 42
5.0
 43
30.0
 44
10.0
 45
0.0
 46
0.0
 47
0.0
 48
0.0
140
20.0
141
20.0
142
0.0
143
0.0394
144
1.0
145
8.0
146
1.0
147
5.0
 71
     0
 72
     0
 73
     1
 74
     0
 75
     0
 76
     0
 77
     1
 78
     8
170
     0
171
     2
172
     1
173
     0
174
     0
175
     0
176
     0
177
     0
178
     0
  0
ENDTAB
  0
ENDSEC
  0
SECTION
  2
BLOCKS
  0
BLOCK
  8
0
  2
$MODEL_SPACE
 70
     0
 10
0.0
 20
0.0
 30
0.0
  3
$MODEL_SPACE
  1

  0
ENDBLK
  5
125E
  8
0
  0
BLOCK
 67
     1
  8
0
  2
$PAPER_SPACE
 70
     0
 10
0.0
 20
0.0
 30
0.0
  3
$PAPER_SPACE
  1

  0
ENDBLK
  5
125C
 67
     1
  8
0
  0
ENDSEC
  0
SECTION
  2
ENTITIES
  0
TEXT
  5
37
  8
0
 10
140.507298
 20
54.595271
 30
0.0
 40
4.55
  1
部品名称
 41
0.8
  0
TEXT
  5
38
  8
0
 10
140.507298
 20
38.635271
 30
0.0
 40
4.55
  1
品番
 41
0.8
  0
TEXT
  5
39
  8
0
 10
141.007298
 20
25.175271
 30
0.0
 40
4.55
  1
尺度
 41
0.8
  0
TEXT
  5
3A
  8
0
 10
141.507298
 20
10.715271
 30
0.0
 40
4.55
  1
図番
 41
0.8
  0
TEXT
  5
3F
  8
0
 10
140.6
 20
17.0
 30
0.0
 40
7.0
  1
１／１
 41
0.8
  0
TEXT
  5
ED2
  8
0
 10
140.75
 20
46.75
 30
0.0
 40
7.0
  1
ナールドナット
 41
0.8
  0
TEXT
  5
ED3
  8
0
 10
140.75
 20
30.85
 30
0.0
 40
7.0
  1
ＫＮＴＡ－
 41
0.8
  0
TEXT
  5
ED4
  8
0
 10
173.25
 20
30.7
 30
0.0
 40
7.0
  1
５
 41
0.8
  0
LINE
  5
ED5
  8
1
 10
12.5
 20
99.5
 30
0.0
 11
45.75
 21
99.5
 31
0.0
  0
LINE
  5
ED6
  8
1
 10
29.25
 20
115.75
 30
0.0
 11
29.25
 21
83.0
 31
0.0
  0
LINE
  5
ED8
  8
1
 10
59.75
 20
99.5
 30
0.0
 11
82.75
 21
99.5
 31
0.0
  0
CIRCLE
  5
ED9
  8
0
 10
29.25
 20
99.5
 30
0.0
 40
7.5
  0
CIRCLE
  5
EDA
  8
0
 10
29.25
 20
99.5
 30
0.0
 40
2.0
  0
CIRCLE
  5
EDB
  8
0
 10
29.25
 20
99.5
 30
0.0
 40
2.5
  0
LINE
  5
F25
  8
0
 10
29.25
 20
109.5
 30
0.0
 11
29.477013
 21
109.244245
 31
0.0
  0
LINE
  5
F26
  8
0
 10
29.477013
 20
109.244245
 30
0.0
 11
29.705379
 21
109.483897
 31
0.0
  0
LINE
  5
F27
  8
0
 10
29.705379
 20
109.483897
 30
0.0
 11
29.89378
 21
109.232833
 31
0.0
  0
LINE
  5
F28
  8
0
 10
29.89378
 20
109.232833
 30
0.0
 11
30.121557
 21
109.461947
 31
0.0
  0
LINE
  5
F29
  8
0
 10
28.378443
 20
109.461947
 30
0.0
 11
28.626882
 21
109.226951
 31
0.0
  0
LINE
  5
F2A
  8
0
 10
28.626882
 20
109.226951
 30
0.0
 11
28.833492
 21
109.485594
 31
0.0
  0
LINE
  5
F2B
  8
0
 10
28.833492
 20
109.485594
 30
0.0
 11
29.043058
 21
109.251906
 31
0.0
  0
LINE
  5
F2C
  8
0
 10
29.043058
 20
109.251906
 30
0.0
 11
29.25
 21
109.5
 31
0.0
  0
LINE
  5
F2D
  8
0
 10
27.513518
 20
109.348078
 30
0.0
 11
27.781494
 21
109.135628
 31
0.0
  0
LINE
  5
F2E
  8
0
 10
27.781494
 20
109.135628
 30
0.0
 11
27.964775
 21
109.411295
 31
0.0
  0
LINE
  5
F2F
  8
0
 10
27.964775
 20
109.411295
 30
0.0
 11
28.193911
 21
109.196761
 31
0.0
  0
LINE
  5
F30
  8
0
 10
28.193911
 20
109.196761
 30
0.0
 11
28.378443
 21
109.461947
 31
0.0
  0
LINE
  5
F31
  8
0
 10
26.66181
 20
109.159258
 30
0.0
 11
26.947282
 21
108.970973
 31
0.0
  0
LINE
  5
F32
  8
0
 10
26.947282
 20
108.970973
 30
0.0
 11
27.105839
 21
109.261565
 31
0.0
  0
LINE
  5
F33
  8
0
 10
27.105839
 20
109.261565
 30
0.0
 11
27.352801
 21
109.067818
 31
0.0
  0
LINE
  5
F34
  8
0
 10
27.352801
 20
109.067818
 30
0.0
 11
27.513518
 21
109.348078
 31
0.0
  0
LINE
  5
F35
  8
0
 10
25.829799
 20
108.896926
 30
0.0
 11
26.130595
 21
108.734238
 31
0.0
  0
LINE
  5
F36
  8
0
 10
26.130595
 20
108.734238
 30
0.0
 11
26.263222
 21
109.037543
 31
0.0
  0
LINE
  5
F37
  8
0
 10
26.263222
 20
109.037543
 30
0.0
 11
26.52613
 21
108.866057
 31
0.0
  0
LINE
  5
F38
  8
0
 10
26.52613
 20
108.866057
 30
0.0
 11
26.66181
 21
109.159258
 31
0.0
  0
LINE
  5
F39
  8
0
 10
25.023817
 20
108.563078
 30
0.0
 11
25.337648
 21
108.427225
 31
0.0
  0
LINE
  5
F3A
  8
0
 10
25.337648
 20
108.427225
 30
0.0
 11
25.443336
 21
108.740935
 31
0.0
  0
LINE
  5
F3B
  8
0
 10
25.443336
 20
108.740935
 30
0.0
 11
25.72019
 21
108.593016
 31
0.0
  0
LINE
  5
F3C
  8
0
 10
25.72019
 20
108.593016
 30
0.0
 11
25.829799
 21
108.896926
 31
0.0
  0
LINE
  5
F3D
  8
0
 10
24.25
 20
108.160254
 30
0.0
 11
24.574477
 21
108.05227
 31
0.0
  0
LINE
  5
F3E
  8
0
 10
24.574477
 20
108.05227
 30
0.0
 11
24.652421
 21
108.373998
 31
0.0
  0
LINE
  5
F3F
  8
0
 10
24.652421
 20
108.373998
 30
0.0
 11
24.941113
 21
108.250771
 31
0.0
  0
LINE
  5
F40
  8
0
 10
24.941113
 20
108.250771
 30
0.0
 11
25.023817
 21
108.563078
 31
0.0
  0
LINE
  5
F41
  8
0
 10
23.514236
 20
107.69152
 30
0.0
 11
23.846889
 21
107.612228
 31
0.0
  0
LINE
  5
F42
  8
0
 10
23.846889
 20
107.612228
 30
0.0
 11
23.896496
 21
107.939524
 31
0.0
  0
LINE
  5
F43
  8
0
 10
23.896496
 20
107.939524
 30
0.0
 11
24.19483
 21
107.841927
 31
0.0
  0
LINE
  5
F44
  8
0
 10
24.19483
 20
107.841927
 30
0.0
 11
24.25
 21
108.160254
 31
0.0
  0
LINE
  5
F45
  8
0
 10
22.822124
 20
107.160444
 30
0.0
 11
23.160422
 21
107.110446
 31
0.0
  0
LINE
  5
F46
  8
0
 10
23.160422
 20
107.110446
 30
0.0
 11
23.181315
 21
107.440821
 31
0.0
  0
LINE
  5
F47
  8
0
 10
23.181315
 20
107.440821
 30
0.0
 11
23.487019
 21
107.369597
 31
0.0
  0
LINE
  5
F48
  8
0
 10
23.487019
 20
107.369597
 30
0.0
 11
23.514236
 21
107.69152
 31
0.0
  0
LINE
  5
F49
  8
0
 10
22.178932
 20
106.571068
 30
0.0
 11
22.520301
 21
106.550744
 31
0.0
  0
LINE
  5
F4A
  8
0
 10
22.520301
 20
106.550744
 30
0.0
 11
22.51232
 21
106.881683
 31
0.0
  0
LINE
  5
F4B
  8
0
 10
22.51232
 20
106.881683
 30
0.0
 11
22.823069
 21
106.837374
 31
0.0
  0
LINE
  5
F4C
  8
0
 10
22.823069
 20
106.837374
 30
0.0
 11
22.822124
 21
107.160444
 31
0.0
  0
LINE
  5
F4D
  8
0
 10
21.589556
 20
105.927876
 30
0.0
 11
21.931397
 21
105.937382
 31
0.0
  0
LINE
  5
F4E
  8
0
 10
21.931397
 20
105.937382
 30
0.0
 11
21.894603
 21
106.266366
 31
0.0
  0
LINE
  5
F4F
  8
0
 10
21.894603
 20
106.266366
 30
0.0
 11
22.208031
 21
106.249309
 31
0.0
  0
LINE
  5
F50
  8
0
 10
22.208031
 20
106.249309
 30
0.0
 11
22.178932
 21
106.571068
 31
0.0
  0
LINE
  5
F51
  8
0
 10
21.05848
 20
105.235764
 30
0.0
 11
21.398191
 21
105.275028
 31
0.0
  0
LINE
  5
F52
  8
0
 10
21.398191
 20
105.275028
 30
0.0
 11
21.332865
 21
105.599553
 31
0.0
  0
LINE
  5
F53
  8
0
 10
21.332865
 20
105.599553
 30
0.0
 11
21.646587
 21
105.609878
 31
0.0
  0
LINE
  5
F54
  8
0
 10
21.646587
 20
105.609878
 30
0.0
 11
21.589556
 21
105.927876
 31
0.0
  0
LINE
  5
F55
  8
0
 10
20.589746
 20
104.5
 30
0.0
 11
20.924743
 21
104.568722
 31
0.0
  0
LINE
  5
F56
  8
0
 10
20.924743
 20
104.568722
 30
0.0
 11
20.831381
 21
104.886318
 31
0.0
  0
LINE
  5
F57
  8
0
 10
20.831381
 20
104.886318
 30
0.0
 11
21.143009
 21
104.923947
 31
0.0
  0
LINE
  5
F58
  8
0
 10
21.143009
 20
104.923947
 30
0.0
 11
21.05848
 21
105.235764
 31
0.0
  0
LINE
  5
F59
  8
0
 10
20.186922
 20
103.726183
 30
0.0
 11
20.514655
 21
103.82384
 31
0.0
  0
LINE
  5
F5A
  8
0
 10
20.514655
 20
103.82384
 30
0.0
 11
20.393968
 21
104.132091
 31
0.0
  0
LINE
  5
F5B
  8
0
 10
20.393968
 20
104.132091
 30
0.0
 11
20.701131
 21
104.196736
 31
0.0
  0
LINE
  5
F5C
  8
0
 10
20.701131
 20
104.196736
 30
0.0
 11
20.589746
 21
104.5
 31
0.0
  0
LINE
  5
F5D
  8
0
 10
19.853074
 20
102.920201
 30
0.0
 11
20.171048
 21
103.046051
 31
0.0
  0
LINE
  5
F5E
  8
0
 10
20.171048
 20
103.046051
 30
0.0
 11
20.023954
 21
103.34261
 31
0.0
  0
LINE
  5
F5F
  8
0
 10
20.023954
 20
103.34261
 30
0.0
 11
20.324314
 21
103.43378
 31
0.0
  0
LINE
  5
F60
  8
0
 10
20.324314
 20
103.43378
 30
0.0
 11
20.186922
 21
103.726183
 31
0.0
  0
LINE
  5
F61
  8
0
 10
19.590742
 20
102.08819
 30
0.0
 11
19.896537
 21
102.241274
 31
0.0
  0
LINE
  5
F62
  8
0
 10
19.896537
 20
102.241274
 30
0.0
 11
19.724157
 21
102.523885
 31
0.0
  0
LINE
  5
F63
  8
0
 10
19.724157
 20
102.523885
 30
0.0
 11
20.015427
 21
102.640886
 31
0.0
  0
LINE
  5
F64
  8
0
 10
20.015427
 20
102.640886
 30
0.0
 11
19.853074
 21
102.920201
 31
0.0
  0
LINE
  5
F65
  8
0
 10
19.401922
 20
101.236482
 30
0.0
 11
19.693212
 21
101.415635
 31
0.0
  0
LINE
  5
F66
  8
0
 10
19.693212
 20
101.415635
 30
0.0
 11
19.496857
 21
101.682146
 31
0.0
  0
LINE
  5
F67
  8
0
 10
19.496857
 20
101.682146
 30
0.0
 11
19.776821
 21
101.824088
 31
0.0
  0
LINE
  5
F68
  8
0
 10
19.776821
 20
101.824088
 30
0.0
 11
19.590742
 21
102.08819
 31
0.0
  0
LINE
  5
F69
  8
0
 10
19.288053
 20
100.371557
 30
0.0
 11
19.56262
 21
100.575416
 31
0.0
  0
LINE
  5
F6A
  8
0
 10
19.56262
 20
100.575416
 30
0.0
 11
19.343784
 21
100.8238
 31
0.0
  0
LINE
  5
F6B
  8
0
 10
19.343784
 20
100.8238
 30
0.0
 11
19.610312
 21
100.989603
 31
0.0
  0
LINE
  5
F6C
  8
0
 10
19.610312
 20
100.989603
 30
0.0
 11
19.401922
 21
101.236482
 31
0.0
  0
LINE
  5
F6D
  8
0
 10
19.25
 20
99.5
 30
0.0
 11
19.505755
 21
99.727013
 31
0.0
  0
LINE
  5
F6E
  8
0
 10
19.505755
 20
99.727013
 30
0.0
 11
19.266103
 21
99.955379
 31
0.0
  0
LINE
  5
F6F
  8
0
 10
19.266103
 20
99.955379
 30
0.0
 11
19.517167
 21
100.14378
 31
0.0
  0
LINE
  5
F70
  8
0
 10
19.517167
 20
100.14378
 30
0.0
 11
19.288053
 21
100.371557
 31
0.0
  0
LINE
  5
F71
  8
0
 10
19.288053
 20
98.628443
 30
0.0
 11
19.523049
 21
98.876882
 31
0.0
  0
LINE
  5
F72
  8
0
 10
19.523049
 20
98.876882
 30
0.0
 11
19.264406
 21
99.083492
 31
0.0
  0
LINE
  5
F73
  8
0
 10
19.264406
 20
99.083492
 30
0.0
 11
19.498094
 21
99.293058
 31
0.0
  0
LINE
  5
F74
  8
0
 10
19.498094
 20
99.293058
 30
0.0
 11
19.25
 21
99.5
 31
0.0
  0
LINE
  5
F75
  8
0
 10
19.401922
 20
97.763518
 30
0.0
 11
19.614372
 21
98.031494
 31
0.0
  0
LINE
  5
F76
  8
0
 10
19.614372
 20
98.031494
 30
0.0
 11
19.338705
 21
98.214775
 31
0.0
  0
LINE
  5
F77
  8
0
 10
19.338705
 20
98.214775
 30
0.0
 11
19.553239
 21
98.443911
 31
0.0
  0
LINE
  5
F78
  8
0
 10
19.553239
 20
98.443911
 30
0.0
 11
19.288053
 21
98.628443
 31
0.0
  0
LINE
  5
F79
  8
0
 10
19.590742
 20
96.91181
 30
0.0
 11
19.779027
 21
97.197282
 31
0.0
  0
LINE
  5
F7A
  8
0
 10
19.779027
 20
97.197282
 30
0.0
 11
19.488435
 21
97.355839
 31
0.0
  0
LINE
  5
F7B
  8
0
 10
19.488435
 20
97.355839
 30
0.0
 11
19.682182
 21
97.602801
 31
0.0
  0
LINE
  5
F7C
  8
0
 10
19.682182
 20
97.602801
 30
0.0
 11
19.401922
 21
97.763518
 31
0.0
  0
LINE
  5
F7D
  8
0
 10
19.853074
 20
96.079799
 30
0.0
 11
20.015762
 21
96.380595
 31
0.0
  0
LINE
  5
F7E
  8
0
 10
20.015762
 20
96.380595
 30
0.0
 11
19.712457
 21
96.513222
 31
0.0
  0
LINE
  5
F7F
  8
0
 10
19.712457
 20
96.513222
 30
0.0
 11
19.883943
 21
96.77613
 31
0.0
  0
LINE
  5
F80
  8
0
 10
19.883943
 20
96.77613
 30
0.0
 11
19.590742
 21
96.91181
 31
0.0
  0
LINE
  5
F81
  8
0
 10
20.186922
 20
95.273817
 30
0.0
 11
20.322775
 21
95.587648
 31
0.0
  0
LINE
  5
F82
  8
0
 10
20.322775
 20
95.587648
 30
0.0
 11
20.009065
 21
95.693336
 31
0.0
  0
LINE
  5
F83
  8
0
 10
20.009065
 20
95.693336
 30
0.0
 11
20.156984
 21
95.97019
 31
0.0
  0
LINE
  5
F84
  8
0
 10
20.156984
 20
95.97019
 30
0.0
 11
19.853074
 21
96.079799
 31
0.0
  0
LINE
  5
F85
  8
0
 10
20.589746
 20
94.5
 30
0.0
 11
20.69773
 21
94.824477
 31
0.0
  0
LINE
  5
F86
  8
0
 10
20.69773
 20
94.824477
 30
0.0
 11
20.376002
 21
94.902421
 31
0.0
  0
LINE
  5
F87
  8
0
 10
20.376002
 20
94.902421
 30
0.0
 11
20.499229
 21
95.191113
 31
0.0
  0
LINE
  5
F88
  8
0
 10
20.499229
 20
95.191113
 30
0.0
 11
20.186922
 21
95.273817
 31
0.0
  0
LINE
  5
F89
  8
0
 10
21.05848
 20
93.764236
 30
0.0
 11
21.137772
 21
94.096889
 31
0.0
  0
LINE
  5
F8A
  8
0
 10
21.137772
 20
94.096889
 30
0.0
 11
20.810476
 21
94.146496
 31
0.0
  0
LINE
  5
F8B
  8
0
 10
20.810476
 20
94.146496
 30
0.0
 11
20.908073
 21
94.44483
 31
0.0
  0
LINE
  5
F8C
  8
0
 10
20.908073
 20
94.44483
 30
0.0
 11
20.589746
 21
94.5
 31
0.0
  0
LINE
  5
F8D
  8
0
 10
21.589556
 20
93.072124
 30
0.0
 11
21.639554
 21
93.410422
 31
0.0
  0
LINE
  5
F8E
  8
0
 10
21.639554
 20
93.410422
 30
0.0
 11
21.309179
 21
93.431315
 31
0.0
  0
LINE
  5
F8F
  8
0
 10
21.309179
 20
93.431315
 30
0.0
 11
21.380403
 21
93.737019
 31
0.0
  0
LINE
  5
F90
  8
0
 10
21.380403
 20
93.737019
 30
0.0
 11
21.05848
 21
93.764236
 31
0.0
  0
LINE
  5
F91
  8
0
 10
22.178932
 20
92.428932
 30
0.0
 11
22.199256
 21
92.770301
 31
0.0
  0
LINE
  5
F92
  8
0
 10
22.199256
 20
92.770301
 30
0.0
 11
21.868317
 21
92.76232
 31
0.0
  0
LINE
  5
F93
  8
0
 10
21.868317
 20
92.76232
 30
0.0
 11
21.912626
 21
93.073069
 31
0.0
  0
LINE
  5
F94
  8
0
 10
21.912626
 20
93.073069
 30
0.0
 11
21.589556
 21
93.072124
 31
0.0
  0
LINE
  5
F95
  8
0
 10
22.822124
 20
91.839556
 30
0.0
 11
22.812618
 21
92.181397
 31
0.0
  0
LINE
  5
F96
  8
0
 10
22.812618
 20
92.181397
 30
0.0
 11
22.483634
 21
92.144603
 31
0.0
  0
LINE
  5
F97
  8
0
 10
22.483634
 20
92.144603
 30
0.0
 11
22.500691
 21
92.458031
 31
0.0
  0
LINE
  5
F98
  8
0
 10
22.500691
 20
92.458031
 30
0.0
 11
22.178932
 21
92.428932
 31
0.0
  0
LINE
  5
F99
  8
0
 10
23.514236
 20
91.30848
 30
0.0
 11
23.474972
 21
91.648191
 31
0.0
  0
LINE
  5
F9A
  8
0
 10
23.474972
 20
91.648191
 30
0.0
 11
23.150447
 21
91.582865
 31
0.0
  0
LINE
  5
F9B
  8
0
 10
23.150447
 20
91.582865
 30
0.0
 11
23.140122
 21
91.896587
 31
0.0
  0
LINE
  5
F9C
  8
0
 10
23.140122
 20
91.896587
 30
0.0
 11
22.822124
 21
91.839556
 31
0.0
  0
LINE
  5
F9D
  8
0
 10
24.25
 20
90.839746
 30
0.0
 11
24.181278
 21
91.174743
 31
0.0
  0
LINE
  5
F9E
  8
0
 10
24.181278
 20
91.174743
 30
0.0
 11
23.863682
 21
91.081381
 31
0.0
  0
LINE
  5
F9F
  8
0
 10
23.863682
 20
91.081381
 30
0.0
 11
23.826053
 21
91.393009
 31
0.0
  0
LINE
  5
FA0
  8
0
 10
23.826053
 20
91.393009
 30
0.0
 11
23.514236
 21
91.30848
 31
0.0
  0
LINE
  5
FA1
  8
0
 10
25.023817
 20
90.436922
 30
0.0
 11
24.92616
 21
90.764655
 31
0.0
  0
LINE
  5
FA2
  8
0
 10
24.92616
 20
90.764655
 30
0.0
 11
24.617909
 21
90.643968
 31
0.0
  0
LINE
  5
FA3
  8
0
 10
24.617909
 20
90.643968
 30
0.0
 11
24.553264
 21
90.951131
 31
0.0
  0
LINE
  5
FA4
  8
0
 10
24.553264
 20
90.951131
 30
0.0
 11
24.25
 21
90.839746
 31
0.0
  0
LINE
  5
FA5
  8
0
 10
25.829799
 20
90.103074
 30
0.0
 11
25.703949
 21
90.421048
 31
0.0
  0
LINE
  5
FA6
  8
0
 10
25.703949
 20
90.421048
 30
0.0
 11
25.40739
 21
90.273954
 31
0.0
  0
LINE
  5
FA7
  8
0
 10
25.40739
 20
90.273954
 30
0.0
 11
25.31622
 21
90.574314
 31
0.0
  0
LINE
  5
FA8
  8
0
 10
25.31622
 20
90.574314
 30
0.0
 11
25.023817
 21
90.436922
 31
0.0
  0
LINE
  5
FA9
  8
0
 10
26.66181
 20
89.840742
 30
0.0
 11
26.508726
 21
90.146537
 31
0.0
  0
LINE
  5
FAA
  8
0
 10
26.508726
 20
90.146537
 30
0.0
 11
26.226115
 21
89.974157
 31
0.0
  0
LINE
  5
FAB
  8
0
 10
26.226115
 20
89.974157
 30
0.0
 11
26.109114
 21
90.265427
 31
0.0
  0
LINE
  5
FAC
  8
0
 10
26.109114
 20
90.265427
 30
0.0
 11
25.829799
 21
90.103074
 31
0.0
  0
LINE
  5
FAD
  8
0
 10
27.513518
 20
89.651922
 30
0.0
 11
27.334365
 21
89.943212
 31
0.0
  0
LINE
  5
FAE
  8
0
 10
27.334365
 20
89.943212
 30
0.0
 11
27.067854
 21
89.746857
 31
0.0
  0
LINE
  5
FAF
  8
0
 10
27.067854
 20
89.746857
 30
0.0
 11
26.925912
 21
90.026821
 31
0.0
  0
LINE
  5
FB0
  8
0
 10
26.925912
 20
90.026821
 30
0.0
 11
26.66181
 21
89.840742
 31
0.0
  0
LINE
  5
FB1
  8
0
 10
28.378443
 20
89.538053
 30
0.0
 11
28.174584
 21
89.81262
 31
0.0
  0
LINE
  5
FB2
  8
0
 10
28.174584
 20
89.81262
 30
0.0
 11
27.9262
 21
89.593784
 31
0.0
  0
LINE
  5
FB3
  8
0
 10
27.9262
 20
89.593784
 30
0.0
 11
27.760397
 21
89.860312
 31
0.0
  0
LINE
  5
FB4
  8
0
 10
27.760397
 20
89.860312
 30
0.0
 11
27.513518
 21
89.651922
 31
0.0
  0
LINE
  5
FB5
  8
0
 10
29.25
 20
89.5
 30
0.0
 11
29.022987
 21
89.755755
 31
0.0
  0
LINE
  5
FB6
  8
0
 10
29.022987
 20
89.755755
 30
0.0
 11
28.794621
 21
89.516103
 31
0.0
  0
LINE
  5
FB7
  8
0
 10
28.794621
 20
89.516103
 30
0.0
 11
28.60622
 21
89.767167
 31
0.0
  0
LINE
  5
FB8
  8
0
 10
28.60622
 20
89.767167
 30
0.0
 11
28.378443
 21
89.538053
 31
0.0
  0
LINE
  5
FB9
  8
0
 10
30.121557
 20
89.538053
 30
0.0
 11
29.873118
 21
89.773049
 31
0.0
  0
LINE
  5
FBA
  8
0
 10
29.873118
 20
89.773049
 30
0.0
 11
29.666508
 21
89.514406
 31
0.0
  0
LINE
  5
FBB
  8
0
 10
29.666508
 20
89.514406
 30
0.0
 11
29.456942
 21
89.748094
 31
0.0
  0
LINE
  5
FBC
  8
0
 10
29.456942
 20
89.748094
 30
0.0
 11
29.25
 21
89.5
 31
0.0
  0
LINE
  5
FBD
  8
0
 10
30.986482
 20
89.651922
 30
0.0
 11
30.718506
 21
89.864372
 31
0.0
  0
LINE
  5
FBE
  8
0
 10
30.718506
 20
89.864372
 30
0.0
 11
30.535225
 21
89.588705
 31
0.0
  0
LINE
  5
FBF
  8
0
 10
30.535225
 20
89.588705
 30
0.0
 11
30.306089
 21
89.803239
 31
0.0
  0
LINE
  5
FC0
  8
0
 10
30.306089
 20
89.803239
 30
0.0
 11
30.121557
 21
89.538053
 31
0.0
  0
LINE
  5
FC1
  8
0
 10
31.83819
 20
89.840742
 30
0.0
 11
31.552718
 21
90.029027
 31
0.0
  0
LINE
  5
FC2
  8
0
 10
31.552718
 20
90.029027
 30
0.0
 11
31.394161
 21
89.738435
 31
0.0
  0
LINE
  5
FC3
  8
0
 10
31.394161
 20
89.738435
 30
0.0
 11
31.147199
 21
89.932182
 31
0.0
  0
LINE
  5
FC4
  8
0
 10
31.147199
 20
89.932182
 30
0.0
 11
30.986482
 21
89.651922
 31
0.0
  0
LINE
  5
FC5
  8
0
 10
32.670201
 20
90.103074
 30
0.0
 11
32.369405
 21
90.265762
 31
0.0
  0
LINE
  5
FC6
  8
0
 10
32.369405
 20
90.265762
 30
0.0
 11
32.236778
 21
89.962457
 31
0.0
  0
LINE
  5
FC7
  8
0
 10
32.236778
 20
89.962457
 30
0.0
 11
31.97387
 21
90.133943
 31
0.0
  0
LINE
  5
FC8
  8
0
 10
31.97387
 20
90.133943
 30
0.0
 11
31.83819
 21
89.840742
 31
0.0
  0
LINE
  5
FC9
  8
0
 10
33.476183
 20
90.436922
 30
0.0
 11
33.162352
 21
90.572775
 31
0.0
  0
LINE
  5
FCA
  8
0
 10
33.162352
 20
90.572775
 30
0.0
 11
33.056664
 21
90.259065
 31
0.0
  0
LINE
  5
FCB
  8
0
 10
33.056664
 20
90.259065
 30
0.0
 11
32.77981
 21
90.406984
 31
0.0
  0
LINE
  5
FCC
  8
0
 10
32.77981
 20
90.406984
 30
0.0
 11
32.670201
 21
90.103074
 31
0.0
  0
LINE
  5
FCD
  8
0
 10
34.25
 20
90.839746
 30
0.0
 11
33.925523
 21
90.94773
 31
0.0
  0
LINE
  5
FCE
  8
0
 10
33.925523
 20
90.94773
 30
0.0
 11
33.847579
 21
90.626002
 31
0.0
  0
LINE
  5
FCF
  8
0
 10
33.847579
 20
90.626002
 30
0.0
 11
33.558887
 21
90.749229
 31
0.0
  0
LINE
  5
FD0
  8
0
 10
33.558887
 20
90.749229
 30
0.0
 11
33.476183
 21
90.436922
 31
0.0
  0
LINE
  5
FD1
  8
0
 10
34.985764
 20
91.30848
 30
0.0
 11
34.653111
 21
91.387772
 31
0.0
  0
LINE
  5
FD2
  8
0
 10
34.653111
 20
91.387772
 30
0.0
 11
34.603504
 21
91.060476
 31
0.0
  0
LINE
  5
FD3
  8
0
 10
34.603504
 20
91.060476
 30
0.0
 11
34.30517
 21
91.158073
 31
0.0
  0
LINE
  5
FD4
  8
0
 10
34.30517
 20
91.158073
 30
0.0
 11
34.25
 21
90.839746
 31
0.0
  0
LINE
  5
FD5
  8
0
 10
35.677876
 20
91.839556
 30
0.0
 11
35.339578
 21
91.889554
 31
0.0
  0
LINE
  5
FD6
  8
0
 10
35.339578
 20
91.889554
 30
0.0
 11
35.318685
 21
91.559179
 31
0.0
  0
LINE
  5
FD7
  8
0
 10
35.318685
 20
91.559179
 30
0.0
 11
35.012981
 21
91.630403
 31
0.0
  0
LINE
  5
FD8
  8
0
 10
35.012981
 20
91.630403
 30
0.0
 11
34.985764
 21
91.30848
 31
0.0
  0
LINE
  5
FD9
  8
0
 10
36.321068
 20
92.428932
 30
0.0
 11
35.979699
 21
92.449256
 31
0.0
  0
LINE
  5
FDA
  8
0
 10
35.979699
 20
92.449256
 30
0.0
 11
35.98768
 21
92.118317
 31
0.0
  0
LINE
  5
FDB
  8
0
 10
35.98768
 20
92.118317
 30
0.0
 11
35.676931
 21
92.162626
 31
0.0
  0
LINE
  5
FDC
  8
0
 10
35.676931
 20
92.162626
 30
0.0
 11
35.677876
 21
91.839556
 31
0.0
  0
LINE
  5
FDD
  8
0
 10
36.910444
 20
93.072124
 30
0.0
 11
36.568603
 21
93.062618
 31
0.0
  0
LINE
  5
FDE
  8
0
 10
36.568603
 20
93.062618
 30
0.0
 11
36.605397
 21
92.733634
 31
0.0
  0
LINE
  5
FDF
  8
0
 10
36.605397
 20
92.733634
 30
0.0
 11
36.291969
 21
92.750691
 31
0.0
  0
LINE
  5
FE0
  8
0
 10
36.291969
 20
92.750691
 30
0.0
 11
36.321068
 21
92.428932
 31
0.0
  0
LINE
  5
FE1
  8
0
 10
37.44152
 20
93.764236
 30
0.0
 11
37.101809
 21
93.724972
 31
0.0
  0
LINE
  5
FE2
  8
0
 10
37.101809
 20
93.724972
 30
0.0
 11
37.167135
 21
93.400447
 31
0.0
  0
LINE
  5
FE3
  8
0
 10
37.167135
 20
93.400447
 30
0.0
 11
36.853413
 21
93.390122
 31
0.0
  0
LINE
  5
FE4
  8
0
 10
36.853413
 20
93.390122
 30
0.0
 11
36.910444
 21
93.072124
 31
0.0
  0
LINE
  5
FE5
  8
0
 10
37.910254
 20
94.5
 30
0.0
 11
37.575257
 21
94.431278
 31
0.0
  0
LINE
  5
FE6
  8
0
 10
37.575257
 20
94.431278
 30
0.0
 11
37.668619
 21
94.113682
 31
0.0
  0
LINE
  5
FE7
  8
0
 10
37.668619
 20
94.113682
 30
0.0
 11
37.356991
 21
94.076053
 31
0.0
  0
LINE
  5
FE8
  8
0
 10
37.356991
 20
94.076053
 30
0.0
 11
37.44152
 21
93.764236
 31
0.0
  0
LINE
  5
FE9
  8
0
 10
38.313078
 20
95.273817
 30
0.0
 11
37.985345
 21
95.17616
 31
0.0
  0
LINE
  5
FEA
  8
0
 10
37.985345
 20
95.17616
 30
0.0
 11
38.106032
 21
94.867909
 31
0.0
  0
LINE
  5
FEB
  8
0
 10
38.106032
 20
94.867909
 30
0.0
 11
37.798869
 21
94.803264
 31
0.0
  0
LINE
  5
FEC
  8
0
 10
37.798869
 20
94.803264
 30
0.0
 11
37.910254
 21
94.5
 31
0.0
  0
LINE
  5
FED
  8
0
 10
38.646926
 20
96.079799
 30
0.0
 11
38.328952
 21
95.953949
 31
0.0
  0
LINE
  5
FEE
  8
0
 10
38.328952
 20
95.953949
 30
0.0
 11
38.476046
 21
95.65739
 31
0.0
  0
LINE
  5
FEF
  8
0
 10
38.476046
 20
95.65739
 30
0.0
 11
38.175686
 21
95.56622
 31
0.0
  0
LINE
  5
FF0
  8
0
 10
38.175686
 20
95.56622
 30
0.0
 11
38.313078
 21
95.273817
 31
0.0
  0
LINE
  5
FF1
  8
0
 10
38.909258
 20
96.91181
 30
0.0
 11
38.603463
 21
96.758726
 31
0.0
  0
LINE
  5
FF2
  8
0
 10
38.603463
 20
96.758726
 30
0.0
 11
38.775843
 21
96.476115
 31
0.0
  0
LINE
  5
FF3
  8
0
 10
38.775843
 20
96.476115
 30
0.0
 11
38.484573
 21
96.359114
 31
0.0
  0
LINE
  5
FF4
  8
0
 10
38.484573
 20
96.359114
 30
0.0
 11
38.646926
 21
96.079799
 31
0.0
  0
LINE
  5
FF5
  8
0
 10
39.098078
 20
97.763518
 30
0.0
 11
38.806788
 21
97.584365
 31
0.0
  0
LINE
  5
FF6
  8
0
 10
38.806788
 20
97.584365
 30
0.0
 11
39.003143
 21
97.317854
 31
0.0
  0
LINE
  5
FF7
  8
0
 10
39.003143
 20
97.317854
 30
0.0
 11
38.723179
 21
97.175912
 31
0.0
  0
LINE
  5
FF8
  8
0
 10
38.723179
 20
97.175912
 30
0.0
 11
38.909258
 21
96.91181
 31
0.0
  0
LINE
  5
FF9
  8
0
 10
39.211947
 20
98.628443
 30
0.0
 11
38.93738
 21
98.424584
 31
0.0
  0
LINE
  5
FFA
  8
0
 10
38.93738
 20
98.424584
 30
0.0
 11
39.156216
 21
98.1762
 31
0.0
  0
LINE
  5
FFB
  8
0
 10
39.156216
 20
98.1762
 30
0.0
 11
38.889688
 21
98.010397
 31
0.0
  0
LINE
  5
FFC
  8
0
 10
38.889688
 20
98.010397
 30
0.0
 11
39.098078
 21
97.763518
 31
0.0
  0
LINE
  5
FFD
  8
0
 10
39.25
 20
99.5
 30
0.0
 11
38.994245
 21
99.272987
 31
0.0
  0
LINE
  5
FFE
  8
0
 10
38.994245
 20
99.272987
 30
0.0
 11
39.233897
 21
99.044621
 31
0.0
  0
LINE
  5
FFF
  8
0
 10
39.233897
 20
99.044621
 30
0.0
 11
38.982833
 21
98.85622
 31
0.0
  0
LINE
  5
1000
  8
0
 10
38.982833
 20
98.85622
 30
0.0
 11
39.211947
 21
98.628443
 31
0.0
  0
LINE
  5
1001
  8
0
 10
39.211947
 20
100.371557
 30
0.0
 11
38.976951
 21
100.123118
 31
0.0
  0
LINE
  5
1002
  8
0
 10
38.976951
 20
100.123118
 30
0.0
 11
39.235594
 21
99.916508
 31
0.0
  0
LINE
  5
1003
  8
0
 10
39.235594
 20
99.916508
 30
0.0
 11
39.001906
 21
99.706942
 31
0.0
  0
LINE
  5
1004
  8
0
 10
39.001906
 20
99.706942
 30
0.0
 11
39.25
 21
99.5
 31
0.0
  0
LINE
  5
1005
  8
0
 10
39.098078
 20
101.236482
 30
0.0
 11
38.885628
 21
100.968506
 31
0.0
  0
LINE
  5
1006
  8
0
 10
38.885628
 20
100.968506
 30
0.0
 11
39.161295
 21
100.785225
 31
0.0
  0
LINE
  5
1007
  8
0
 10
39.161295
 20
100.785225
 30
0.0
 11
38.946761
 21
100.556089
 31
0.0
  0
LINE
  5
1008
  8
0
 10
38.946761
 20
100.556089
 30
0.0
 11
39.211947
 21
100.371557
 31
0.0
  0
LINE
  5
1009
  8
0
 10
38.909258
 20
102.08819
 30
0.0
 11
38.720973
 21
101.802718
 31
0.0
  0
LINE
  5
100A
  8
0
 10
38.720973
 20
101.802718
 30
0.0
 11
39.011565
 21
101.644161
 31
0.0
  0
LINE
  5
100B
  8
0
 10
39.011565
 20
101.644161
 30
0.0
 11
38.817818
 21
101.397199
 31
0.0
  0
LINE
  5
100C
  8
0
 10
38.817818
 20
101.397199
 30
0.0
 11
39.098078
 21
101.236482
 31
0.0
  0
LINE
  5
100D
  8
0
 10
38.646926
 20
102.920201
 30
0.0
 11
38.484238
 21
102.619405
 31
0.0
  0
LINE
  5
100E
  8
0
 10
38.484238
 20
102.619405
 30
0.0
 11
38.787543
 21
102.486778
 31
0.0
  0
LINE
  5
100F
  8
0
 10
38.787543
 20
102.486778
 30
0.0
 11
38.616057
 21
102.22387
 31
0.0
  0
LINE
  5
1010
  8
0
 10
38.616057
 20
102.22387
 30
0.0
 11
38.909258
 21
102.08819
 31
0.0
  0
LINE
  5
1011
  8
0
 10
38.313078
 20
103.726183
 30
0.0
 11
38.177225
 21
103.412352
 31
0.0
  0
LINE
  5
1012
  8
0
 10
38.177225
 20
103.412352
 30
0.0
 11
38.490935
 21
103.306664
 31
0.0
  0
LINE
  5
1013
  8
0
 10
38.490935
 20
103.306664
 30
0.0
 11
38.343016
 21
103.02981
 31
0.0
  0
LINE
  5
1014
  8
0
 10
38.343016
 20
103.02981
 30
0.0
 11
38.646926
 21
102.920201
 31
0.0
  0
LINE
  5
1015
  8
0
 10
37.910254
 20
104.5
 30
0.0
 11
37.80227
 21
104.175523
 31
0.0
  0
LINE
  5
1016
  8
0
 10
37.80227
 20
104.175523
 30
0.0
 11
38.123998
 21
104.097579
 31
0.0
  0
LINE
  5
1017
  8
0
 10
38.123998
 20
104.097579
 30
0.0
 11
38.000771
 21
103.808887
 31
0.0
  0
LINE
  5
1018
  8
0
 10
38.000771
 20
103.808887
 30
0.0
 11
38.313078
 21
103.726183
 31
0.0
  0
LINE
  5
1019
  8
0
 10
37.44152
 20
105.235764
 30
0.0
 11
37.362228
 21
104.903111
 31
0.0
  0
LINE
  5
101A
  8
0
 10
37.362228
 20
104.903111
 30
0.0
 11
37.689524
 21
104.853504
 31
0.0
  0
LINE
  5
101B
  8
0
 10
37.689524
 20
104.853504
 30
0.0
 11
37.591927
 21
104.55517
 31
0.0
  0
LINE
  5
101C
  8
0
 10
37.591927
 20
104.55517
 30
0.0
 11
37.910254
 21
104.5
 31
0.0
  0
LINE
  5
101D
  8
0
 10
36.910444
 20
105.927876
 30
0.0
 11
36.860446
 21
105.589578
 31
0.0
  0
LINE
  5
101E
  8
0
 10
36.860446
 20
105.589578
 30
0.0
 11
37.190821
 21
105.568685
 31
0.0
  0
LINE
  5
101F
  8
0
 10
37.190821
 20
105.568685
 30
0.0
 11
37.119597
 21
105.262981
 31
0.0
  0
LINE
  5
1020
  8
0
 10
37.119597
 20
105.262981
 30
0.0
 11
37.44152
 21
105.235764
 31
0.0
  0
LINE
  5
1021
  8
0
 10
36.321068
 20
106.571068
 30
0.0
 11
36.300744
 21
106.229699
 31
0.0
  0
LINE
  5
1022
  8
0
 10
36.300744
 20
106.229699
 30
0.0
 11
36.631683
 21
106.23768
 31
0.0
  0
LINE
  5
1023
  8
0
 10
36.631683
 20
106.23768
 30
0.0
 11
36.587374
 21
105.926931
 31
0.0
  0
LINE
  5
1024
  8
0
 10
36.587374
 20
105.926931
 30
0.0
 11
36.910444
 21
105.927876
 31
0.0
  0
LINE
  5
1025
  8
0
 10
35.677876
 20
107.160444
 30
0.0
 11
35.687382
 21
106.818603
 31
0.0
  0
LINE
  5
1026
  8
0
 10
35.687382
 20
106.818603
 30
0.0
 11
36.016366
 21
106.855397
 31
0.0
  0
LINE
  5
1027
  8
0
 10
36.016366
 20
106.855397
 30
0.0
 11
35.999309
 21
106.541969
 31
0.0
  0
LINE
  5
1028
  8
0
 10
35.999309
 20
106.541969
 30
0.0
 11
36.321068
 21
106.571068
 31
0.0
  0
LINE
  5
1029
  8
0
 10
34.985764
 20
107.69152
 30
0.0
 11
35.025028
 21
107.351809
 31
0.0
  0
LINE
  5
102A
  8
0
 10
35.025028
 20
107.351809
 30
0.0
 11
35.349553
 21
107.417135
 31
0.0
  0
LINE
  5
102B
  8
0
 10
35.349553
 20
107.417135
 30
0.0
 11
35.359878
 21
107.103413
 31
0.0
  0
LINE
  5
102C
  8
0
 10
35.359878
 20
107.103413
 30
0.0
 11
35.677876
 21
107.160444
 31
0.0
  0
LINE
  5
102D
  8
0
 10
34.25
 20
108.160254
 30
0.0
 11
34.318722
 21
107.825257
 31
0.0
  0
LINE
  5
102E
  8
0
 10
34.318722
 20
107.825257
 30
0.0
 11
34.636318
 21
107.918619
 31
0.0
  0
LINE
  5
102F
  8
0
 10
34.636318
 20
107.918619
 30
0.0
 11
34.673947
 21
107.606991
 31
0.0
  0
LINE
  5
1030
  8
0
 10
34.673947
 20
107.606991
 30
0.0
 11
34.985764
 21
107.69152
 31
0.0
  0
LINE
  5
1031
  8
0
 10
33.476183
 20
108.563078
 30
0.0
 11
33.57384
 21
108.235345
 31
0.0
  0
LINE
  5
1032
  8
0
 10
33.57384
 20
108.235345
 30
0.0
 11
33.882091
 21
108.356032
 31
0.0
  0
LINE
  5
1033
  8
0
 10
33.882091
 20
108.356032
 30
0.0
 11
33.946736
 21
108.048869
 31
0.0
  0
LINE
  5
1034
  8
0
 10
33.946736
 20
108.048869
 30
0.0
 11
34.25
 21
108.160254
 31
0.0
  0
LINE
  5
1035
  8
0
 10
32.670201
 20
108.896926
 30
0.0
 11
32.796051
 21
108.578952
 31
0.0
  0
LINE
  5
1036
  8
0
 10
32.796051
 20
108.578952
 30
0.0
 11
33.09261
 21
108.726046
 31
0.0
  0
LINE
  5
1037
  8
0
 10
33.09261
 20
108.726046
 30
0.0
 11
33.18378
 21
108.425686
 31
0.0
  0
LINE
  5
1038
  8
0
 10
33.18378
 20
108.425686
 30
0.0
 11
33.476183
 21
108.563078
 31
0.0
  0
LINE
  5
1039
  8
0
 10
31.83819
 20
109.159258
 30
0.0
 11
31.991274
 21
108.853463
 31
0.0
  0
LINE
  5
103A
  8
0
 10
31.991274
 20
108.853463
 30
0.0
 11
32.273885
 21
109.025843
 31
0.0
  0
LINE
  5
103B
  8
0
 10
32.273885
 20
109.025843
 30
0.0
 11
32.390886
 21
108.734573
 31
0.0
  0
LINE
  5
103C
  8
0
 10
32.390886
 20
108.734573
 30
0.0
 11
32.670201
 21
108.896926
 31
0.0
  0
LINE
  5
103D
  8
0
 10
30.986482
 20
109.348078
 30
0.0
 11
31.165635
 21
109.056788
 31
0.0
  0
LINE
  5
103E
  8
0
 10
31.165635
 20
109.056788
 30
0.0
 11
31.432146
 21
109.253143
 31
0.0
  0
LINE
  5
103F
  8
0
 10
31.432146
 20
109.253143
 30
0.0
 11
31.574088
 21
108.973179
 31
0.0
  0
LINE
  5
1040
  8
0
 10
31.574088
 20
108.973179
 30
0.0
 11
31.83819
 21
109.159258
 31
0.0
  0
LINE
  5
1041
  8
0
 10
30.121557
 20
109.461947
 30
0.0
 11
30.325416
 21
109.18738
 31
0.0
  0
LINE
  5
1042
  8
0
 10
30.325416
 20
109.18738
 30
0.0
 11
30.5738
 21
109.406216
 31
0.0
  0
LINE
  5
1043
  8
0
 10
30.5738
 20
109.406216
 30
0.0
 11
30.739603
 21
109.139688
 31
0.0
  0
LINE
  5
1044
  8
0
 10
30.739603
 20
109.139688
 30
0.0
 11
30.986482
 21
109.348078
 31
0.0
  0
LINE
  5
1045
  8
0
 10
66.0
 20
99.5
 30
0.0
 11
66.0
 21
109.0
 31
0.0
  0
LINE
  5
1046
  8
0
 10
66.5
 20
109.5
 30
0.0
 11
73.5
 21
109.5
 31
0.0
  0
LINE
  5
1047
  8
0
 10
74.0
 20
109.0
 30
0.0
 11
74.0
 21
99.5
 31
0.0
  0
LINE
  5
1048
  8
0
 10
74.0
 20
99.5
 30
0.0
 11
74.0
 21
106.5
 31
0.0
  0
LINE
  5
1049
  8
0
 10
74.0
 20
106.5
 30
0.0
 11
77.5
 21
106.5
 31
0.0
  0
LINE
  5
104A
  8
0
 10
78.0
 20
106.0
 30
0.0
 11
78.0
 21
99.5
 31
0.0
  0
ARC
  5
104B
  8
0
 10
77.5
 20
106.0
 30
0.0
 40
0.5
 50
0.0
 51
90.0
  0
ARC
  5
104C
  8
0
 10
73.5
 20
109.0
 30
0.0
 40
0.5
 50
0.0
 51
90.0
  0
ARC
  5
104D
  8
0
 10
66.5
 20
109.0
 30
0.0
 40
0.5
 50
90.0
 51
180.0
  0
LINE
  5
104E
  8
0
 10
66.5
 20
100.0
 30
0.0
 11
73.5
 21
100.0
 31
0.0
  0
LINE
  5
1062
  8
0
 10
66.5
 20
101.0
 30
0.0
 11
73.5
 21
101.0
 31
0.0
  0
LINE
  5
1063
  8
0
 10
66.5
 20
102.0
 30
0.0
 11
73.5
 21
102.0
 31
0.0
  0
LINE
  5
1064
  8
0
 10
66.5
 20
103.0
 30
0.0
 11
73.5
 21
103.0
 31
0.0
  0
LINE
  5
1065
  8
0
 10
66.5
 20
104.0
 30
0.0
 11
73.5
 21
104.0
 31
0.0
  0
LINE
  5
1066
  8
0
 10
66.5
 20
105.0
 30
0.0
 11
73.5
 21
105.0
 31
0.0
  0
LINE
  5
1067
  8
0
 10
66.5
 20
106.0
 30
0.0
 11
73.5
 21
106.0
 31
0.0
  0
LINE
  5
1068
  8
0
 10
66.5
 20
107.0
 30
0.0
 11
73.5
 21
107.0
 31
0.0
  0
LINE
  5
1069
  8
0
 10
66.5
 20
108.0
 30
0.0
 11
73.5
 21
108.0
 31
0.0
  0
LINE
  5
106A
  8
0
 10
66.5
 20
109.0
 30
0.0
 11
73.5
 21
109.0
 31
0.0
  0
LINE
  5
1077
  8
2
 10
78.0
 20
102.5
 30
0.0
 11
77.5
 21
101.5
 31
0.0
  0
LINE
  5
1079
  8
2
 10
71.0
 20
99.5
 30
0.0
 11
71.0
 21
107.0
 31
0.0
  0
LINE
  5
107A
  8
2
 10
71.0
 20
107.0
 30
0.0
 11
66.0
 21
107.0
 31
0.0
  0
LINE
  5
107B
  8
2
 10
77.5
 20
101.5
 30
0.0
 11
77.5
 21
99.5
 31
0.0
  0
LINE
  5
107C
  8
2
 10
77.5
 20
101.5
 30
0.0
 11
71.0
 21
101.5
 31
0.0
  0
LINE
  5
107D
  8
2
 10
77.75
 20
102.0
 30
0.0
 11
71.0
 21
102.0
 31
0.0
  0
LINE
  5
107E
  8
2
 10
77.75
 20
97.0
 30
0.0
 11
71.0
 21
97.0
 31
0.0
  0
LINE
  5
107F
  8
2
 10
77.5
 20
97.5
 30
0.0
 11
71.0
 21
97.5
 31
0.0
  0
LINE
  5
1080
  8
0
 10
74.0
 20
92.5
 30
0.0
 11
77.5
 21
92.5
 31
0.0
  0
LINE
  5
1081
  8
2
 10
71.0
 20
92.0
 30
0.0
 11
66.0
 21
92.0
 31
0.0
  0
LINE
  5
1082
  8
0
 10
66.5
 20
90.0
 30
0.0
 11
73.5
 21
90.0
 31
0.0
  0
LINE
  5
1083
  8
0
 10
66.5
 20
91.0
 30
0.0
 11
73.5
 21
91.0
 31
0.0
  0
LINE
  5
1084
  8
0
 10
66.5
 20
92.0
 30
0.0
 11
73.5
 21
92.0
 31
0.0
  0
LINE
  5
1085
  8
0
 10
66.5
 20
93.0
 30
0.0
 11
73.5
 21
93.0
 31
0.0
  0
LINE
  5
1086
  8
0
 10
66.5
 20
94.0
 30
0.0
 11
73.5
 21
94.0
 31
0.0
  0
LINE
  5
1087
  8
0
 10
66.5
 20
95.0
 30
0.0
 11
73.5
 21
95.0
 31
0.0
  0
LINE
  5
1088
  8
0
 10
66.5
 20
96.0
 30
0.0
 11
73.5
 21
96.0
 31
0.0
  0
LINE
  5
1089
  8
0
 10
66.5
 20
97.0
 30
0.0
 11
73.5
 21
97.0
 31
0.0
  0
LINE
  5
108A
  8
0
 10
66.5
 20
98.0
 30
0.0
 11
73.5
 21
98.0
 31
0.0
  0
LINE
  5
108B
  8
0
 10
66.5
 20
99.0
 30
0.0
 11
73.5
 21
99.0
 31
0.0
  0
LINE
  5
108C
  8
0
 10
66.5
 20
89.5
 30
0.0
 11
73.5
 21
89.5
 31
0.0
  0
LINE
  5
108D
  8
0
 10
66.0
 20
99.5
 30
0.0
 11
66.0
 21
90.0
 31
0.0
  0
ARC
  5
108E
  8
0
 10
66.5
 20
90.0
 30
0.0
 40
0.5
 50
180.0
 51
270.0
  0
LINE
  5
108F
  8
2
 10
71.0
 20
99.5
 30
0.0
 11
71.0
 21
92.0
 31
0.0
  0
LINE
  5
1090
  8
0
 10
74.0
 20
90.0
 30
0.0
 11
74.0
 21
99.5
 31
0.0
  0
LINE
  5
1091
  8
0
 10
74.0
 20
99.5
 30
0.0
 11
74.0
 21
92.5
 31
0.0
  0
ARC
  5
1092
  8
0
 10
73.5
 20
90.0
 30
0.0
 40
0.5
 50
270.0
 51
0.0
  0
LINE
  5
1093
  8
0
 10
78.0
 20
93.0
 30
0.0
 11
78.0
 21
99.5
 31
0.0
  0
LINE
  5
1094
  8
2
 10
78.0
 20
96.5
 30
0.0
 11
77.5
 21
97.5
 31
0.0
  0
LINE
  5
1095
  8
2
 10
77.5
 20
97.5
 30
0.0
 11
77.5
 21
99.5
 31
0.0
  0
ARC
  5
1096
  8
0
 10
77.5
 20
93.0
 30
0.0
 40
0.5
 50
270.0
 51
0.0
  0
LINE
  5
1097
  8
1
 10
117.5
 20
115.75
 30
0.0
 11
117.5
 21
83.0
 31
0.0
  0
LINE
  5
1098
  8
0
 10
118.575416
 20
109.18738
 30
0.0
 11
118.8238
 21
109.406216
 31
0.0
  0
LINE
  5
1099
  8
0
 10
118.785225
 20
89.588705
 30
0.0
 11
118.556089
 21
89.803239
 31
0.0
  0
CIRCLE
  5
109A
  8
0
 10
117.5
 20
99.5
 30
0.0
 40
2.5
  0
CIRCLE
  5
109B
  8
0
 10
117.5
 20
99.5
 30
0.0
 40
2.0
  0
LINE
  5
109D
  8
1
 10
100.75
 20
99.5
 30
0.0
 11
134.0
 21
99.5
 31
0.0
  0
LINE
  5
109E
  8
0
 10
107.588705
 20
98.214775
 30
0.0
 11
107.803239
 21
98.443911
 31
0.0
  0
LINE
  5
109F
  8
0
 10
110.162626
 20
93.073069
 30
0.0
 11
109.839556
 21
93.072124
 31
0.0
  0
LINE
  5
10A0
  8
0
 10
110.118317
 20
92.76232
 30
0.0
 11
110.162626
 21
93.073069
 31
0.0
  0
LINE
  5
10A1
  8
0
 10
110.449256
 20
92.770301
 30
0.0
 11
110.118317
 21
92.76232
 31
0.0
  0
LINE
  5
10A2
  8
0
 10
108.626002
 20
94.902421
 30
0.0
 11
108.749229
 21
95.191113
 31
0.0
  0
LINE
  5
10A3
  8
0
 10
109.630403
 20
93.737019
 30
0.0
 11
109.30848
 21
93.764236
 31
0.0
  0
LINE
  5
10A4
  8
0
 10
109.559179
 20
93.431315
 30
0.0
 11
109.630403
 21
93.737019
 31
0.0
  0
LINE
  5
10A5
  8
0
 10
109.889554
 20
93.410422
 30
0.0
 11
109.559179
 21
93.431315
 31
0.0
  0
LINE
  5
10A6
  8
0
 10
109.839556
 20
93.072124
 30
0.0
 11
109.889554
 21
93.410422
 31
0.0
  0
LINE
  5
10A7
  8
0
 10
109.158073
 20
94.44483
 30
0.0
 11
108.839746
 21
94.5
 31
0.0
  0
LINE
  5
10A8
  8
0
 10
109.060476
 20
94.146496
 30
0.0
 11
109.158073
 21
94.44483
 31
0.0
  0
LINE
  5
10A9
  8
0
 10
109.387772
 20
94.096889
 30
0.0
 11
109.060476
 21
94.146496
 31
0.0
  0
LINE
  5
10AA
  8
0
 10
109.30848
 20
93.764236
 30
0.0
 11
109.387772
 21
94.096889
 31
0.0
  0
LINE
  5
10AB
  8
0
 10
108.94773
 20
94.824477
 30
0.0
 11
108.626002
 21
94.902421
 31
0.0
  0
LINE
  5
10AC
  8
0
 10
108.839746
 20
94.5
 30
0.0
 11
108.94773
 21
94.824477
 31
0.0
  0
LINE
  5
10AD
  8
0
 10
108.133943
 20
96.77613
 30
0.0
 11
107.840742
 21
96.91181
 31
0.0
  0
LINE
  5
10AE
  8
0
 10
107.962457
 20
96.513222
 30
0.0
 11
108.133943
 21
96.77613
 31
0.0
  0
LINE
  5
10AF
  8
0
 10
108.265762
 20
96.380595
 30
0.0
 11
107.962457
 21
96.513222
 31
0.0
  0
LINE
  5
10B0
  8
0
 10
108.029027
 20
97.197282
 30
0.0
 11
107.738435
 21
97.355839
 31
0.0
  0
LINE
  5
10B1
  8
0
 10
107.840742
 20
96.91181
 30
0.0
 11
108.029027
 21
97.197282
 31
0.0
  0
LINE
  5
10B2
  8
0
 10
107.932182
 20
97.602801
 30
0.0
 11
107.651922
 21
97.763518
 31
0.0
  0
LINE
  5
10B3
  8
0
 10
107.738435
 20
97.355839
 30
0.0
 11
107.932182
 21
97.602801
 31
0.0
  0
LINE
  5
10B4
  8
0
 10
107.864372
 20
98.031494
 30
0.0
 11
107.588705
 21
98.214775
 31
0.0
  0
LINE
  5
10B5
  8
0
 10
107.651922
 20
97.763518
 30
0.0
 11
107.864372
 21
98.031494
 31
0.0
  0
LINE
  5
10B6
  8
0
 10
108.749229
 20
95.191113
 30
0.0
 11
108.436922
 21
95.273817
 31
0.0
  0
LINE
  5
10B7
  8
0
 10
108.406984
 20
95.97019
 30
0.0
 11
108.103074
 21
96.079799
 31
0.0
  0
LINE
  5
10B8
  8
0
 10
108.259065
 20
95.693336
 30
0.0
 11
108.406984
 21
95.97019
 31
0.0
  0
LINE
  5
10B9
  8
0
 10
108.572775
 20
95.587648
 30
0.0
 11
108.259065
 21
95.693336
 31
0.0
  0
LINE
  5
10BA
  8
0
 10
108.436922
 20
95.273817
 30
0.0
 11
108.572775
 21
95.587648
 31
0.0
  0
LINE
  5
10BB
  8
0
 10
108.103074
 20
96.079799
 30
0.0
 11
108.265762
 21
96.380595
 31
0.0
  0
LINE
  5
10BC
  8
0
 10
111.400447
 20
91.582865
 30
0.0
 11
111.390122
 21
91.896587
 31
0.0
  0
LINE
  5
10BD
  8
0
 10
111.724972
 20
91.648191
 30
0.0
 11
111.400447
 21
91.582865
 31
0.0
  0
LINE
  5
10BE
  8
0
 10
111.764236
 20
91.30848
 30
0.0
 11
111.724972
 21
91.648191
 31
0.0
  0
LINE
  5
10BF
  8
0
 10
114.476115
 20
89.974157
 30
0.0
 11
114.359114
 21
90.265427
 31
0.0
  0
LINE
  5
10C0
  8
0
 10
112.431278
 20
91.174743
 30
0.0
 11
112.113682
 21
91.081381
 31
0.0
  0
LINE
  5
10C1
  8
0
 10
112.076053
 20
91.393009
 30
0.0
 11
111.764236
 21
91.30848
 31
0.0
  0
LINE
  5
10C2
  8
0
 10
112.113682
 20
91.081381
 30
0.0
 11
112.076053
 21
91.393009
 31
0.0
  0
LINE
  5
10C3
  8
0
 10
114.359114
 20
90.265427
 30
0.0
 11
114.079799
 21
90.103074
 31
0.0
  0
LINE
  5
10C4
  8
0
 10
113.56622
 20
90.574314
 30
0.0
 11
113.273817
 21
90.436922
 31
0.0
  0
LINE
  5
10C5
  8
0
 10
113.65739
 20
90.273954
 30
0.0
 11
113.56622
 21
90.574314
 31
0.0
  0
LINE
  5
10C6
  8
0
 10
113.953949
 20
90.421048
 30
0.0
 11
113.65739
 21
90.273954
 31
0.0
  0
LINE
  5
10C7
  8
0
 10
114.079799
 20
90.103074
 30
0.0
 11
113.953949
 21
90.421048
 31
0.0
  0
LINE
  5
10C8
  8
0
 10
112.803264
 20
90.951131
 30
0.0
 11
112.5
 21
90.839746
 31
0.0
  0
LINE
  5
10C9
  8
0
 10
112.867909
 20
90.643968
 30
0.0
 11
112.803264
 21
90.951131
 31
0.0
  0
LINE
  5
10CA
  8
0
 10
113.17616
 20
90.764655
 30
0.0
 11
112.867909
 21
90.643968
 31
0.0
  0
LINE
  5
10CB
  8
0
 10
113.273817
 20
90.436922
 30
0.0
 11
113.17616
 21
90.764655
 31
0.0
  0
LINE
  5
10CC
  8
0
 10
112.5
 20
90.839746
 30
0.0
 11
112.431278
 21
91.174743
 31
0.0
  0
LINE
  5
10CD
  8
0
 10
116.628443
 20
89.538053
 30
0.0
 11
116.424584
 21
89.81262
 31
0.0
  0
LINE
  5
10CE
  8
0
 10
116.010397
 20
89.860312
 30
0.0
 11
115.763518
 21
89.651922
 31
0.0
  0
LINE
  5
10CF
  8
0
 10
116.1762
 20
89.593784
 30
0.0
 11
116.010397
 21
89.860312
 31
0.0
  0
LINE
  5
10D0
  8
0
 10
116.424584
 20
89.81262
 30
0.0
 11
116.1762
 21
89.593784
 31
0.0
  0
LINE
  5
10D1
  8
0
 10
115.175912
 20
90.026821
 30
0.0
 11
114.91181
 21
89.840742
 31
0.0
  0
LINE
  5
10D2
  8
0
 10
115.317854
 20
89.746857
 30
0.0
 11
115.175912
 21
90.026821
 31
0.0
  0
LINE
  5
10D3
  8
0
 10
115.584365
 20
89.943212
 30
0.0
 11
115.317854
 21
89.746857
 31
0.0
  0
LINE
  5
10D4
  8
0
 10
115.763518
 20
89.651922
 30
0.0
 11
115.584365
 21
89.943212
 31
0.0
  0
LINE
  5
10D5
  8
0
 10
114.758726
 20
90.146537
 30
0.0
 11
114.476115
 21
89.974157
 31
0.0
  0
LINE
  5
10D6
  8
0
 10
114.91181
 20
89.840742
 30
0.0
 11
114.758726
 21
90.146537
 31
0.0
  0
LINE
  5
10D7
  8
0
 10
118.556089
 20
89.803239
 30
0.0
 11
118.371557
 21
89.538053
 31
0.0
  0
LINE
  5
10D8
  8
0
 10
117.706942
 20
89.748094
 30
0.0
 11
117.5
 21
89.5
 31
0.0
  0
LINE
  5
10D9
  8
0
 10
117.916508
 20
89.514406
 30
0.0
 11
117.706942
 21
89.748094
 31
0.0
  0
LINE
  5
10DA
  8
0
 10
118.123118
 20
89.773049
 30
0.0
 11
117.916508
 21
89.514406
 31
0.0
  0
LINE
  5
10DB
  8
0
 10
118.371557
 20
89.538053
 30
0.0
 11
118.123118
 21
89.773049
 31
0.0
  0
LINE
  5
10DC
  8
0
 10
116.85622
 20
89.767167
 30
0.0
 11
116.628443
 21
89.538053
 31
0.0
  0
LINE
  5
10DD
  8
0
 10
117.044621
 20
89.516103
 30
0.0
 11
116.85622
 21
89.767167
 31
0.0
  0
LINE
  5
10DE
  8
0
 10
117.272987
 20
89.755755
 30
0.0
 11
117.044621
 21
89.516103
 31
0.0
  0
LINE
  5
10DF
  8
0
 10
117.5
 20
89.5
 30
0.0
 11
117.272987
 21
89.755755
 31
0.0
  0
LINE
  5
10E0
  8
0
 10
111.390122
 20
91.896587
 30
0.0
 11
111.072124
 21
91.839556
 31
0.0
  0
LINE
  5
10E1
  8
0
 10
110.750691
 20
92.458031
 30
0.0
 11
110.428932
 21
92.428932
 31
0.0
  0
LINE
  5
10E2
  8
0
 10
110.733634
 20
92.144603
 30
0.0
 11
110.750691
 21
92.458031
 31
0.0
  0
LINE
  5
10E3
  8
0
 10
111.062618
 20
92.181397
 30
0.0
 11
110.733634
 21
92.144603
 31
0.0
  0
LINE
  5
10E4
  8
0
 10
111.072124
 20
91.839556
 30
0.0
 11
111.062618
 21
92.181397
 31
0.0
  0
LINE
  5
10E5
  8
0
 10
110.428932
 20
92.428932
 30
0.0
 11
110.449256
 21
92.770301
 31
0.0
  0
LINE
  5
10E6
  8
0
 10
110.144603
 20
106.266366
 30
0.0
 11
110.458031
 21
106.249309
 31
0.0
  0
LINE
  5
10E7
  8
0
 10
110.181397
 20
105.937382
 30
0.0
 11
110.144603
 21
106.266366
 31
0.0
  0
LINE
  5
10E8
  8
0
 10
109.839556
 20
105.927876
 30
0.0
 11
110.181397
 21
105.937382
 31
0.0
  0
LINE
  5
10E9
  8
0
 10
109.081381
 20
104.886318
 30
0.0
 11
109.393009
 21
104.923947
 31
0.0
  0
LINE
  5
10EA
  8
0
 10
107.943212
 20
101.415635
 30
0.0
 11
107.746857
 21
101.682146
 31
0.0
  0
LINE
  5
10EB
  8
0
 10
107.803239
 20
98.443911
 30
0.0
 11
107.538053
 21
98.628443
 31
0.0
  0
LINE
  5
10EC
  8
0
 10
107.748094
 20
99.293058
 30
0.0
 11
107.5
 21
99.5
 31
0.0
  0
LINE
  5
10ED
  8
0
 10
107.514406
 20
99.083492
 30
0.0
 11
107.748094
 21
99.293058
 31
0.0
  0
LINE
  5
10EE
  8
0
 10
107.773049
 20
98.876882
 30
0.0
 11
107.514406
 21
99.083492
 31
0.0
  0
LINE
  5
10EF
  8
0
 10
107.538053
 20
98.628443
 30
0.0
 11
107.773049
 21
98.876882
 31
0.0
  0
LINE
  5
10F0
  8
0
 10
107.767167
 20
100.14378
 30
0.0
 11
107.538053
 21
100.371557
 31
0.0
  0
LINE
  5
10F1
  8
0
 10
107.516103
 20
99.955379
 30
0.0
 11
107.767167
 21
100.14378
 31
0.0
  0
LINE
  5
10F2
  8
0
 10
107.755755
 20
99.727013
 30
0.0
 11
107.516103
 21
99.955379
 31
0.0
  0
LINE
  5
10F3
  8
0
 10
107.5
 20
99.5
 30
0.0
 11
107.755755
 21
99.727013
 31
0.0
  0
LINE
  5
10F4
  8
0
 10
107.860312
 20
100.989603
 30
0.0
 11
107.651922
 21
101.236482
 31
0.0
  0
LINE
  5
10F5
  8
0
 10
107.593784
 20
100.8238
 30
0.0
 11
107.860312
 21
100.989603
 31
0.0
  0
LINE
  5
10F6
  8
0
 10
107.81262
 20
100.575416
 30
0.0
 11
107.593784
 21
100.8238
 31
0.0
  0
LINE
  5
10F7
  8
0
 10
107.538053
 20
100.371557
 30
0.0
 11
107.81262
 21
100.575416
 31
0.0
  0
LINE
  5
10F8
  8
0
 10
107.651922
 20
101.236482
 30
0.0
 11
107.943212
 21
101.415635
 31
0.0
  0
LINE
  5
10F9
  8
0
 10
108.026821
 20
101.824088
 30
0.0
 11
107.840742
 21
102.08819
 31
0.0
  0
LINE
  5
10FA
  8
0
 10
107.746857
 20
101.682146
 30
0.0
 11
108.026821
 21
101.824088
 31
0.0
  0
LINE
  5
10FB
  8
0
 10
107.974157
 20
102.523885
 30
0.0
 11
108.265427
 21
102.640886
 31
0.0
  0
LINE
  5
10FC
  8
0
 10
108.146537
 20
102.241274
 30
0.0
 11
107.974157
 21
102.523885
 31
0.0
  0
LINE
  5
10FD
  8
0
 10
107.840742
 20
102.08819
 30
0.0
 11
108.146537
 21
102.241274
 31
0.0
  0
LINE
  5
10FE
  8
0
 10
108.265427
 20
102.640886
 30
0.0
 11
108.103074
 21
102.920201
 31
0.0
  0
LINE
  5
10FF
  8
0
 10
108.574314
 20
103.43378
 30
0.0
 11
108.436922
 21
103.726183
 31
0.0
  0
LINE
  5
1100
  8
0
 10
108.273954
 20
103.34261
 30
0.0
 11
108.574314
 21
103.43378
 31
0.0
  0
LINE
  5
1101
  8
0
 10
108.421048
 20
103.046051
 30
0.0
 11
108.273954
 21
103.34261
 31
0.0
  0
LINE
  5
1102
  8
0
 10
108.103074
 20
102.920201
 30
0.0
 11
108.421048
 21
103.046051
 31
0.0
  0
LINE
  5
1103
  8
0
 10
108.951131
 20
104.196736
 30
0.0
 11
108.839746
 21
104.5
 31
0.0
  0
LINE
  5
1104
  8
0
 10
108.643968
 20
104.132091
 30
0.0
 11
108.951131
 21
104.196736
 31
0.0
  0
LINE
  5
1105
  8
0
 10
108.764655
 20
103.82384
 30
0.0
 11
108.643968
 21
104.132091
 31
0.0
  0
LINE
  5
1106
  8
0
 10
108.436922
 20
103.726183
 30
0.0
 11
108.764655
 21
103.82384
 31
0.0
  0
LINE
  5
1107
  8
0
 10
109.174743
 20
104.568722
 30
0.0
 11
109.081381
 21
104.886318
 31
0.0
  0
LINE
  5
1108
  8
0
 10
108.839746
 20
104.5
 30
0.0
 11
109.174743
 21
104.568722
 31
0.0
  0
LINE
  5
1109
  8
0
 10
109.393009
 20
104.923947
 30
0.0
 11
109.30848
 21
105.235764
 31
0.0
  0
LINE
  5
110A
  8
0
 10
109.896587
 20
105.609878
 30
0.0
 11
109.839556
 21
105.927876
 31
0.0
  0
LINE
  5
110B
  8
0
 10
109.582865
 20
105.599553
 30
0.0
 11
109.896587
 21
105.609878
 31
0.0
  0
LINE
  5
110C
  8
0
 10
109.648191
 20
105.275028
 30
0.0
 11
109.582865
 21
105.599553
 31
0.0
  0
LINE
  5
110D
  8
0
 10
109.30848
 20
105.235764
 30
0.0
 11
109.648191
 21
105.275028
 31
0.0
  0
LINE
  5
110E
  8
0
 10
114.380595
 20
108.734238
 30
0.0
 11
114.513222
 21
109.037543
 31
0.0
  0
LINE
  5
110F
  8
0
 10
112.824477
 20
108.05227
 30
0.0
 11
112.902421
 21
108.373998
 31
0.0
  0
LINE
  5
1110
  8
0
 10
112.146496
 20
107.939524
 30
0.0
 11
112.44483
 21
107.841927
 31
0.0
  0
LINE
  5
1111
  8
0
 10
110.458031
 20
106.249309
 30
0.0
 11
110.428932
 21
106.571068
 31
0.0
  0
LINE
  5
1112
  8
0
 10
111.073069
 20
106.837374
 30
0.0
 11
111.072124
 21
107.160444
 31
0.0
  0
LINE
  5
1113
  8
0
 10
110.76232
 20
106.881683
 30
0.0
 11
111.073069
 21
106.837374
 31
0.0
  0
LINE
  5
1114
  8
0
 10
110.770301
 20
106.550744
 30
0.0
 11
110.76232
 21
106.881683
 31
0.0
  0
LINE
  5
1115
  8
0
 10
110.428932
 20
106.571068
 30
0.0
 11
110.770301
 21
106.550744
 31
0.0
  0
LINE
  5
1116
  8
0
 10
111.737019
 20
107.369597
 30
0.0
 11
111.764236
 21
107.69152
 31
0.0
  0
LINE
  5
1117
  8
0
 10
111.431315
 20
107.440821
 30
0.0
 11
111.737019
 21
107.369597
 31
0.0
  0
LINE
  5
1118
  8
0
 10
111.410422
 20
107.110446
 30
0.0
 11
111.431315
 21
107.440821
 31
0.0
  0
LINE
  5
1119
  8
0
 10
111.072124
 20
107.160444
 30
0.0
 11
111.410422
 21
107.110446
 31
0.0
  0
LINE
  5
111A
  8
0
 10
112.096889
 20
107.612228
 30
0.0
 11
112.146496
 21
107.939524
 31
0.0
  0
LINE
  5
111B
  8
0
 10
111.764236
 20
107.69152
 30
0.0
 11
112.096889
 21
107.612228
 31
0.0
  0
LINE
  5
111C
  8
0
 10
112.44483
 20
107.841927
 30
0.0
 11
112.5
 21
108.160254
 31
0.0
  0
LINE
  5
111D
  8
0
 10
112.5
 20
108.160254
 30
0.0
 11
112.824477
 21
108.05227
 31
0.0
  0
LINE
  5
111E
  8
0
 10
113.191113
 20
108.250771
 30
0.0
 11
113.273817
 21
108.563078
 31
0.0
  0
LINE
  5
111F
  8
0
 10
112.902421
 20
108.373998
 30
0.0
 11
113.191113
 21
108.250771
 31
0.0
  0
LINE
  5
1120
  8
0
 10
113.97019
 20
108.593016
 30
0.0
 11
114.079799
 21
108.896926
 31
0.0
  0
LINE
  5
1121
  8
0
 10
113.693336
 20
108.740935
 30
0.0
 11
113.97019
 21
108.593016
 31
0.0
  0
LINE
  5
1122
  8
0
 10
113.587648
 20
108.427225
 30
0.0
 11
113.693336
 21
108.740935
 31
0.0
  0
LINE
  5
1123
  8
0
 10
113.273817
 20
108.563078
 30
0.0
 11
113.587648
 21
108.427225
 31
0.0
  0
LINE
  5
1124
  8
0
 10
114.079799
 20
108.896926
 30
0.0
 11
114.380595
 21
108.734238
 31
0.0
  0
LINE
  5
1125
  8
0
 10
116.443911
 20
109.196761
 30
0.0
 11
116.628443
 21
109.461947
 31
0.0
  0
LINE
  5
1126
  8
0
 10
114.77613
 20
108.866057
 30
0.0
 11
114.91181
 21
109.159258
 31
0.0
  0
LINE
  5
1127
  8
0
 10
114.513222
 20
109.037543
 30
0.0
 11
114.77613
 21
108.866057
 31
0.0
  0
LINE
  5
1128
  8
0
 10
115.602801
 20
109.067818
 30
0.0
 11
115.763518
 21
109.348078
 31
0.0
  0
LINE
  5
1129
  8
0
 10
115.355839
 20
109.261565
 30
0.0
 11
115.602801
 21
109.067818
 31
0.0
  0
LINE
  5
112A
  8
0
 10
115.197282
 20
108.970973
 30
0.0
 11
115.355839
 21
109.261565
 31
0.0
  0
LINE
  5
112B
  8
0
 10
114.91181
 20
109.159258
 30
0.0
 11
115.197282
 21
108.970973
 31
0.0
  0
LINE
  5
112C
  8
0
 10
116.214775
 20
109.411295
 30
0.0
 11
116.443911
 21
109.196761
 31
0.0
  0
LINE
  5
112D
  8
0
 10
116.031494
 20
109.135628
 30
0.0
 11
116.214775
 21
109.411295
 31
0.0
  0
LINE
  5
112E
  8
0
 10
115.763518
 20
109.348078
 30
0.0
 11
116.031494
 21
109.135628
 31
0.0
  0
LINE
  5
112F
  8
0
 10
118.371557
 20
109.461947
 30
0.0
 11
118.575416
 21
109.18738
 31
0.0
  0
LINE
  5
1130
  8
0
 10
117.293058
 20
109.251906
 30
0.0
 11
117.5
 21
109.5
 31
0.0
  0
LINE
  5
1131
  8
0
 10
117.083492
 20
109.485594
 30
0.0
 11
117.293058
 21
109.251906
 31
0.0
  0
LINE
  5
1132
  8
0
 10
116.876882
 20
109.226951
 30
0.0
 11
117.083492
 21
109.485594
 31
0.0
  0
LINE
  5
1133
  8
0
 10
116.628443
 20
109.461947
 30
0.0
 11
116.876882
 21
109.226951
 31
0.0
  0
LINE
  5
1134
  8
0
 10
118.14378
 20
109.232833
 30
0.0
 11
118.371557
 21
109.461947
 31
0.0
  0
LINE
  5
1135
  8
0
 10
117.955379
 20
109.483897
 30
0.0
 11
118.14378
 21
109.232833
 31
0.0
  0
LINE
  5
1136
  8
0
 10
117.727013
 20
109.244245
 30
0.0
 11
117.955379
 21
109.483897
 31
0.0
  0
LINE
  5
1137
  8
0
 10
117.5
 20
109.5
 30
0.0
 11
117.727013
 21
109.244245
 31
0.0
  0
LINE
  5
1138
  8
0
 10
127.18738
 20
98.424584
 30
0.0
 11
127.406216
 21
98.1762
 31
0.0
  0
LINE
  5
1139
  8
0
 10
127.139688
 20
98.010397
 30
0.0
 11
127.348078
 21
97.763518
 31
0.0
  0
LINE
  5
113A
  8
0
 10
127.406216
 20
98.1762
 30
0.0
 11
127.139688
 21
98.010397
 31
0.0
  0
LINE
  5
113B
  8
0
 10
127.348078
 20
97.763518
 30
0.0
 11
127.056788
 21
97.584365
 31
0.0
  0
LINE
  5
113C
  8
0
 10
123.589578
 20
91.889554
 30
0.0
 11
123.568685
 21
91.559179
 31
0.0
  0
LINE
  5
113D
  8
0
 10
123.235764
 20
91.30848
 30
0.0
 11
122.903111
 21
91.387772
 31
0.0
  0
LINE
  5
113E
  8
0
 10
120.920201
 20
90.103074
 30
0.0
 11
120.619405
 21
90.265762
 31
0.0
  0
LINE
  5
113F
  8
0
 10
120.22387
 20
90.133943
 30
0.0
 11
120.08819
 21
89.840742
 31
0.0
  0
LINE
  5
1140
  8
0
 10
120.486778
 20
89.962457
 30
0.0
 11
120.22387
 21
90.133943
 31
0.0
  0
LINE
  5
1141
  8
0
 10
120.619405
 20
90.265762
 30
0.0
 11
120.486778
 21
89.962457
 31
0.0
  0
LINE
  5
1142
  8
0
 10
119.397199
 20
89.932182
 30
0.0
 11
119.236482
 21
89.651922
 31
0.0
  0
LINE
  5
1143
  8
0
 10
119.644161
 20
89.738435
 30
0.0
 11
119.397199
 21
89.932182
 31
0.0
  0
LINE
  5
1144
  8
0
 10
119.802718
 20
90.029027
 30
0.0
 11
119.644161
 21
89.738435
 31
0.0
  0
LINE
  5
1145
  8
0
 10
120.08819
 20
89.840742
 30
0.0
 11
119.802718
 21
90.029027
 31
0.0
  0
LINE
  5
1146
  8
0
 10
118.968506
 20
89.864372
 30
0.0
 11
118.785225
 21
89.588705
 31
0.0
  0
LINE
  5
1147
  8
0
 10
119.236482
 20
89.651922
 30
0.0
 11
118.968506
 21
89.864372
 31
0.0
  0
LINE
  5
1148
  8
0
 10
122.55517
 20
91.158073
 30
0.0
 11
122.5
 21
90.839746
 31
0.0
  0
LINE
  5
1149
  8
0
 10
122.853504
 20
91.060476
 30
0.0
 11
122.55517
 21
91.158073
 31
0.0
  0
LINE
  5
114A
  8
0
 10
122.903111
 20
91.387772
 30
0.0
 11
122.853504
 21
91.060476
 31
0.0
  0
LINE
  5
114B
  8
0
 10
121.808887
 20
90.749229
 30
0.0
 11
121.726183
 21
90.436922
 31
0.0
  0
LINE
  5
114C
  8
0
 10
122.097579
 20
90.626002
 30
0.0
 11
121.808887
 21
90.749229
 31
0.0
  0
LINE
  5
114D
  8
0
 10
122.175523
 20
90.94773
 30
0.0
 11
122.097579
 21
90.626002
 31
0.0
  0
LINE
  5
114E
  8
0
 10
122.5
 20
90.839746
 30
0.0
 11
122.175523
 21
90.94773
 31
0.0
  0
LINE
  5
114F
  8
0
 10
121.02981
 20
90.406984
 30
0.0
 11
120.920201
 21
90.103074
 31
0.0
  0
LINE
  5
1150
  8
0
 10
121.306664
 20
90.259065
 30
0.0
 11
121.02981
 21
90.406984
 31
0.0
  0
LINE
  5
1151
  8
0
 10
121.412352
 20
90.572775
 30
0.0
 11
121.306664
 21
90.259065
 31
0.0
  0
LINE
  5
1152
  8
0
 10
121.726183
 20
90.436922
 30
0.0
 11
121.412352
 21
90.572775
 31
0.0
  0
LINE
  5
1153
  8
0
 10
123.262981
 20
91.630403
 30
0.0
 11
123.235764
 21
91.30848
 31
0.0
  0
LINE
  5
1154
  8
0
 10
123.568685
 20
91.559179
 30
0.0
 11
123.262981
 21
91.630403
 31
0.0
  0
LINE
  5
1155
  8
0
 10
126.235345
 20
95.17616
 30
0.0
 11
126.356032
 21
94.867909
 31
0.0
  0
LINE
  5
1156
  8
0
 10
125.417135
 20
93.400447
 30
0.0
 11
125.103413
 21
93.390122
 31
0.0
  0
LINE
  5
1157
  8
0
 10
125.103413
 20
93.390122
 30
0.0
 11
125.160444
 21
93.072124
 31
0.0
  0
LINE
  5
1158
  8
0
 10
124.541969
 20
92.750691
 30
0.0
 11
124.571068
 21
92.428932
 31
0.0
  0
LINE
  5
1159
  8
0
 10
124.855397
 20
92.733634
 30
0.0
 11
124.541969
 21
92.750691
 31
0.0
  0
LINE
  5
115A
  8
0
 10
124.818603
 20
93.062618
 30
0.0
 11
124.855397
 21
92.733634
 31
0.0
  0
LINE
  5
115B
  8
0
 10
125.160444
 20
93.072124
 30
0.0
 11
124.818603
 21
93.062618
 31
0.0
  0
LINE
  5
115C
  8
0
 10
123.926931
 20
92.162626
 30
0.0
 11
123.927876
 21
91.839556
 31
0.0
  0
LINE
  5
115D
  8
0
 10
124.23768
 20
92.118317
 30
0.0
 11
123.926931
 21
92.162626
 31
0.0
  0
LINE
  5
115E
  8
0
 10
124.229699
 20
92.449256
 30
0.0
 11
124.23768
 21
92.118317
 31
0.0
  0
LINE
  5
115F
  8
0
 10
124.571068
 20
92.428932
 30
0.0
 11
124.229699
 21
92.449256
 31
0.0
  0
LINE
  5
1160
  8
0
 10
123.927876
 20
91.839556
 30
0.0
 11
123.589578
 21
91.889554
 31
0.0
  0
LINE
  5
1161
  8
0
 10
126.048869
 20
94.803264
 30
0.0
 11
126.160254
 21
94.5
 31
0.0
  0
LINE
  5
1162
  8
0
 10
126.356032
 20
94.867909
 30
0.0
 11
126.048869
 21
94.803264
 31
0.0
  0
LINE
  5
1163
  8
0
 10
125.606991
 20
94.076053
 30
0.0
 11
125.69152
 21
93.764236
 31
0.0
  0
LINE
  5
1164
  8
0
 10
125.918619
 20
94.113682
 30
0.0
 11
125.606991
 21
94.076053
 31
0.0
  0
LINE
  5
1165
  8
0
 10
125.825257
 20
94.431278
 30
0.0
 11
125.918619
 21
94.113682
 31
0.0
  0
LINE
  5
1166
  8
0
 10
126.160254
 20
94.5
 30
0.0
 11
125.825257
 21
94.431278
 31
0.0
  0
LINE
  5
1167
  8
0
 10
125.351809
 20
93.724972
 30
0.0
 11
125.417135
 21
93.400447
 31
0.0
  0
LINE
  5
1168
  8
0
 10
125.69152
 20
93.764236
 30
0.0
 11
125.351809
 21
93.724972
 31
0.0
  0
LINE
  5
1169
  8
0
 10
126.973179
 20
97.175912
 30
0.0
 11
127.159258
 21
96.91181
 31
0.0
  0
LINE
  5
116A
  8
0
 10
127.253143
 20
97.317854
 30
0.0
 11
126.973179
 21
97.175912
 31
0.0
  0
LINE
  5
116B
  8
0
 10
127.056788
 20
97.584365
 30
0.0
 11
127.253143
 21
97.317854
 31
0.0
  0
LINE
  5
116C
  8
0
 10
126.734573
 20
96.359114
 30
0.0
 11
126.896926
 21
96.079799
 31
0.0
  0
LINE
  5
116D
  8
0
 10
127.025843
 20
96.476115
 30
0.0
 11
126.734573
 21
96.359114
 31
0.0
  0
LINE
  5
116E
  8
0
 10
126.853463
 20
96.758726
 30
0.0
 11
127.025843
 21
96.476115
 31
0.0
  0
LINE
  5
116F
  8
0
 10
127.159258
 20
96.91181
 30
0.0
 11
126.853463
 21
96.758726
 31
0.0
  0
LINE
  5
1170
  8
0
 10
126.425686
 20
95.56622
 30
0.0
 11
126.563078
 21
95.273817
 31
0.0
  0
LINE
  5
1171
  8
0
 10
126.726046
 20
95.65739
 30
0.0
 11
126.425686
 21
95.56622
 31
0.0
  0
LINE
  5
1172
  8
0
 10
126.578952
 20
95.953949
 30
0.0
 11
126.726046
 21
95.65739
 31
0.0
  0
LINE
  5
1173
  8
0
 10
126.896926
 20
96.079799
 30
0.0
 11
126.578952
 21
95.953949
 31
0.0
  0
LINE
  5
1174
  8
0
 10
126.563078
 20
95.273817
 30
0.0
 11
126.235345
 21
95.17616
 31
0.0
  0
LINE
  5
1175
  8
0
 10
127.067818
 20
101.397199
 30
0.0
 11
127.348078
 21
101.236482
 31
0.0
  0
LINE
  5
1176
  8
0
 10
127.196761
 20
100.556089
 30
0.0
 11
127.461947
 21
100.371557
 31
0.0
  0
LINE
  5
1177
  8
0
 10
127.411295
 20
100.785225
 30
0.0
 11
127.196761
 21
100.556089
 31
0.0
  0
LINE
  5
1178
  8
0
 10
127.135628
 20
100.968506
 30
0.0
 11
127.411295
 21
100.785225
 31
0.0
  0
LINE
  5
1179
  8
0
 10
127.348078
 20
101.236482
 30
0.0
 11
127.135628
 21
100.968506
 31
0.0
  0
LINE
  5
117A
  8
0
 10
127.251906
 20
99.706942
 30
0.0
 11
127.5
 21
99.5
 31
0.0
  0
LINE
  5
117B
  8
0
 10
127.485594
 20
99.916508
 30
0.0
 11
127.251906
 21
99.706942
 31
0.0
  0
LINE
  5
117C
  8
0
 10
127.226951
 20
100.123118
 30
0.0
 11
127.485594
 21
99.916508
 31
0.0
  0
LINE
  5
117D
  8
0
 10
127.461947
 20
100.371557
 30
0.0
 11
127.226951
 21
100.123118
 31
0.0
  0
LINE
  5
117E
  8
0
 10
127.232833
 20
98.85622
 30
0.0
 11
127.461947
 21
98.628443
 31
0.0
  0
LINE
  5
117F
  8
0
 10
127.483897
 20
99.044621
 30
0.0
 11
127.232833
 21
98.85622
 31
0.0
  0
LINE
  5
1180
  8
0
 10
127.244245
 20
99.272987
 30
0.0
 11
127.483897
 21
99.044621
 31
0.0
  0
LINE
  5
1181
  8
0
 10
127.5
 20
99.5
 30
0.0
 11
127.244245
 21
99.272987
 31
0.0
  0
LINE
  5
1182
  8
0
 10
127.461947
 20
98.628443
 30
0.0
 11
127.18738
 21
98.424584
 31
0.0
  0
LINE
  5
1183
  8
0
 10
125.69152
 20
105.235764
 30
0.0
 11
125.612228
 21
104.903111
 31
0.0
  0
LINE
  5
1184
  8
0
 10
127.261565
 20
101.644161
 30
0.0
 11
127.067818
 21
101.397199
 31
0.0
  0
LINE
  5
1185
  8
0
 10
125.841927
 20
104.55517
 30
0.0
 11
126.160254
 21
104.5
 31
0.0
  0
LINE
  5
1186
  8
0
 10
125.939524
 20
104.853504
 30
0.0
 11
125.841927
 21
104.55517
 31
0.0
  0
LINE
  5
1187
  8
0
 10
125.612228
 20
104.903111
 30
0.0
 11
125.939524
 21
104.853504
 31
0.0
  0
LINE
  5
1188
  8
0
 10
126.250771
 20
103.808887
 30
0.0
 11
126.563078
 21
103.726183
 31
0.0
  0
LINE
  5
1189
  8
0
 10
126.373998
 20
104.097579
 30
0.0
 11
126.250771
 21
103.808887
 31
0.0
  0
LINE
  5
118A
  8
0
 10
126.05227
 20
104.175523
 30
0.0
 11
126.373998
 21
104.097579
 31
0.0
  0
LINE
  5
118B
  8
0
 10
126.160254
 20
104.5
 30
0.0
 11
126.05227
 21
104.175523
 31
0.0
  0
LINE
  5
118C
  8
0
 10
126.593016
 20
103.02981
 30
0.0
 11
126.896926
 21
102.920201
 31
0.0
  0
LINE
  5
118D
  8
0
 10
126.740935
 20
103.306664
 30
0.0
 11
126.593016
 21
103.02981
 31
0.0
  0
LINE
  5
118E
  8
0
 10
126.427225
 20
103.412352
 30
0.0
 11
126.740935
 21
103.306664
 31
0.0
  0
LINE
  5
118F
  8
0
 10
126.563078
 20
103.726183
 30
0.0
 11
126.427225
 21
103.412352
 31
0.0
  0
LINE
  5
1190
  8
0
 10
126.866057
 20
102.22387
 30
0.0
 11
127.159258
 21
102.08819
 31
0.0
  0
LINE
  5
1191
  8
0
 10
127.037543
 20
102.486778
 30
0.0
 11
126.866057
 21
102.22387
 31
0.0
  0
LINE
  5
1192
  8
0
 10
126.734238
 20
102.619405
 30
0.0
 11
127.037543
 21
102.486778
 31
0.0
  0
LINE
  5
1193
  8
0
 10
126.896926
 20
102.920201
 30
0.0
 11
126.734238
 21
102.619405
 31
0.0
  0
LINE
  5
1194
  8
0
 10
126.970973
 20
101.802718
 30
0.0
 11
127.261565
 21
101.644161
 31
0.0
  0
LINE
  5
1195
  8
0
 10
127.159258
 20
102.08819
 30
0.0
 11
126.970973
 21
101.802718
 31
0.0
  0
LINE
  5
1196
  8
0
 10
122.923947
 20
107.606991
 30
0.0
 11
123.235764
 21
107.69152
 31
0.0
  0
LINE
  5
1197
  8
0
 10
122.132091
 20
108.356032
 30
0.0
 11
122.196736
 21
108.048869
 31
0.0
  0
LINE
  5
1198
  8
0
 10
121.82384
 20
108.235345
 30
0.0
 11
122.132091
 21
108.356032
 31
0.0
  0
LINE
  5
1199
  8
0
 10
121.726183
 20
108.563078
 30
0.0
 11
121.82384
 21
108.235345
 31
0.0
  0
LINE
  5
119A
  8
0
 10
122.196736
 20
108.048869
 30
0.0
 11
122.5
 21
108.160254
 31
0.0
  0
LINE
  5
119B
  8
0
 10
122.886318
 20
107.918619
 30
0.0
 11
122.923947
 21
107.606991
 31
0.0
  0
LINE
  5
119C
  8
0
 10
122.568722
 20
107.825257
 30
0.0
 11
122.886318
 21
107.918619
 31
0.0
  0
LINE
  5
119D
  8
0
 10
122.5
 20
108.160254
 30
0.0
 11
122.568722
 21
107.825257
 31
0.0
  0
LINE
  5
119E
  8
0
 10
120.640886
 20
108.734573
 30
0.0
 11
120.920201
 21
108.896926
 31
0.0
  0
LINE
  5
119F
  8
0
 10
118.989603
 20
109.139688
 30
0.0
 11
119.236482
 21
109.348078
 31
0.0
  0
LINE
  5
11A0
  8
0
 10
118.8238
 20
109.406216
 30
0.0
 11
118.989603
 21
109.139688
 31
0.0
  0
LINE
  5
11A1
  8
0
 10
119.824088
 20
108.973179
 30
0.0
 11
120.08819
 21
109.159258
 31
0.0
  0
LINE
  5
11A2
  8
0
 10
119.682146
 20
109.253143
 30
0.0
 11
119.824088
 21
108.973179
 31
0.0
  0
LINE
  5
11A3
  8
0
 10
119.415635
 20
109.056788
 30
0.0
 11
119.682146
 21
109.253143
 31
0.0
  0
LINE
  5
11A4
  8
0
 10
119.236482
 20
109.348078
 30
0.0
 11
119.415635
 21
109.056788
 31
0.0
  0
LINE
  5
11A5
  8
0
 10
120.523885
 20
109.025843
 30
0.0
 11
120.640886
 21
108.734573
 31
0.0
  0
LINE
  5
11A6
  8
0
 10
120.241274
 20
108.853463
 30
0.0
 11
120.523885
 21
109.025843
 31
0.0
  0
LINE
  5
11A7
  8
0
 10
120.08819
 20
109.159258
 30
0.0
 11
120.241274
 21
108.853463
 31
0.0
  0
LINE
  5
11A8
  8
0
 10
121.43378
 20
108.425686
 30
0.0
 11
121.726183
 21
108.563078
 31
0.0
  0
LINE
  5
11A9
  8
0
 10
121.34261
 20
108.726046
 30
0.0
 11
121.43378
 21
108.425686
 31
0.0
  0
LINE
  5
11AA
  8
0
 10
121.046051
 20
108.578952
 30
0.0
 11
121.34261
 21
108.726046
 31
0.0
  0
LINE
  5
11AB
  8
0
 10
120.920201
 20
108.896926
 30
0.0
 11
121.046051
 21
108.578952
 31
0.0
  0
LINE
  5
11AC
  8
0
 10
125.110446
 20
105.589578
 30
0.0
 11
125.440821
 21
105.568685
 31
0.0
  0
LINE
  5
11AD
  8
0
 10
123.609878
 20
107.103413
 30
0.0
 11
123.927876
 21
107.160444
 31
0.0
  0
LINE
  5
11AE
  8
0
 10
123.599553
 20
107.417135
 30
0.0
 11
123.609878
 21
107.103413
 31
0.0
  0
LINE
  5
11AF
  8
0
 10
123.275028
 20
107.351809
 30
0.0
 11
123.599553
 21
107.417135
 31
0.0
  0
LINE
  5
11B0
  8
0
 10
123.235764
 20
107.69152
 30
0.0
 11
123.275028
 21
107.351809
 31
0.0
  0
LINE
  5
11B1
  8
0
 10
124.249309
 20
106.541969
 30
0.0
 11
124.571068
 21
106.571068
 31
0.0
  0
LINE
  5
11B2
  8
0
 10
124.266366
 20
106.855397
 30
0.0
 11
124.249309
 21
106.541969
 31
0.0
  0
LINE
  5
11B3
  8
0
 10
123.937382
 20
106.818603
 30
0.0
 11
124.266366
 21
106.855397
 31
0.0
  0
LINE
  5
11B4
  8
0
 10
123.927876
 20
107.160444
 30
0.0
 11
123.937382
 21
106.818603
 31
0.0
  0
LINE
  5
11B5
  8
0
 10
124.837374
 20
105.926931
 30
0.0
 11
125.160444
 21
105.927876
 31
0.0
  0
LINE
  5
11B6
  8
0
 10
124.881683
 20
106.23768
 30
0.0
 11
124.837374
 21
105.926931
 31
0.0
  0
LINE
  5
11B7
  8
0
 10
124.550744
 20
106.229699
 30
0.0
 11
124.881683
 21
106.23768
 31
0.0
  0
LINE
  5
11B8
  8
0
 10
124.571068
 20
106.571068
 30
0.0
 11
124.550744
 21
106.229699
 31
0.0
  0
LINE
  5
11B9
  8
0
 10
125.160444
 20
105.927876
 30
0.0
 11
125.110446
 21
105.589578
 31
0.0
  0
LINE
  5
11BA
  8
0
 10
125.369597
 20
105.262981
 30
0.0
 11
125.69152
 21
105.235764
 31
0.0
  0
LINE
  5
11BB
  8
0
 10
125.440821
 20
105.568685
 30
0.0
 11
125.369597
 21
105.262981
 31
0.0
  0
CIRCLE
  5
11BC
  8
0
 10
117.5
 20
99.5
 30
0.0
 40
7.0
  0
TEXT
  5
1227
  8
0
 10
141.0
 20
2.75
 30
0.0
 40
7.0
  1
ＫＮＴＡ０００５
 41
0.8
  0
VIEWPORT
  5
22
 67
     1
  8
0
 10
261.517699
 20
148.5
 30
0.0
 40
523.035398
 41
297.0
 68
    -1
 69
     1
1001
ACAD
1000
MVIEW
1002
{
1070
    16
1010
0.0
1020
0.0
1030
0.0
1010
0.0
1020
0.0
1030
1.0
1040
0.0
1040
297.0
1040
261.517699
1040
148.5
1040
50.0
1040
0.0
1040
0.0
1070
     0
1070
   100
1070
     1
1070
     1
1070
     0
1070
     0
1070
     0
1070
     0
1040
0.0
1040
0.0
1040
0.0
1040
1.0
1040
1.0
1040
10.0
1040
10.0
1070
     0
1002
{
1002
}
1002
}
  0
ENDSEC
  0
EOF
