  0
SECTION
  2
HEADER
  9
$ACADVER
  1
AC1009
  9
$INSBASE
 10
0.0
 20
0.0
 30
0.0
  9
$EXTMIN
 10
16.75
 20
2.948295
 30
0.0
  9
$EXTMAX
 10
291.829328
 20
170.0
 30
0.0
  9
$LIMMIN
 10
0.0
 20
0.0
  9
$LIMMAX
 10
300.0
 20
250.0
  9
$ORTHOMODE
 70
     0
  9
$REGENMODE
 70
     1
  9
$FILLMODE
 70
     1
  9
$QTEXTMODE
 70
     0
  9
$MIRRTEXT
 70
     1
  9
$DRAGMODE
 70
     2
  9
$LTSCALE
 40
1.0
  9
$OSMODE
 70
     0
  9
$ATTMODE
 70
     1
  9
$TEXTSIZE
 40
7.0
  9
$TRACEWID
 40
1.0
  9
$TEXTSTYLE
  7
STANDARD
  9
$CLAYER
  8
0
  9
$CELTYPE
  6
BYLAYER
  9
$CECOLOR
 62
   256
  9
$DIMSCALE
 40
1.0
  9
$DIMASZ
 40
2.5
  9
$DIMEXO
 40
0.625
  9
$DIMDLI
 40
3.75
  9
$DIMRND
 40
0.0
  9
$DIMDLE
 40
0.0
  9
$DIMEXE
 40
1.25
  9
$DIMTP
 40
0.0
  9
$DIMTM
 40
0.0
  9
$DIMTXT
 40
2.5
  9
$DIMCEN
 40
2.5
  9
$DIMTSZ
 40
0.0
  9
$DIMTOL
 70
     0
  9
$DIMLIM
 70
     0
  9
$DIMTIH
 70
     1
  9
$DIMTOH
 70
     0
  9
$DIMSE1
 70
     0
  9
$DIMSE2
 70
     0
  9
$DIMTAD
 70
     1
  9
$DIMZIN
 70
     8
  9
$DIMBLK
  1

  9
$DIMASO
 70
     1
  9
$DIMSHO
 70
     1
  9
$DIMPOST
  1

  9
$DIMAPOST
  1

  9
$DIMALT
 70
     0
  9
$DIMALTD
 70
     2
  9
$DIMALTF
 40
0.0394
  9
$DIMLFAC
 40
1.0
  9
$DIMTOFL
 70
     1
  9
$DIMTVP
 40
1.0
  9
$DIMTIX
 70
     0
  9
$DIMSOXD
 70
     0
  9
$DIMSAH
 70
     0
  9
$DIMBLK1
  1

  9
$DIMBLK2
  1

  9
$DIMSTYLE
  2
ISO-25
  9
$DIMCLRD
 70
     0
  9
$DIMCLRE
 70
     0
  9
$DIMCLRT
 70
     0
  9
$DIMTFAC
 40
1.0
  9
$DIMGAP
 40
0.625
  9
$LUNITS
 70
     2
  9
$LUPREC
 70
     4
  9
$SKETCHINC
 40
1.0
  9
$FILLETRAD
 40
2.0
  9
$AUNITS
 70
     0
  9
$AUPREC
 70
     0
  9
$MENU
  1
.
  9
$ELEVATION
 40
0.0
  9
$PELEVATION
 40
0.0
  9
$THICKNESS
 40
0.0
  9
$LIMCHECK
 70
     0
  9
$BLIPMODE
 70
     1
  9
$CHAMFERA
 40
1.0
  9
$CHAMFERB
 40
1.0
  9
$SKPOLY
 70
     0
  9
$TDCREATE
 40
2450687.648588
  9
$TDUPDATE
 40
2450826.569039
  9
$TDINDWG
 40
0.001678
  9
$TDUSRTIMER
 40
0.001678
  9
$USRTIMER
 70
     1
  9
$ANGBASE
 50
0.0
  9
$ANGDIR
 70
     0
  9
$PDMODE
 70
     0
  9
$PDSIZE
 40
0.0
  9
$PLINEWID
 40
0.0
  9
$COORDS
 70
     2
  9
$SPLFRAME
 70
     0
  9
$SPLINETYPE
 70
     6
  9
$SPLINESEGS
 70
     8
  9
$ATTDIA
 70
     0
  9
$ATTREQ
 70
     1
  9
$HANDLING
 70
     1
  9
$HANDSEED
  5
1797
  9
$SURFTAB1
 70
     6
  9
$SURFTAB2
 70
     6
  9
$SURFTYPE
 70
     6
  9
$SURFU
 70
     6
  9
$SURFV
 70
     6
  9
$UCSNAME
  2

  9
$UCSORG
 10
0.0
 20
0.0
 30
0.0
  9
$UCSXDIR
 10
1.0
 20
0.0
 30
0.0
  9
$UCSYDIR
 10
0.0
 20
1.0
 30
0.0
  9
$PUCSNAME
  2

  9
$PUCSORG
 10
0.0
 20
0.0
 30
0.0
  9
$PUCSXDIR
 10
1.0
 20
0.0
 30
0.0
  9
$PUCSYDIR
 10
0.0
 20
1.0
 30
0.0
  9
$USERI1
 70
     0
  9
$USERI2
 70
     0
  9
$USERI3
 70
     0
  9
$USERI4
 70
     0
  9
$USERI5
 70
     0
  9
$USERR1
 40
0.0
  9
$USERR2
 40
0.0
  9
$USERR3
 40
0.0
  9
$USERR4
 40
0.0
  9
$USERR5
 40
0.0
  9
$WORLDVIEW
 70
     1
  9
$SHADEDGE
 70
     3
  9
$SHADEDIF
 70
    70
  9
$TILEMODE
 70
     1
  9
$MAXACTVP
 70
    16
  9
$PLIMCHECK
 70
     0
  9
$PEXTMIN
 10
1.000000E+020
 20
1.000000E+020
 30
1.000000E+020
  9
$PEXTMAX
 10
-1.000000E+020
 20
-1.000000E+020
 30
-1.000000E+020
  9
$PLIMMIN
 10
0.0
 20
0.0
  9
$PLIMMAX
 10
420.0
 20
297.0
  9
$UNITMODE
 70
     0
  9
$VISRETAIN
 70
     0
  9
$PLINEGEN
 70
     0
  9
$PSLTSCALE
 70
     1
  0
ENDSEC
  0
SECTION
  2
TABLES
  0
TABLE
  2
VPORT
 70
     2
  0
VPORT
  2
*ACTIVE
 70
     0
 10
0.0
 20
0.0
 11
1.0
 21
1.0
 12
193.859649
 22
144.05381
 13
0.0
 23
0.0
 14
0.25
 24
0.25
 15
0.5
 25
0.5
 16
0.0
 26
0.0
 36
1.0
 17
0.0
 27
0.0
 37
0.0
 40
288.107621
 41
1.345745
 42
50.0
 43
0.0
 44
0.0
 50
0.0
 51
0.0
 71
     0
 72
 20000
 73
     1
 74
     1
 75
     1
 76
     1
 77
     0
 78
     0
  0
ENDTAB
  0
TABLE
  2
LTYPE
 70
     3
  0
LTYPE
  2
CONTINUOUS
 70
     0
  3
Solid line
 72
    65
 73
     0
 40
0.0
  0
LTYPE
  2
TENSEN
 70
     0
  3

 72
    65
 73
     2
 40
2.5
 49
1.5
 49
-1.0
  0
LTYPE
  2
ITTEN
 70
     0
  3

 72
    65
 73
     4
 40
3.6
 49
2.0
 49
-0.5
 49
0.6
 49
-0.5
  0
ENDTAB
  0
TABLE
  2
LAYER
 70
     4
  0
LAYER
  2
0
 70
     0
 62
     7
  6
CONTINUOUS
  0
LAYER
  2
2
 70
     0
 62
     2
  6
TENSEN
  0
LAYER
  2
1
 70
     0
 62
     1
  6
ITTEN
  0
LAYER
  2
3
 70
     0
 62
     3
  6
CONTINUOUS
  0
ENDTAB
  0
TABLE
  2
STYLE
 70
     1
  0
STYLE
  2
STANDARD
 70
     0
 40
7.0
 41
0.8
 50
0.0
 71
     0
 42
7.0
  3
ISOCP
  4
B:\r13\com\fonts\bigfont.shx
  0
ENDTAB
  0
TABLE
  2
VIEW
 70
     0
  0
ENDTAB
  0
TABLE
  2
UCS
 70
     0
  0
ENDTAB
  0
TABLE
  2
APPID
 70
     1
  0
APPID
  2
ACAD
 70
     0
  0
ENDTAB
  0
TABLE
  2
DIMSTYLE
 70
     8
  0
DIMSTYLE
  2
STANDARD
 70
     0
  3

  4

  5

  6

  7

 40
1.0
 41
0.18
 42
0.0625
 43
0.38
 44
0.18
 45
0.0
 46
0.0
 47
0.0
 48
0.0
140
0.18
141
0.09
142
0.0
143
25.4
144
1.0
145
0.0
146
1.0
147
0.09
 71
     0
 72
     0
 73
     1
 74
     1
 75
     0
 76
     0
 77
     0
 78
     0
170
     0
171
     2
172
     0
173
     0
174
     0
175
     0
176
     0
177
     0
178
     0
  0
DIMSTYLE
  2
ISO-25
 70
     0
  3

  4

  5

  6

  7

 40
1.0
 41
2.5
 42
0.625
 43
3.75
 44
1.25
 45
0.0
 46
0.0
 47
0.0
 48
0.0
140
2.5
141
2.5
142
0.0
143
0.0394
144
1.0
145
1.0
146
1.0
147
0.625
 71
     0
 72
     0
 73
     1
 74
     0
 75
     0
 76
     0
 77
     1
 78
     8
170
     0
171
     2
172
     1
173
     0
174
     0
175
     0
176
     0
177
     0
178
     0
  0
DIMSTYLE
  2
ISO-35
 70
     0
  3

  4

  5

  6

  7

 40
1.0
 41
3.5
 42
0.875
 43
5.25
 44
1.75
 45
0.0
 46
0.0
 47
0.0
 48
0.0
140
3.5
141
3.5
142
0.0
143
0.0394
144
1.0
145
1.4
146
1.0
147
0.875
 71
     0
 72
     0
 73
     1
 74
     0
 75
     0
 76
     0
 77
     1
 78
     8
170
     0
171
     2
172
     1
173
     0
174
     0
175
     0
176
     0
177
     0
178
     0
  0
DIMSTYLE
  2
ISO-5
 70
     0
  3

  4

  5

  6

  7

 40
1.0
 41
5.0
 42
1.25
 43
7.5
 44
2.5
 45
0.0
 46
0.0
 47
0.0
 48
0.0
140
5.0
141
5.0
142
0.0
143
0.0394
144
1.0
145
2.0
146
1.0
147
1.25
 71
     0
 72
     0
 73
     1
 74
     0
 75
     0
 76
     0
 77
     1
 78
     8
170
     0
171
     2
172
     1
173
     0
174
     0
175
     0
176
     0
177
     0
178
     0
  0
DIMSTYLE
  2
ISO-7
 70
     0
  3

  4

  5

  6

  7

 40
1.0
 41
7.0
 42
1.75
 43
10.5
 44
3.5
 45
0.0
 46
0.0
 47
0.0
 48
0.0
140
7.0
141
7.0
142
0.0
143
0.0394
144
1.0
145
2.8
146
1.0
147
1.75
 71
     0
 72
     0
 73
     1
 74
     0
 75
     0
 76
     0
 77
     1
 78
     8
170
     0
171
     2
172
     1
173
     0
174
     0
175
     0
176
     0
177
     0
178
     0
  0
DIMSTYLE
  2
ISO1
 70
     0
  3

  4

  5

  6

  7

 40
1.0
 41
10.0
 42
2.5
 43
15.0
 44
5.0
 45
0.0
 46
0.0
 47
0.0
 48
0.0
140
10.0
141
10.0
142
0.0
143
0.0394
144
1.0
145
4.0
146
1.0
147
2.5
 71
     0
 72
     0
 73
     1
 74
     0
 75
     0
 76
     0
 77
     1
 78
     8
170
     0
171
     2
172
     1
173
     0
174
     0
175
     0
176
     0
177
     0
178
     0
  0
DIMSTYLE
  2
ISO1-4
 70
     0
  3

  4

  5

  6

  7

 40
1.0
 41
14.0
 42
3.5
 43
21.0
 44
7.0
 45
0.0
 46
0.0
 47
0.0
 48
0.0
140
14.0
141
14.0
142
0.0
143
0.0394
144
1.0
145
5.6
146
1.0
147
3.5
 71
     0
 72
     0
 73
     1
 74
     0
 75
     0
 76
     0
 77
     1
 78
     8
170
     0
171
     2
172
     1
173
     0
174
     0
175
     0
176
     0
177
     0
178
     0
  0
DIMSTYLE
  2
ISO2
 70
     0
  3

  4

  5

  6

  7

 40
1.0
 41
20.0
 42
5.0
 43
30.0
 44
10.0
 45
0.0
 46
0.0
 47
0.0
 48
0.0
140
20.0
141
20.0
142
0.0
143
0.0394
144
1.0
145
8.0
146
1.0
147
5.0
 71
     0
 72
     0
 73
     1
 74
     0
 75
     0
 76
     0
 77
     1
 78
     8
170
     0
171
     2
172
     1
173
     0
174
     0
175
     0
176
     0
177
     0
178
     0
  0
ENDTAB
  0
ENDSEC
  0
SECTION
  2
BLOCKS
  0
BLOCK
  8
0
  2
$MODEL_SPACE
 70
     0
 10
0.0
 20
0.0
 30
0.0
  3
$MODEL_SPACE
  1

  0
ENDBLK
  5
1789
  8
0
  0
BLOCK
 67
     1
  8
0
  2
$PAPER_SPACE
 70
     0
 10
0.0
 20
0.0
 30
0.0
  3
$PAPER_SPACE
  1

  0
ENDBLK
  5
1787
 67
     1
  8
0
  0
ENDSEC
  0
SECTION
  2
ENTITIES
  0
TEXT
  5
37
  8
0
 10
213.257298
 20
54.965674
 30
0.0
 40
4.55
  1
部品名称
 41
0.8
  0
TEXT
  5
38
  8
0
 10
213.007298
 20
40.385271
 30
0.0
 40
4.55
  1
品番
 41
0.8
  0
TEXT
  5
39
  8
0
 10
213.257298
 20
25.175271
 30
0.0
 40
4.55
  1
尺度
 41
0.8
  0
TEXT
  5
3A
  8
0
 10
213.757298
 20
10.715271
 30
0.0
 40
4.55
  1
図番
 41
0.8
  0
TEXT
  5
3F
  8
0
 10
212.85
 20
17.0
 30
0.0
 40
7.0
  1
１／１
 41
0.8
  0
TEXT
  5
14A4
  8
0
 10
212.682661
 20
47.066549
 30
0.0
 40
7.0
  1
タップドブラインド・ノブ
 41
0.8
  0
LINE
  5
16BD
  8
1
 10
16.75
 20
132.25
 30
0.0
 11
90.0
 21
132.25
 31
0.0
  0
LINE
  5
16BE
  8
1
 10
52.75
 20
170.0
 30
0.0
 11
52.75
 21
94.25
 31
0.0
  0
CIRCLE
  5
16BF
  8
2
 10
52.75
 20
132.25
 30
0.0
 40
30.0
  0
ARC
  5
16CD
  8
0
 10
52.75
 20
157.080714
 30
0.0
 40
5.302809
 50
31.939532
 51
148.060468
  0
ARC
  5
16CE
  8
0
 10
87.318322
 20
179.829214
 30
0.0
 40
36.080947
 50
213.554819
 51
254.445181
  0
ARC
  5
16CF
  8
0
 10
29.134587
 20
139.923113
 30
0.0
 40
5.302809
 50
103.939532
 51
220.060468
  0
ARC
  5
16D0
  8
0
 10
18.181678
 20
179.829214
 30
0.0
 40
36.080947
 50
285.554819
 51
326.445181
  0
ARC
  5
16D1
  8
0
 10
38.154872
 20
112.16153
 30
0.0
 40
5.302809
 50
175.939532
 51
292.060468
  0
ARC
  5
16D2
  8
0
 10
-3.182721
 20
114.076357
 30
0.0
 40
36.080947
 50
357.554819
 51
38.445181
  0
ARC
  5
16D3
  8
0
 10
67.345128
 20
112.16153
 30
0.0
 40
5.302809
 50
247.939532
 51
4.060468
  0
ARC
  5
16D4
  8
0
 10
52.75
 20
73.438857
 30
0.0
 40
36.080947
 50
69.554819
 51
110.445181
  0
ARC
  5
16D5
  8
0
 10
76.365413
 20
139.923113
 30
0.0
 40
5.302809
 50
319.939532
 51
76.060468
  0
ARC
  5
16D6
  8
0
 10
108.682721
 20
114.076357
 30
0.0
 40
36.080947
 50
141.554819
 51
182.445181
  0
LINE
  5
16D7
  8
1
 10
115.0
 20
132.25
 30
0.0
 11
167.5
 21
132.25
 31
0.0
  0
LINE
  5
16D9
  8
0
 10
126.5
 20
162.25
 30
0.0
 11
139.25
 21
162.25
 31
0.0
  0
LINE
  5
16DF
  8
0
 10
159.5
 20
132.25
 30
0.0
 11
159.5
 21
140.0
 31
0.0
  0
LINE
  5
16E2
  8
0
 10
159.5
 20
140.0
 30
0.0
 11
159.25
 21
140.0
 31
0.0
  0
LINE
  5
16E3
  8
0
 10
159.25
 20
132.25
 30
0.0
 11
159.25
 21
144.75
 31
0.0
  0
LINE
  5
16E4
  8
0
 10
158.25
 20
145.75
 30
0.0
 11
142.451363
 21
145.75
 31
0.0
  0
LINE
  5
16E5
  8
0
 10
158.25
 20
145.75
 30
0.0
 11
159.25
 21
144.75
 31
0.0
  0
ARC
  5
16E7
  8
0
 10
237.0
 20
132.25
 30
0.0
 40
114.5
 50
164.810713
 51
191.629835
  0
LINE
  5
16E9
  8
0
 10
142.5
 20
145.75
 30
0.0
 11
142.5
 21
132.25
 31
0.0
  0
LINE
  5
16EA
  8
0
 10
158.25
 20
118.75
 30
0.0
 11
142.451363
 21
118.75
 31
0.0
  0
LINE
  5
16EB
  8
0
 10
142.5
 20
118.75
 30
0.0
 11
142.5
 21
132.25
 31
0.0
  0
LINE
  5
16EC
  8
0
 10
159.25
 20
132.25
 30
0.0
 11
159.25
 21
119.75
 31
0.0
  0
LINE
  5
16EF
  8
0
 10
158.25
 20
118.75
 30
0.0
 11
159.25
 21
119.75
 31
0.0
  0
ARC
  5
16F0
  8
0
 10
28.75
 20
132.25
 30
0.0
 40
114.5
 50
6.561496
 51
15.189287
  0
LINE
  5
16F1
  8
0
 10
126.5
 20
106.75
 30
0.0
 11
139.25
 21
106.75
 31
0.0
  0
ARC
  5
16F2
  8
0
 10
131.625
 20
161.5
 30
0.0
 40
5.179587
 50
171.67435
 51
199.746837
  0
ARC
  5
16F3
  8
0
 10
120.0
 20
159.125
 30
0.0
 40
6.778873
 50
337.217594
 51
5.290081
  0
ARC
  5
16F4
  8
0
 10
156.834184
 20
152.068878
 30
0.0
 40
30.903513
 50
171.756189
 51
193.222917
  0
ARC
  5
16F6
  8
0
 10
107.692073
 20
141.881098
 30
0.0
 40
19.311451
 50
346.887413
 51
9.294282
  0
ARC
  5
16F7
  8
0
 10
300.8125
 20
124.25
 30
0.0
 40
174.81536
 50
175.65314
 51
184.34686
  0
ARC
  5
16F9
  8
0
 10
117.625
 20
108.875
 30
0.0
 40
9.125856
 50
346.534792
 51
13.465208
  0
ARC
  5
16FA
  8
0
 10
122.789634
 20
105.990854
 30
0.0
 40
3.787231
 50
11.563212
 51
57.030121
  0
ARC
  5
16FD
  8
0
 10
-35.0625
 20
124.25
 30
0.0
 40
174.81536
 50
355.65314
 51
4.34686
  0
ARC
  5
16FE
  8
0
 10
142.960366
 20
105.990854
 30
0.0
 40
3.787231
 50
122.969879
 51
168.436788
  0
ARC
  5
16FF
  8
0
 10
148.125
 20
108.875
 30
0.0
 40
9.125856
 50
166.534792
 51
193.465208
  0
ARC
  5
1700
  8
0
 10
158.057927
 20
141.881098
 30
0.0
 40
19.311451
 50
170.705718
 51
193.112587
  0
ARC
  5
1701
  8
0
 10
108.915816
 20
152.068878
 30
0.0
 40
30.903513
 50
346.777083
 51
8.243811
  0
ARC
  5
1702
  8
0
 10
145.75
 20
159.125
 30
0.0
 40
6.778873
 50
174.709919
 51
202.782406
  0
ARC
  5
1703
  8
0
 10
134.125
 20
161.5
 30
0.0
 40
5.179587
 50
340.253163
 51
8.32565
  0
ARC
  5
1704
  8
0
 10
28.75
 20
132.25
 30
0.0
 40
114.5
 50
348.370165
 51
353.438504
  0
LINE
  5
1705
  8
2
 10
159.25
 20
140.0
 30
0.0
 11
132.25
 21
140.0
 31
0.0
  0
LINE
  5
1706
  8
2
 10
132.25
 20
140.0
 30
0.0
 11
132.25
 21
132.25
 31
0.0
  0
LINE
  5
170B
  8
2
 10
159.5
 20
138.5
 30
0.0
 11
158.5
 21
136.5
 31
0.0
  0
LINE
  5
170C
  8
2
 10
158.5
 20
136.5
 30
0.0
 11
134.75
 21
136.5
 31
0.0
  0
LINE
  5
170D
  8
2
 10
134.75
 20
136.5
 30
0.0
 11
133.25
 21
132.25
 31
0.0
  0
LINE
  5
170E
  8
2
 10
134.75
 20
136.5
 30
0.0
 11
134.75
 21
132.25
 31
0.0
  0
LINE
  5
170F
  8
2
 10
158.5
 20
136.5
 30
0.0
 11
158.5
 21
132.25
 31
0.0
  0
LINE
  5
1710
  8
2
 10
159.25
 20
138.0
 30
0.0
 11
139.25
 21
138.0
 31
0.0
  0
LINE
  5
1711
  8
2
 10
139.25
 20
137.25
 30
0.0
 11
139.25
 21
132.25
 31
0.0
  0
LINE
  5
1712
  8
2
 10
139.25
 20
138.0
 30
0.0
 11
138.0
 21
136.5
 31
0.0
  0
LINE
  5
1713
  8
2
 10
138.0
 20
136.5
 30
0.0
 11
138.0
 21
132.25
 31
0.0
  0
LINE
  5
1721
  8
0
 10
128.25
 20
160.5
 30
0.0
 11
137.5
 21
160.5
 31
0.0
  0
LINE
  5
1722
  8
0
 10
128.25
 20
144.75
 30
0.0
 11
137.75
 21
144.75
 31
0.0
  0
LINE
  5
1723
  8
0
 10
128.25
 20
138.0
 30
0.0
 11
137.75
 21
138.0
 31
0.0
  0
LINE
  5
1724
  8
0
 10
128.25
 20
111.5
 30
0.0
 11
137.75
 21
111.5
 31
0.0
  0
ARC
  5
1725
  8
0
 10
288.682721
 20
114.076357
 30
0.0
 40
36.080947
 50
141.554819
 51
182.445181
  0
ARC
  5
1726
  8
0
 10
176.817279
 20
114.076357
 30
0.0
 40
36.080947
 50
357.554819
 51
38.445181
  0
CIRCLE
  5
1727
  8
2
 10
232.75
 20
132.25
 30
0.0
 40
30.0
  0
LINE
  5
1728
  8
1
 10
232.75
 20
170.0
 30
0.0
 11
232.75
 21
94.25
 31
0.0
  0
ARC
  5
1729
  8
0
 10
218.154872
 20
112.16153
 30
0.0
 40
5.302809
 50
175.939532
 51
292.060468
  0
ARC
  5
172A
  8
0
 10
232.75
 20
73.438857
 30
0.0
 40
36.080947
 50
69.554819
 51
110.445181
  0
ARC
  5
172B
  8
0
 10
247.345128
 20
112.16153
 30
0.0
 40
5.302809
 50
247.939532
 51
4.060468
  0
ARC
  5
172C
  8
0
 10
198.181678
 20
179.829214
 30
0.0
 40
36.080947
 50
285.554819
 51
326.445181
  0
LINE
  5
172D
  8
1
 10
196.75
 20
132.25
 30
0.0
 11
270.0
 21
132.25
 31
0.0
  0
ARC
  5
172E
  8
0
 10
209.134587
 20
139.923113
 30
0.0
 40
5.302809
 50
103.939532
 51
220.060468
  0
ARC
  5
172F
  8
0
 10
256.365413
 20
139.923113
 30
0.0
 40
5.302809
 50
319.939532
 51
76.060468
  0
ARC
  5
1730
  8
0
 10
232.75
 20
157.080714
 30
0.0
 40
5.302809
 50
31.939532
 51
148.060468
  0
ARC
  5
1731
  8
0
 10
267.318322
 20
179.829214
 30
0.0
 40
36.080947
 50
213.554819
 51
254.445181
  0
CIRCLE
  5
1735
  8
0
 10
232.75
 20
132.25
 30
0.0
 40
13.5
  0
LINE
  5
1741
  8
2
 10
158.5
 20
128.0
 30
0.0
 11
134.75
 21
128.0
 31
0.0
  0
LINE
  5
1742
  8
2
 10
159.25
 20
126.5
 30
0.0
 11
139.25
 21
126.5
 31
0.0
  0
LINE
  5
1743
  8
2
 10
159.25
 20
124.5
 30
0.0
 11
132.25
 21
124.5
 31
0.0
  0
LINE
  5
1744
  8
2
 10
139.25
 20
126.5
 30
0.0
 11
138.0
 21
128.0
 31
0.0
  0
LINE
  5
1745
  8
2
 10
138.0
 20
128.0
 30
0.0
 11
138.0
 21
132.25
 31
0.0
  0
LINE
  5
1746
  8
2
 10
132.25
 20
124.5
 30
0.0
 11
132.25
 21
132.25
 31
0.0
  0
LINE
  5
1747
  8
2
 10
134.75
 20
128.0
 30
0.0
 11
134.75
 21
132.25
 31
0.0
  0
LINE
  5
1748
  8
2
 10
134.75
 20
128.0
 30
0.0
 11
133.25
 21
132.25
 31
0.0
  0
LINE
  5
1749
  8
2
 10
139.25
 20
127.25
 30
0.0
 11
139.25
 21
132.25
 31
0.0
  0
LINE
  5
174A
  8
2
 10
158.5
 20
128.0
 30
0.0
 11
158.5
 21
132.25
 31
0.0
  0
LINE
  5
174B
  8
0
 10
159.5
 20
132.25
 30
0.0
 11
159.5
 21
124.5
 31
0.0
  0
LINE
  5
174C
  8
2
 10
159.5
 20
126.0
 30
0.0
 11
158.5
 21
128.0
 31
0.0
  0
LINE
  5
174D
  8
0
 10
159.5
 20
124.5
 30
0.0
 11
159.25
 21
124.5
 31
0.0
  0
CIRCLE
  5
174E
  8
0
 10
232.75
 20
132.25
 30
0.0
 40
4.257347
  0
CIRCLE
  5
174F
  8
0
 10
232.75
 20
132.25
 30
0.0
 40
5.75
  0
CIRCLE
  5
1750
  8
0
 10
232.75
 20
132.25
 30
0.0
 40
7.75
  0
TEXT
  5
178F
  8
0
 10
213.0
 20
32.0
 30
0.0
 40
7.0
  1
ＢＴＫ－６０－Ｓ
 41
0.8
  0
TEXT
  5
1790
  8
0
 10
213.25
 20
2.6
 30
0.0
 40
7.0
  1
BTK0060S
 41
0.8
  0
VIEWPORT
  5
22
 67
     1
  8
0
 10
261.517699
 20
148.5
 30
0.0
 40
523.035398
 41
297.0
 68
    -1
 69
     1
1001
ACAD
1000
MVIEW
1002
{
1070
    16
1010
0.0
1020
0.0
1030
0.0
1010
0.0
1020
0.0
1030
1.0
1040
0.0
1040
297.0
1040
261.517699
1040
148.5
1040
50.0
1040
0.0
1040
0.0
1070
     0
1070
   100
1070
     1
1070
     1
1070
     0
1070
     0
1070
     0
1070
     0
1040
0.0
1040
0.0
1040
0.0
1040
1.0
1040
1.0
1040
10.0
1040
10.0
1070
     0
1002
{
1002
}
1002
}
  0
ENDSEC
  0
EOF
