  0
SECTION
  2
HEADER
  9
$ACADVER
  1
AC1014
  9
$ACADMAINTVER
 70
     0
  9
$DWGCODEPAGE
  3
ANSI_932
  9
$INSBASE
 10
0.0
 20
0.0
 30
0.0
  9
$EXTMIN
 10
3.5
 20
25.0
 30
0.0
  9
$EXTMAX
 10
140.25
 20
85.75
 30
0.0
  9
$LIMMIN
 10
0.0
 20
0.0
  9
$LIMMAX
 10
150.0
 20
100.0
  9
$ORTHOMODE
 70
     0
  9
$REGENMODE
 70
     1
  9
$FILLMODE
 70
     1
  9
$QTEXTMODE
 70
     0
  9
$MIRRTEXT
 70
     1
  9
$DRAGMODE
 70
     2
  9
$LTSCALE
 40
1.0
  9
$OSMODE
 70
     0
  9
$ATTMODE
 70
     1
  9
$TEXTSIZE
 40
7.0
  9
$TRACEWID
 40
1.0
  9
$TEXTSTYLE
  7
STANDARD
  9
$CLAYER
  8
0
  9
$CELTYPE
  6
BYLAYER
  9
$CECOLOR
 62
   256
  9
$CELTSCALE
 40
1.0
  9
$DELOBJ
 70
     1
  9
$DISPSILH
 70
     0
  9
$DIMSCALE
 40
1.0
  9
$DIMASZ
 40
2.5
  9
$DIMEXO
 40
0.625
  9
$DIMDLI
 40
3.75
  9
$DIMRND
 40
0.0
  9
$DIMDLE
 40
0.0
  9
$DIMEXE
 40
1.25
  9
$DIMTP
 40
0.0
  9
$DIMTM
 40
0.0
  9
$DIMTXT
 40
2.5
  9
$DIMCEN
 40
2.5
  9
$DIMTSZ
 40
0.0
  9
$DIMTOL
 70
     0
  9
$DIMLIM
 70
     0
  9
$DIMTIH
 70
     1
  9
$DIMTOH
 70
     0
  9
$DIMSE1
 70
     0
  9
$DIMSE2
 70
     0
  9
$DIMTAD
 70
     1
  9
$DIMZIN
 70
     8
  9
$DIMBLK
  1

  9
$DIMASO
 70
     1
  9
$DIMSHO
 70
     1
  9
$DIMPOST
  1

  9
$DIMAPOST
  1

  9
$DIMALT
 70
     0
  9
$DIMALTD
 70
     2
  9
$DIMALTF
 40
0.0394
  9
$DIMLFAC
 40
1.0
  9
$DIMTOFL
 70
     1
  9
$DIMTVP
 40
1.0
  9
$DIMTIX
 70
     0
  9
$DIMSOXD
 70
     0
  9
$DIMSAH
 70
     0
  9
$DIMBLK1
  1

  9
$DIMBLK2
  1

  9
$DIMSTYLE
  2
ISO-25
  9
$DIMCLRD
 70
     0
  9
$DIMCLRE
 70
     0
  9
$DIMCLRT
 70
     0
  9
$DIMTFAC
 40
1.0
  9
$DIMGAP
 40
0.625
  9
$DIMJUST
 70
     0
  9
$DIMSD1
 70
     0
  9
$DIMSD2
 70
     0
  9
$DIMTOLJ
 70
     1
  9
$DIMTZIN
 70
     8
  9
$DIMALTZ
 70
     8
  9
$DIMALTTZ
 70
     8
  9
$DIMFIT
 70
     5
  9
$DIMUPT
 70
     0
  9
$DIMUNIT
 70
     2
  9
$DIMDEC
 70
     4
  9
$DIMTDEC
 70
     4
  9
$DIMALTU
 70
     2
  9
$DIMALTTD
 70
     2
  9
$DIMTXSTY
  7
STANDARD
  9
$DIMAUNIT
 70
     0
  9
$LUNITS
 70
     2
  9
$LUPREC
 70
     4
  9
$SKETCHINC
 40
1.0
  9
$FILLETRAD
 40
2.0
  9
$AUNITS
 70
     0
  9
$AUPREC
 70
     0
  9
$MENU
  1
.
  9
$ELEVATION
 40
0.0
  9
$PELEVATION
 40
0.0
  9
$THICKNESS
 40
0.0
  9
$LIMCHECK
 70
     0
  9
$BLIPMODE
 70
     0
  9
$CHAMFERA
 40
0.5
  9
$CHAMFERB
 40
0.5
  9
$CHAMFERC
 40
0.0
  9
$CHAMFERD
 40
0.0
  9
$SKPOLY
 70
     0
  9
$TDCREATE
 40
2450870.936613426
  9
$TDUPDATE
 40
2450870.936613426
  9
$TDINDWG
 40
0.0000000000
  9
$TDUSRTIMER
 40
0.0000000000
  9
$USRTIMER
 70
     1
  9
$ANGBASE
 50
0.0
  9
$ANGDIR
 70
     0
  9
$PDMODE
 70
     0
  9
$PDSIZE
 40
0.0
  9
$PLINEWID
 40
0.0
  9
$COORDS
 70
     2
  9
$SPLFRAME
 70
     0
  9
$SPLINETYPE
 70
     6
  9
$SPLINESEGS
 70
     8
  9
$ATTDIA
 70
     0
  9
$ATTREQ
 70
     1
  9
$HANDLING
 70
     1
  9
$HANDSEED
  5
171A
  9
$SURFTAB1
 70
     6
  9
$SURFTAB2
 70
     6
  9
$SURFTYPE
 70
     6
  9
$SURFU
 70
     6
  9
$SURFV
 70
     6
  9
$UCSNAME
  2

  9
$UCSORG
 10
0.0
 20
0.0
 30
0.0
  9
$UCSXDIR
 10
1.0
 20
0.0
 30
0.0
  9
$UCSYDIR
 10
0.0
 20
1.0
 30
0.0
  9
$PUCSNAME
  2

  9
$PUCSORG
 10
0.0
 20
0.0
 30
0.0
  9
$PUCSXDIR
 10
1.0
 20
0.0
 30
0.0
  9
$PUCSYDIR
 10
0.0
 20
1.0
 30
0.0
  9
$USERI1
 70
     0
  9
$USERI2
 70
     0
  9
$USERI3
 70
     0
  9
$USERI4
 70
     0
  9
$USERI5
 70
     0
  9
$USERR1
 40
0.0
  9
$USERR2
 40
0.0
  9
$USERR3
 40
0.0
  9
$USERR4
 40
0.0
  9
$USERR5
 40
0.0
  9
$WORLDVIEW
 70
     1
  9
$SHADEDGE
 70
     3
  9
$SHADEDIF
 70
    70
  9
$TILEMODE
 70
     1
  9
$MAXACTVP
 70
    16
  9
$PINSBASE
 10
0.0
 20
0.0
 30
0.0
  9
$PLIMCHECK
 70
     0
  9
$PEXTMIN
 10
1.000000E+20
 20
1.000000E+20
 30
1.000000E+20
  9
$PEXTMAX
 10
-1.000000E+20
 20
-1.000000E+20
 30
-1.000000E+20
  9
$PLIMMIN
 10
0.0
 20
0.0
  9
$PLIMMAX
 10
420.0
 20
297.0
  9
$UNITMODE
 70
     0
  9
$VISRETAIN
 70
     0
  9
$PLINEGEN
 70
     0
  9
$PSLTSCALE
 70
     1
  9
$TREEDEPTH
 70
  3020
  9
$PICKSTYLE
 70
     1
  9
$CMLSTYLE
  2
STANDARD
  9
$CMLJUST
 70
     0
  9
$CMLSCALE
 40
1.0
  9
$PROXYGRAPHICS
 70
     1
  9
$MEASUREMENT
 70
     0
  0
ENDSEC
  0
SECTION
  2
CLASSES
  0
CLASS
  1
DICTIONARYVAR
  2
AcDbDictionaryVar
  3
"AutoCAD"
 90
        0
280
     0
281
     0
  0
ENDSEC
  0
SECTION
  2
TABLES
  0
TABLE
  2
VPORT
  5
16ED
100
AcDbSymbolTable
 70
     1
  0
VPORT
  5
1703
100
AcDbSymbolTableRecord
100
AcDbViewportTableRecord
  2
*ACTIVE
 70
     0
 10
0.0
 20
0.0
 11
1.0
 21
1.0
 12
88.681102
 22
50.0
 13
0.0
 23
0.0
 14
5.0
 24
5.0
 15
10.0
 25
10.0
 16
0.0
 26
0.0
 36
1.0
 17
0.0
 27
0.0
 37
0.0
 40
100.0
 41
1.773622
 42
50.0
 43
0.0
 44
0.0
 50
0.0
 51
0.0
 71
     0
 72
 20000
 73
     1
 74
     1
 75
     1
 76
     1
 77
     0
 78
     0
  0
ENDTAB
  0
TABLE
  2
LTYPE
  5
16EA
100
AcDbSymbolTable
 70
     3
  0
LTYPE
  5
16F6
100
AcDbSymbolTableRecord
100
AcDbLinetypeTableRecord
  2
BYBLOCK
 70
     0
  3

 72
    65
 73
     0
 40
0.0
  0
LTYPE
  5
16F7
100
AcDbSymbolTableRecord
100
AcDbLinetypeTableRecord
  2
BYLAYER
 70
     0
  3

 72
    65
 73
     0
 40
0.0
  0
LTYPE
  5
16F8
100
AcDbSymbolTableRecord
100
AcDbLinetypeTableRecord
  2
CONTINUOUS
 70
     0
  3
Solid line
 72
    65
 73
     0
 40
0.0
  0
LTYPE
  5
1701
100
AcDbSymbolTableRecord
100
AcDbLinetypeTableRecord
  2
TENSEN
 70
     0
  3

 72
    65
 73
     2
 40
2.5
 49
1.5
 74
     0
 49
-1.0
 74
     0
  0
LTYPE
  5
1702
100
AcDbSymbolTableRecord
100
AcDbLinetypeTableRecord
  2
ITTEN
 70
     0
  3

 72
    65
 73
     4
 40
3.6
 49
2.0
 74
     0
 49
-0.5
 74
     0
 49
0.6
 74
     0
 49
-0.5
 74
     0
  0
ENDTAB
  0
TABLE
  2
LAYER
  5
16E7
100
AcDbSymbolTable
 70
     4
  0
LAYER
  5
16F3
100
AcDbSymbolTableRecord
100
AcDbLayerTableRecord
  2
0
 70
     0
 62
     7
  6
CONTINUOUS
  0
LAYER
  5
170E
100
AcDbSymbolTableRecord
100
AcDbLayerTableRecord
  2
2
 70
     0
 62
     2
  6
TENSEN
  0
LAYER
  5
170F
100
AcDbSymbolTableRecord
100
AcDbLayerTableRecord
  2
1
 70
     0
 62
     1
  6
ITTEN
  0
LAYER
  5
1710
100
AcDbSymbolTableRecord
100
AcDbLayerTableRecord
  2
3
 70
     0
 62
     3
  6
CONTINUOUS
  0
ENDTAB
  0
TABLE
  2
STYLE
  5
16E8
100
AcDbSymbolTable
 70
     1
  0
STYLE
  5
16F4
100
AcDbSymbolTableRecord
100
AcDbTextStyleTableRecord
  2
STANDARD
 70
     0
 40
7.0
 41
0.8
 50
0.0
 71
     0
 42
7.0
  3
ISOCP
  4
bigfont.shx
  0
ENDTAB
  0
TABLE
  2
VIEW
  5
16EB
100
AcDbSymbolTable
 70
     0
  0
ENDTAB
  0
TABLE
  2
UCS
  5
16EC
100
AcDbSymbolTable
 70
     0
  0
ENDTAB
  0
TABLE
  2
APPID
  5
16EE
100
AcDbSymbolTable
 70
     1
  0
APPID
  5
16F5
100
AcDbSymbolTableRecord
100
AcDbRegAppTableRecord
  2
ACAD
 70
     0
  0
ENDTAB
  0
TABLE
  2
DIMSTYLE
  5
16EF
100
AcDbSymbolTable
 70
     8
  0
DIMSTYLE
105
1704
100
AcDbSymbolTableRecord
100
AcDbDimStyleTableRecord
  2
STANDARD
 70
     0
  3

  4

  5

  6

  7

 40
1.0
 41
0.18
 42
0.0625
 43
0.38
 44
0.18
 45
0.0
 46
0.0
 47
0.0
 48
0.0
140
0.18
141
0.09
142
0.0
143
25.4
144
1.0
145
0.0
146
1.0
147
0.09
 71
     0
 72
     0
 73
     1
 74
     1
 75
     0
 76
     0
 77
     0
 78
     0
170
     0
171
     2
172
     0
173
     0
174
     0
175
     0
176
     0
177
     0
178
     0
270
     2
271
     4
272
     4
273
     2
274
     2
340
16F4
275
     0
280
     0
281
     0
282
     0
283
     1
284
     8
285
     8
286
     8
287
     5
288
     0
  0
DIMSTYLE
105
1705
100
AcDbSymbolTableRecord
100
AcDbDimStyleTableRecord
  2
ISO-25
 70
     0
  3

  4

  5

  6

  7

 40
1.0
 41
2.5
 42
0.625
 43
3.75
 44
1.25
 45
0.0
 46
0.0
 47
0.0
 48
0.0
140
2.5
141
2.5
142
0.0
143
0.0394
144
1.0
145
1.0
146
1.0
147
0.625
 71
     0
 72
     0
 73
     1
 74
     0
 75
     0
 76
     0
 77
     1
 78
     8
170
     0
171
     2
172
     1
173
     0
174
     0
175
     0
176
     0
177
     0
178
     0
270
     2
271
     4
272
     4
273
     2
274
     2
340
16F4
275
     0
280
     0
281
     0
282
     0
283
     1
284
     8
285
     8
286
     8
287
     5
288
     0
  0
DIMSTYLE
105
1706
100
AcDbSymbolTableRecord
100
AcDbDimStyleTableRecord
  2
ISO-35
 70
     0
  3

  4

  5

  6

  7

 40
1.0
 41
3.5
 42
0.875
 43
5.25
 44
1.75
 45
0.0
 46
0.0
 47
0.0
 48
0.0
140
3.5
141
3.5
142
0.0
143
0.0394
144
1.0
145
1.4
146
1.0
147
0.875
 71
     0
 72
     0
 73
     1
 74
     0
 75
     0
 76
     0
 77
     1
 78
     8
170
     0
171
     2
172
     1
173
     0
174
     0
175
     0
176
     0
177
     0
178
     0
270
     2
271
     4
272
     4
273
     2
274
     2
340
16F4
275
     0
280
     0
281
     0
282
     0
283
     1
284
     8
285
     8
286
     8
287
     5
288
     0
  0
DIMSTYLE
105
1707
100
AcDbSymbolTableRecord
100
AcDbDimStyleTableRecord
  2
ISO-5
 70
     0
  3

  4

  5

  6

  7

 40
1.0
 41
5.0
 42
1.25
 43
7.5
 44
2.5
 45
0.0
 46
0.0
 47
0.0
 48
0.0
140
5.0
141
5.0
142
0.0
143
0.0394
144
1.0
145
2.0
146
1.0
147
1.25
 71
     0
 72
     0
 73
     1
 74
     0
 75
     0
 76
     0
 77
     1
 78
     8
170
     0
171
     2
172
     1
173
     0
174
     0
175
     0
176
     0
177
     0
178
     0
270
     2
271
     4
272
     4
273
     2
274
     2
340
16F4
275
     0
280
     0
281
     0
282
     0
283
     1
284
     8
285
     8
286
     8
287
     5
288
     0
  0
DIMSTYLE
105
1708
100
AcDbSymbolTableRecord
100
AcDbDimStyleTableRecord
  2
ISO-7
 70
     0
  3

  4

  5

  6

  7

 40
1.0
 41
7.0
 42
1.75
 43
10.5
 44
3.5
 45
0.0
 46
0.0
 47
0.0
 48
0.0
140
7.0
141
7.0
142
0.0
143
0.0394
144
1.0
145
2.8
146
1.0
147
1.75
 71
     0
 72
     0
 73
     1
 74
     0
 75
     0
 76
     0
 77
     1
 78
     8
170
     0
171
     2
172
     1
173
     0
174
     0
175
     0
176
     0
177
     0
178
     0
270
     2
271
     4
272
     4
273
     2
274
     2
340
16F4
275
     0
280
     0
281
     0
282
     0
283
     1
284
     8
285
     8
286
     8
287
     5
288
     0
  0
DIMSTYLE
105
1709
100
AcDbSymbolTableRecord
100
AcDbDimStyleTableRecord
  2
ISO1
 70
     0
  3

  4

  5

  6

  7

 40
1.0
 41
10.0
 42
2.5
 43
15.0
 44
5.0
 45
0.0
 46
0.0
 47
0.0
 48
0.0
140
10.0
141
10.0
142
0.0
143
0.0394
144
1.0
145
4.0
146
1.0
147
2.5
 71
     0
 72
     0
 73
     1
 74
     0
 75
     0
 76
     0
 77
     1
 78
     8
170
     0
171
     2
172
     1
173
     0
174
     0
175
     0
176
     0
177
     0
178
     0
270
     2
271
     4
272
     4
273
     2
274
     2
340
16F4
275
     0
280
     0
281
     0
282
     0
283
     1
284
     8
285
     8
286
     8
287
     5
288
     0
  0
DIMSTYLE
105
170A
100
AcDbSymbolTableRecord
100
AcDbDimStyleTableRecord
  2
ISO1-4
 70
     0
  3

  4

  5

  6

  7

 40
1.0
 41
14.0
 42
3.5
 43
21.0
 44
7.0
 45
0.0
 46
0.0
 47
0.0
 48
0.0
140
14.0
141
14.0
142
0.0
143
0.0394
144
1.0
145
5.6
146
1.0
147
3.5
 71
     0
 72
     0
 73
     1
 74
     0
 75
     0
 76
     0
 77
     1
 78
     8
170
     0
171
     2
172
     1
173
     0
174
     0
175
     0
176
     0
177
     0
178
     0
270
     2
271
     4
272
     4
273
     2
274
     2
340
16F4
275
     0
280
     0
281
     0
282
     0
283
     1
284
     8
285
     8
286
     8
287
     5
288
     0
  0
DIMSTYLE
105
170B
100
AcDbSymbolTableRecord
100
AcDbDimStyleTableRecord
  2
ISO2
 70
     0
  3

  4

  5

  6

  7

 40
1.0
 41
20.0
 42
5.0
 43
30.0
 44
10.0
 45
0.0
 46
0.0
 47
0.0
 48
0.0
140
20.0
141
20.0
142
0.0
143
0.0394
144
1.0
145
8.0
146
1.0
147
5.0
 71
     0
 72
     0
 73
     1
 74
     0
 75
     0
 76
     0
 77
     1
 78
     8
170
     0
171
     2
172
     1
173
     0
174
     0
175
     0
176
     0
177
     0
178
     0
270
     2
271
     4
272
     4
273
     2
274
     2
340
16F4
275
     0
280
     0
281
     0
282
     0
283
     1
284
     8
285
     8
286
     8
287
     5
288
     0
  0
ENDTAB
  0
TABLE
  2
BLOCK_RECORD
  5
16E6
100
AcDbSymbolTable
 70
     0
  0
BLOCK_RECORD
  5
16FC
100
AcDbSymbolTableRecord
100
AcDbBlockTableRecord
  2
*MODEL_SPACE
  0
BLOCK_RECORD
  5
16F9
100
AcDbSymbolTableRecord
100
AcDbBlockTableRecord
  2
*PAPER_SPACE
  0
ENDTAB
  0
ENDSEC
  0
SECTION
  2
BLOCKS
  0
BLOCK
  5
1713
100
AcDbEntity
  8
0
100
AcDbBlockBegin
  2
*MODEL_SPACE
 70
     0
 10
0.0
 20
0.0
 30
0.0
  3
*MODEL_SPACE
  1

  0
ENDBLK
  5
1714
100
AcDbEntity
  8
0
100
AcDbBlockEnd
  0
BLOCK
  5
1711
100
AcDbEntity
 67
     1
  8
0
100
AcDbBlockBegin
  2
*PAPER_SPACE
 70
     0
 10
0.0
 20
0.0
 30
0.0
  3
*PAPER_SPACE
  1

  0
ENDBLK
  5
1712
100
AcDbEntity
 67
     1
  8
0
100
AcDbBlockEnd
  0
ENDSEC
  0
SECTION
  2
ENTITIES
  0
LINE
  5
161E
100
AcDbEntity
  8
1
100
AcDbLine
 10
3.5
 20
55.0
 30
0.0
 11
66.0
 21
55.0
 31
0.0
  0
LINE
  5
161F
100
AcDbEntity
  8
1
100
AcDbLine
 10
35.0
 20
85.75
 30
0.0
 11
35.0
 21
25.0
 31
0.0
  0
LINE
  5
1620
100
AcDbEntity
  8
1
100
AcDbLine
 10
93.75
 20
55.0
 30
0.0
 11
140.25
 21
55.0
 31
0.0
  0
CIRCLE
  5
1621
100
AcDbEntity
  8
2
100
AcDbCircle
 10
35.0
 20
55.0
 30
0.0
 40
25.0
  0
ARC
  5
162F
100
AcDbEntity
  8
0
100
AcDbCircle
 10
35.0
 20
75.421216
 30
0.0
 40
4.578784
100
AcDbArc
 50
29.120951
 51
150.879049
  0
ARC
  5
1630
100
AcDbEntity
  8
0
100
AcDbCircle
 10
62.059635
 20
92.244393
 30
0.0
 40
27.290247
100
AcDbArc
 50
212.330511
 51
255.669489
  0
ARC
  5
1631
100
AcDbEntity
  8
0
100
AcDbCircle
 10
15.57827
 20
61.310503
 30
0.0
 40
4.578784
100
AcDbArc
 50
101.120951
 51
222.879049
  0
ARC
  5
1632
100
AcDbEntity
  8
0
100
AcDbCircle
 10
7.940365
 20
92.244393
 30
0.0
 40
27.290247
100
AcDbArc
 50
284.330511
 51
327.669489
  0
ARC
  5
1633
100
AcDbEntity
  8
0
100
AcDbCircle
 10
22.996711
 20
38.478889
 30
0.0
 40
4.578784
100
AcDbArc
 50
173.120951
 51
294.879049
  0
ARC
  5
1634
100
AcDbEntity
  8
0
100
AcDbCircle
 10
-8.78341
 20
40.773908
 30
0.0
 40
27.290247
100
AcDbArc
 50
356.330511
 51
39.669489
  0
ARC
  5
1635
100
AcDbEntity
  8
0
100
AcDbCircle
 10
47.003289
 20
38.478889
 30
0.0
 40
4.578784
100
AcDbArc
 50
245.120951
 51
6.879049
  0
ARC
  5
1636
100
AcDbEntity
  8
0
100
AcDbCircle
 10
35.0
 20
8.963399
 30
0.0
 40
27.290247
100
AcDbArc
 50
68.330511
 51
111.669489
  0
ARC
  5
1637
100
AcDbEntity
  8
0
100
AcDbCircle
 10
54.42173
 20
61.310503
 30
0.0
 40
4.578784
100
AcDbArc
 50
317.120951
 51
78.879049
  0
ARC
  5
1638
100
AcDbEntity
  8
0
100
AcDbCircle
 10
78.78341
 20
40.773908
 30
0.0
 40
27.290247
100
AcDbArc
 50
140.330511
 51
183.669489
  0
LINE
  5
163A
100
AcDbEntity
  8
0
100
AcDbLine
 10
104.5
 20
80.0
 30
0.0
 11
115.5
 21
80.0
 31
0.0
  0
LINE
  5
1640
100
AcDbEntity
  8
0
100
AcDbLine
 10
133.0
 20
55.0
 30
0.0
 11
133.0
 21
61.0
 31
0.0
  0
LINE
  5
1641
100
AcDbEntity
  8
0
100
AcDbLine
 10
133.0
 20
61.0
 30
0.0
 11
133.0
 21
60.75
 31
0.0
  0
LINE
  5
1642
100
AcDbEntity
  8
0
100
AcDbLine
 10
132.75
 20
55.0
 30
0.0
 11
132.75
 21
67.0
 31
0.0
  0
LINE
  5
1643
100
AcDbEntity
  8
0
100
AcDbLine
 10
132.25
 20
67.5
 30
0.0
 11
118.901897
 21
67.5
 31
0.0
  0
LINE
  5
1644
100
AcDbEntity
  8
0
100
AcDbLine
 10
132.25
 20
67.5
 30
0.0
 11
132.75
 21
67.0
 31
0.0
  0
ARC
  5
1647
100
AcDbEntity
  8
0
100
AcDbCircle
 10
171.694444
 20
55.0
 30
0.0
 40
71.694444
100
AcDbArc
 50
159.592053
 51
195.185056
  0
ARC
  5
1649
100
AcDbEntity
  8
0
100
AcDbCircle
 10
121.5
 20
79.25
 30
0.0
 40
17.016536
100
AcDbArc
 50
177.473883
 51
190.154267
  0
ARC
  5
164A
100
AcDbEntity
  8
0
100
AcDbCircle
 10
92.625
 20
75.125
 30
0.0
 40
12.177079
100
AcDbArc
 50
342.681062
 51
5.300927
  0
ARC
  5
164B
100
AcDbEntity
  8
0
100
AcDbCircle
 10
112.390957
 20
69.31117
 30
0.0
 40
8.430075
100
AcDbArc
 50
164.95098
 51
204.988501
  0
ARC
  5
164C
100
AcDbEntity
  8
0
100
AcDbCircle
 10
91.935606
 20
63.132576
 30
0.0
 40
13.078976
100
AcDbArc
 50
343.874537
 51
11.544243
  0
ARC
  5
164D
100
AcDbEntity
  8
0
100
AcDbCircle
 10
211.4375
 20
49.0
 30
0.0
 40
107.451752
100
AcDbArc
 50
174.392206
 51
185.607794
  0
ARC
  5
164E
100
AcDbEntity
  8
0
100
AcDbCircle
 10
95.0
 20
36.25
 30
0.0
 40
9.762812
100
AcDbArc
 50
346.675469
 51
13.324531
  0
ARC
  5
164F
100
AcDbEntity
  8
0
100
AcDbCircle
 10
101.035714
 20
32.892857
 30
0.0
 40
3.6369
100
AcDbArc
 50
17.723237
 51
66.202505
  0
LINE
  5
1650
100
AcDbEntity
  8
0
100
AcDbLine
 10
104.5
 20
34.0
 30
0.0
 11
115.5
 21
34.0
 31
0.0
  0
ARC
  5
1651
100
AcDbEntity
  8
0
100
AcDbCircle
 10
48.305556
 20
55.0
 30
0.0
 40
71.694444
100
AcDbArc
 50
344.814944
 51
20.407947
  0
ARC
  5
1652
100
AcDbEntity
  8
0
100
AcDbCircle
 10
128.064394
 20
63.132576
 30
0.0
 40
13.078976
100
AcDbArc
 50
168.455757
 51
196.125463
  0
ARC
  5
1653
100
AcDbEntity
  8
0
100
AcDbCircle
 10
8.5625
 20
49.0
 30
0.0
 40
107.451752
100
AcDbArc
 50
354.392206
 51
5.607794
  0
ARC
  5
1654
100
AcDbEntity
  8
0
100
AcDbCircle
 10
118.964286
 20
32.892857
 30
0.0
 40
3.6369
100
AcDbArc
 50
113.797495
 51
162.276763
  0
ARC
  5
1655
100
AcDbEntity
  8
0
100
AcDbCircle
 10
125.0
 20
36.25
 30
0.0
 40
9.762812
100
AcDbArc
 50
166.675469
 51
193.324531
  0
ARC
  5
1656
100
AcDbEntity
  8
0
100
AcDbCircle
 10
127.375
 20
75.125
 30
0.0
 40
12.177079
100
AcDbArc
 50
174.699073
 51
197.318938
  0
ARC
  5
1657
100
AcDbEntity
  8
0
100
AcDbCircle
 10
107.609043
 20
69.31117
 30
0.0
 40
8.430075
100
AcDbArc
 50
335.011499
 51
15.04902
  0
ARC
  5
1658
100
AcDbEntity
  8
0
100
AcDbCircle
 10
98.5
 20
79.25
 30
0.0
 40
17.016536
100
AcDbArc
 50
349.845733
 51
2.526117
  0
LINE
  5
1659
100
AcDbEntity
  8
0
100
AcDbLine
 10
132.75
 20
55.0
 30
0.0
 11
132.75
 21
43.0
 31
0.0
  0
LINE
  5
165C
100
AcDbEntity
  8
0
100
AcDbLine
 10
132.25
 20
42.5
 30
0.0
 11
118.901897
 21
42.5
 31
0.0
  0
LINE
  5
165D
100
AcDbEntity
  8
0
100
AcDbLine
 10
132.25
 20
42.5
 30
0.0
 11
132.75
 21
43.0
 31
0.0
  0
LINE
  5
165E
100
AcDbEntity
  8
0
100
AcDbLine
 10
133.0
 20
61.0
 30
0.0
 11
132.75
 21
61.0
 31
0.0
  0
LINE
  5
1660
100
AcDbEntity
  8
2
100
AcDbLine
 10
132.75
 20
61.0
 30
0.0
 11
109.5
 21
61.0
 31
0.0
  0
LINE
  5
1661
100
AcDbEntity
  8
2
100
AcDbLine
 10
132.75
 20
60.0
 30
0.0
 11
116.0
 21
60.0
 31
0.0
  0
LINE
  5
1662
100
AcDbEntity
  8
2
100
AcDbLine
 10
132.25
 20
59.25
 30
0.0
 11
111.75
 21
59.25
 31
0.0
  0
LINE
  5
1666
100
AcDbEntity
  8
2
100
AcDbLine
 10
109.5
 20
61.0
 30
0.0
 11
109.5
 21
55.0
 31
0.0
  0
LINE
  5
1667
100
AcDbEntity
  8
2
100
AcDbLine
 10
116.0
 20
60.0
 30
0.0
 11
115.5
 21
59.25
 31
0.0
  0
LINE
  5
1669
100
AcDbEntity
  8
2
100
AcDbLine
 10
111.75
 20
59.25
 30
0.0
 11
110.75
 21
55.0
 31
0.0
  0
LINE
  5
166F
100
AcDbEntity
  8
2
100
AcDbLine
 10
111.75
 20
59.25
 30
0.0
 11
111.75
 21
55.0
 31
0.0
  0
LINE
  5
1670
100
AcDbEntity
  8
2
100
AcDbLine
 10
115.5
 20
59.25
 30
0.0
 11
115.5
 21
55.0
 31
0.0
  0
LINE
  5
1671
100
AcDbEntity
  8
2
100
AcDbLine
 10
133.0
 20
60.5
 30
0.0
 11
132.25
 21
59.25
 31
0.0
  0
LINE
  5
1674
100
AcDbEntity
  8
2
100
AcDbLine
 10
132.25
 20
59.25
 30
0.0
 11
132.25
 21
55.0
 31
0.0
  0
LINE
  5
1675
100
AcDbEntity
  8
0
100
AcDbLine
 10
106.25
 20
77.75
 30
0.0
 11
113.75
 21
77.75
 31
0.0
  0
LINE
  5
1676
100
AcDbEntity
  8
0
100
AcDbLine
 10
106.25
 20
65.75
 30
0.0
 11
113.75
 21
65.75
 31
0.0
  0
LINE
  5
1677
100
AcDbEntity
  8
0
100
AcDbLine
 10
106.25
 20
58.75
 30
0.0
 11
113.75
 21
58.75
 31
0.0
  0
LINE
  5
1678
100
AcDbEntity
  8
0
100
AcDbLine
 10
106.25
 20
38.5
 30
0.0
 11
113.75
 21
38.5
 31
0.0
  0
LINE
  5
168E
100
AcDbEntity
  8
2
100
AcDbLine
 10
116.0
 20
60.0
 30
0.0
 11
116.0
 21
55.0
 31
0.0
  0
LINE
  5
168F
100
AcDbEntity
  8
2
100
AcDbLine
 10
132.75
 20
49.0
 30
0.0
 11
109.5
 21
49.0
 31
0.0
  0
LINE
  5
1690
100
AcDbEntity
  8
2
100
AcDbLine
 10
132.25
 20
50.75
 30
0.0
 11
111.75
 21
50.75
 31
0.0
  0
LINE
  5
1691
100
AcDbEntity
  8
2
100
AcDbLine
 10
132.75
 20
50.0
 30
0.0
 11
116.0
 21
50.0
 31
0.0
  0
LINE
  5
1692
100
AcDbEntity
  8
2
100
AcDbLine
 10
109.5
 20
49.0
 30
0.0
 11
109.5
 21
55.0
 31
0.0
  0
LINE
  5
1693
100
AcDbEntity
  8
2
100
AcDbLine
 10
111.75
 20
50.75
 30
0.0
 11
110.75
 21
55.0
 31
0.0
  0
LINE
  5
1694
100
AcDbEntity
  8
2
100
AcDbLine
 10
111.75
 20
50.75
 30
0.0
 11
111.75
 21
55.0
 31
0.0
  0
LINE
  5
1695
100
AcDbEntity
  8
2
100
AcDbLine
 10
116.0
 20
50.0
 30
0.0
 11
116.0
 21
55.0
 31
0.0
  0
LINE
  5
1696
100
AcDbEntity
  8
2
100
AcDbLine
 10
115.5
 20
50.75
 30
0.0
 11
115.5
 21
55.0
 31
0.0
  0
LINE
  5
1697
100
AcDbEntity
  8
2
100
AcDbLine
 10
116.0
 20
50.0
 30
0.0
 11
115.5
 21
50.75
 31
0.0
  0
LINE
  5
1698
100
AcDbEntity
  8
2
100
AcDbLine
 10
132.25
 20
50.75
 30
0.0
 11
132.25
 21
55.0
 31
0.0
  0
LINE
  5
1699
100
AcDbEntity
  8
0
100
AcDbLine
 10
133.0
 20
55.0
 30
0.0
 11
133.0
 21
49.0
 31
0.0
  0
LINE
  5
169A
100
AcDbEntity
  8
0
100
AcDbLine
 10
133.0
 20
49.0
 30
0.0
 11
133.0
 21
49.25
 31
0.0
  0
LINE
  5
169B
100
AcDbEntity
  8
0
100
AcDbLine
 10
133.0
 20
49.0
 30
0.0
 11
132.75
 21
49.0
 31
0.0
  0
LINE
  5
169C
100
AcDbEntity
  8
2
100
AcDbLine
 10
133.0
 20
49.5
 30
0.0
 11
132.25
 21
50.75
 31
0.0
  0
VIEWPORT
  5
22
100
AcDbEntity
 67
     1
  8
0
100
AcDbViewport
 10
261.517699
 20
148.5
 30
0.0
 40
523.035398
 41
297.0
 68
    -1
 69
     1
1001
ACAD
1000
MVIEW
1002
{
1070
    16
1010
0.0
1020
0.0
1030
0.0
1010
0.0
1020
0.0
1030
1.0
1040
0.0
1040
297.0
1040
261.517699
1040
148.5
1040
50.0
1040
0.0
1040
0.0
1070
     0
1070
   100
1070
     1
1070
     1
1070
     0
1070
     0
1070
     0
1070
     0
1040
0.0
1040
0.0
1040
0.0
1040
1.0
1040
1.0
1040
10.0
1040
10.0
1070
     0
1002
{
1002
}
1002
}
  0
ENDSEC
  0
SECTION
  2
OBJECTS
  0
DICTIONARY
  5
16F1
100
AcDbDictionary
  3
ACAD_GROUP
350
16F2
  3
ACAD_MLINESTYLE
350
16FF
  3
ACDBVARIABLEDICTIONARY
350
1715
  0
DICTIONARY
  5
16F2
102
{ACAD_REACTORS
330
16F1
102
}
100
AcDbDictionary
  0
DICTIONARY
  5
16FF
102
{ACAD_REACTORS
330
16F1
102
}
100
AcDbDictionary
  3
STANDARD
350
1700
  0
DICTIONARY
  5
1715
102
{ACAD_REACTORS
330
16F1
102
}
100
AcDbDictionary
  3
DIMADEC
350
1716
  0
MLINESTYLE
  5
1700
102
{ACAD_REACTORS
330
16FF
102
}
100
AcDbMlineStyle
  2
STANDARD
 70
     0
  3

 62
   256
 51
90.0
 52
90.0
 71
     2
 49
0.5
 62
   256
  6
BYLAYER
 49
-0.5
 62
   256
  6
BYLAYER
  0
DICTIONARYVAR
  5
1716
102
{ACAD_REACTORS
330
1715
102
}
100
DictionaryVariables
280
     0
  1
0
  0
ENDSEC
  0
EOF
