  0
SECTION
  2
HEADER
  9
$ACADVER
  1
AC1014
  9
$ACADMAINTVER
 70
     0
  9
$DWGCODEPAGE
  3
ANSI_932
  9
$INSBASE
 10
0.0
 20
0.0
 30
0.0
  9
$EXTMIN
 10
18.25
 20
32.75
 30
0.0
  9
$EXTMAX
 10
128.25
 20
77.0
 30
0.0
  9
$LIMMIN
 10
0.0
 20
0.0
  9
$LIMMAX
 10
150.0
 20
100.0
  9
$ORTHOMODE
 70
     0
  9
$REGENMODE
 70
     1
  9
$FILLMODE
 70
     1
  9
$QTEXTMODE
 70
     0
  9
$MIRRTEXT
 70
     1
  9
$DRAGMODE
 70
     2
  9
$LTSCALE
 40
1.0
  9
$OSMODE
 70
     0
  9
$ATTMODE
 70
     1
  9
$TEXTSIZE
 40
7.0
  9
$TRACEWID
 40
1.0
  9
$TEXTSTYLE
  7
STANDARD
  9
$CLAYER
  8
0
  9
$CELTYPE
  6
BYLAYER
  9
$CECOLOR
 62
   256
  9
$CELTSCALE
 40
1.0
  9
$DELOBJ
 70
     1
  9
$DISPSILH
 70
     0
  9
$DIMSCALE
 40
1.0
  9
$DIMASZ
 40
2.5
  9
$DIMEXO
 40
0.625
  9
$DIMDLI
 40
3.75
  9
$DIMRND
 40
0.0
  9
$DIMDLE
 40
0.0
  9
$DIMEXE
 40
1.25
  9
$DIMTP
 40
0.0
  9
$DIMTM
 40
0.0
  9
$DIMTXT
 40
2.5
  9
$DIMCEN
 40
2.5
  9
$DIMTSZ
 40
0.0
  9
$DIMTOL
 70
     0
  9
$DIMLIM
 70
     0
  9
$DIMTIH
 70
     1
  9
$DIMTOH
 70
     0
  9
$DIMSE1
 70
     0
  9
$DIMSE2
 70
     0
  9
$DIMTAD
 70
     1
  9
$DIMZIN
 70
     8
  9
$DIMBLK
  1

  9
$DIMASO
 70
     1
  9
$DIMSHO
 70
     1
  9
$DIMPOST
  1

  9
$DIMAPOST
  1

  9
$DIMALT
 70
     0
  9
$DIMALTD
 70
     2
  9
$DIMALTF
 40
0.0394
  9
$DIMLFAC
 40
1.0
  9
$DIMTOFL
 70
     1
  9
$DIMTVP
 40
1.0
  9
$DIMTIX
 70
     0
  9
$DIMSOXD
 70
     0
  9
$DIMSAH
 70
     0
  9
$DIMBLK1
  1

  9
$DIMBLK2
  1

  9
$DIMSTYLE
  2
ISO-25
  9
$DIMCLRD
 70
     0
  9
$DIMCLRE
 70
     0
  9
$DIMCLRT
 70
     0
  9
$DIMTFAC
 40
1.0
  9
$DIMGAP
 40
0.625
  9
$DIMJUST
 70
     0
  9
$DIMSD1
 70
     0
  9
$DIMSD2
 70
     0
  9
$DIMTOLJ
 70
     1
  9
$DIMTZIN
 70
     8
  9
$DIMALTZ
 70
     8
  9
$DIMALTTZ
 70
     8
  9
$DIMFIT
 70
     5
  9
$DIMUPT
 70
     0
  9
$DIMUNIT
 70
     2
  9
$DIMDEC
 70
     4
  9
$DIMTDEC
 70
     4
  9
$DIMALTU
 70
     2
  9
$DIMALTTD
 70
     2
  9
$DIMTXSTY
  7
STANDARD
  9
$DIMAUNIT
 70
     0
  9
$LUNITS
 70
     2
  9
$LUPREC
 70
     4
  9
$SKETCHINC
 40
1.0
  9
$FILLETRAD
 40
2.0
  9
$AUNITS
 70
     0
  9
$AUPREC
 70
     0
  9
$MENU
  1
.
  9
$ELEVATION
 40
0.0
  9
$PELEVATION
 40
0.0
  9
$THICKNESS
 40
0.0
  9
$LIMCHECK
 70
     0
  9
$BLIPMODE
 70
     0
  9
$CHAMFERA
 40
0.5
  9
$CHAMFERB
 40
0.5
  9
$CHAMFERC
 40
0.0
  9
$CHAMFERD
 40
0.0
  9
$SKPOLY
 70
     0
  9
$TDCREATE
 40
2450870.936089351
  9
$TDUPDATE
 40
2450870.936089351
  9
$TDINDWG
 40
0.0000000000
  9
$TDUSRTIMER
 40
0.0000000000
  9
$USRTIMER
 70
     1
  9
$ANGBASE
 50
0.0
  9
$ANGDIR
 70
     0
  9
$PDMODE
 70
     0
  9
$PDSIZE
 40
0.0
  9
$PLINEWID
 40
0.0
  9
$COORDS
 70
     2
  9
$SPLFRAME
 70
     0
  9
$SPLINETYPE
 70
     6
  9
$SPLINESEGS
 70
     8
  9
$ATTDIA
 70
     0
  9
$ATTREQ
 70
     1
  9
$HANDLING
 70
     1
  9
$HANDSEED
  5
168D
  9
$SURFTAB1
 70
     6
  9
$SURFTAB2
 70
     6
  9
$SURFTYPE
 70
     6
  9
$SURFU
 70
     6
  9
$SURFV
 70
     6
  9
$UCSNAME
  2

  9
$UCSORG
 10
0.0
 20
0.0
 30
0.0
  9
$UCSXDIR
 10
1.0
 20
0.0
 30
0.0
  9
$UCSYDIR
 10
0.0
 20
1.0
 30
0.0
  9
$PUCSNAME
  2

  9
$PUCSORG
 10
0.0
 20
0.0
 30
0.0
  9
$PUCSXDIR
 10
1.0
 20
0.0
 30
0.0
  9
$PUCSYDIR
 10
0.0
 20
1.0
 30
0.0
  9
$USERI1
 70
     0
  9
$USERI2
 70
     0
  9
$USERI3
 70
     0
  9
$USERI4
 70
     0
  9
$USERI5
 70
     0
  9
$USERR1
 40
0.0
  9
$USERR2
 40
0.0
  9
$USERR3
 40
0.0
  9
$USERR4
 40
0.0
  9
$USERR5
 40
0.0
  9
$WORLDVIEW
 70
     1
  9
$SHADEDGE
 70
     3
  9
$SHADEDIF
 70
    70
  9
$TILEMODE
 70
     1
  9
$MAXACTVP
 70
    16
  9
$PINSBASE
 10
0.0
 20
0.0
 30
0.0
  9
$PLIMCHECK
 70
     0
  9
$PEXTMIN
 10
1.000000E+20
 20
1.000000E+20
 30
1.000000E+20
  9
$PEXTMAX
 10
-1.000000E+20
 20
-1.000000E+20
 30
-1.000000E+20
  9
$PLIMMIN
 10
0.0
 20
0.0
  9
$PLIMMAX
 10
420.0
 20
297.0
  9
$UNITMODE
 70
     0
  9
$VISRETAIN
 70
     0
  9
$PLINEGEN
 70
     0
  9
$PSLTSCALE
 70
     1
  9
$TREEDEPTH
 70
  3020
  9
$PICKSTYLE
 70
     1
  9
$CMLSTYLE
  2
STANDARD
  9
$CMLJUST
 70
     0
  9
$CMLSCALE
 40
1.0
  9
$PROXYGRAPHICS
 70
     1
  9
$MEASUREMENT
 70
     0
  0
ENDSEC
  0
SECTION
  2
CLASSES
  0
CLASS
  1
DICTIONARYVAR
  2
AcDbDictionaryVar
  3
"AutoCAD"
 90
        0
280
     0
281
     0
  0
ENDSEC
  0
SECTION
  2
TABLES
  0
TABLE
  2
VPORT
  5
1660
100
AcDbSymbolTable
 70
     1
  0
VPORT
  5
1676
100
AcDbSymbolTableRecord
100
AcDbViewportTableRecord
  2
*ACTIVE
 70
     0
 10
0.0
 20
0.0
 11
1.0
 21
1.0
 12
88.681102
 22
50.0
 13
0.0
 23
0.0
 14
5.0
 24
5.0
 15
10.0
 25
10.0
 16
0.0
 26
0.0
 36
1.0
 17
0.0
 27
0.0
 37
0.0
 40
100.0
 41
1.773622
 42
50.0
 43
0.0
 44
0.0
 50
0.0
 51
0.0
 71
     0
 72
 20000
 73
     1
 74
     1
 75
     1
 76
     1
 77
     0
 78
     0
  0
ENDTAB
  0
TABLE
  2
LTYPE
  5
165D
100
AcDbSymbolTable
 70
     3
  0
LTYPE
  5
1669
100
AcDbSymbolTableRecord
100
AcDbLinetypeTableRecord
  2
BYBLOCK
 70
     0
  3

 72
    65
 73
     0
 40
0.0
  0
LTYPE
  5
166A
100
AcDbSymbolTableRecord
100
AcDbLinetypeTableRecord
  2
BYLAYER
 70
     0
  3

 72
    65
 73
     0
 40
0.0
  0
LTYPE
  5
166B
100
AcDbSymbolTableRecord
100
AcDbLinetypeTableRecord
  2
CONTINUOUS
 70
     0
  3
Solid line
 72
    65
 73
     0
 40
0.0
  0
LTYPE
  5
1674
100
AcDbSymbolTableRecord
100
AcDbLinetypeTableRecord
  2
TENSEN
 70
     0
  3

 72
    65
 73
     2
 40
2.5
 49
1.5
 74
     0
 49
-1.0
 74
     0
  0
LTYPE
  5
1675
100
AcDbSymbolTableRecord
100
AcDbLinetypeTableRecord
  2
ITTEN
 70
     0
  3

 72
    65
 73
     4
 40
3.6
 49
2.0
 74
     0
 49
-0.5
 74
     0
 49
0.6
 74
     0
 49
-0.5
 74
     0
  0
ENDTAB
  0
TABLE
  2
LAYER
  5
165A
100
AcDbSymbolTable
 70
     4
  0
LAYER
  5
1666
100
AcDbSymbolTableRecord
100
AcDbLayerTableRecord
  2
0
 70
     0
 62
     7
  6
CONTINUOUS
  0
LAYER
  5
1681
100
AcDbSymbolTableRecord
100
AcDbLayerTableRecord
  2
2
 70
     0
 62
     2
  6
TENSEN
  0
LAYER
  5
1682
100
AcDbSymbolTableRecord
100
AcDbLayerTableRecord
  2
1
 70
     0
 62
     1
  6
ITTEN
  0
LAYER
  5
1683
100
AcDbSymbolTableRecord
100
AcDbLayerTableRecord
  2
3
 70
     0
 62
     3
  6
CONTINUOUS
  0
ENDTAB
  0
TABLE
  2
STYLE
  5
165B
100
AcDbSymbolTable
 70
     1
  0
STYLE
  5
1667
100
AcDbSymbolTableRecord
100
AcDbTextStyleTableRecord
  2
STANDARD
 70
     0
 40
7.0
 41
0.8
 50
0.0
 71
     0
 42
7.0
  3
ISOCP
  4
bigfont.shx
  0
ENDTAB
  0
TABLE
  2
VIEW
  5
165E
100
AcDbSymbolTable
 70
     0
  0
ENDTAB
  0
TABLE
  2
UCS
  5
165F
100
AcDbSymbolTable
 70
     0
  0
ENDTAB
  0
TABLE
  2
APPID
  5
1661
100
AcDbSymbolTable
 70
     1
  0
APPID
  5
1668
100
AcDbSymbolTableRecord
100
AcDbRegAppTableRecord
  2
ACAD
 70
     0
  0
ENDTAB
  0
TABLE
  2
DIMSTYLE
  5
1662
100
AcDbSymbolTable
 70
     8
  0
DIMSTYLE
105
1677
100
AcDbSymbolTableRecord
100
AcDbDimStyleTableRecord
  2
STANDARD
 70
     0
  3

  4

  5

  6

  7

 40
1.0
 41
0.18
 42
0.0625
 43
0.38
 44
0.18
 45
0.0
 46
0.0
 47
0.0
 48
0.0
140
0.18
141
0.09
142
0.0
143
25.4
144
1.0
145
0.0
146
1.0
147
0.09
 71
     0
 72
     0
 73
     1
 74
     1
 75
     0
 76
     0
 77
     0
 78
     0
170
     0
171
     2
172
     0
173
     0
174
     0
175
     0
176
     0
177
     0
178
     0
270
     2
271
     4
272
     4
273
     2
274
     2
340
1667
275
     0
280
     0
281
     0
282
     0
283
     1
284
     8
285
     8
286
     8
287
     5
288
     0
  0
DIMSTYLE
105
1678
100
AcDbSymbolTableRecord
100
AcDbDimStyleTableRecord
  2
ISO-25
 70
     0
  3

  4

  5

  6

  7

 40
1.0
 41
2.5
 42
0.625
 43
3.75
 44
1.25
 45
0.0
 46
0.0
 47
0.0
 48
0.0
140
2.5
141
2.5
142
0.0
143
0.0394
144
1.0
145
1.0
146
1.0
147
0.625
 71
     0
 72
     0
 73
     1
 74
     0
 75
     0
 76
     0
 77
     1
 78
     8
170
     0
171
     2
172
     1
173
     0
174
     0
175
     0
176
     0
177
     0
178
     0
270
     2
271
     4
272
     4
273
     2
274
     2
340
1667
275
     0
280
     0
281
     0
282
     0
283
     1
284
     8
285
     8
286
     8
287
     5
288
     0
  0
DIMSTYLE
105
1679
100
AcDbSymbolTableRecord
100
AcDbDimStyleTableRecord
  2
ISO-35
 70
     0
  3

  4

  5

  6

  7

 40
1.0
 41
3.5
 42
0.875
 43
5.25
 44
1.75
 45
0.0
 46
0.0
 47
0.0
 48
0.0
140
3.5
141
3.5
142
0.0
143
0.0394
144
1.0
145
1.4
146
1.0
147
0.875
 71
     0
 72
     0
 73
     1
 74
     0
 75
     0
 76
     0
 77
     1
 78
     8
170
     0
171
     2
172
     1
173
     0
174
     0
175
     0
176
     0
177
     0
178
     0
270
     2
271
     4
272
     4
273
     2
274
     2
340
1667
275
     0
280
     0
281
     0
282
     0
283
     1
284
     8
285
     8
286
     8
287
     5
288
     0
  0
DIMSTYLE
105
167A
100
AcDbSymbolTableRecord
100
AcDbDimStyleTableRecord
  2
ISO-5
 70
     0
  3

  4

  5

  6

  7

 40
1.0
 41
5.0
 42
1.25
 43
7.5
 44
2.5
 45
0.0
 46
0.0
 47
0.0
 48
0.0
140
5.0
141
5.0
142
0.0
143
0.0394
144
1.0
145
2.0
146
1.0
147
1.25
 71
     0
 72
     0
 73
     1
 74
     0
 75
     0
 76
     0
 77
     1
 78
     8
170
     0
171
     2
172
     1
173
     0
174
     0
175
     0
176
     0
177
     0
178
     0
270
     2
271
     4
272
     4
273
     2
274
     2
340
1667
275
     0
280
     0
281
     0
282
     0
283
     1
284
     8
285
     8
286
     8
287
     5
288
     0
  0
DIMSTYLE
105
167B
100
AcDbSymbolTableRecord
100
AcDbDimStyleTableRecord
  2
ISO-7
 70
     0
  3

  4

  5

  6

  7

 40
1.0
 41
7.0
 42
1.75
 43
10.5
 44
3.5
 45
0.0
 46
0.0
 47
0.0
 48
0.0
140
7.0
141
7.0
142
0.0
143
0.0394
144
1.0
145
2.8
146
1.0
147
1.75
 71
     0
 72
     0
 73
     1
 74
     0
 75
     0
 76
     0
 77
     1
 78
     8
170
     0
171
     2
172
     1
173
     0
174
     0
175
     0
176
     0
177
     0
178
     0
270
     2
271
     4
272
     4
273
     2
274
     2
340
1667
275
     0
280
     0
281
     0
282
     0
283
     1
284
     8
285
     8
286
     8
287
     5
288
     0
  0
DIMSTYLE
105
167C
100
AcDbSymbolTableRecord
100
AcDbDimStyleTableRecord
  2
ISO1
 70
     0
  3

  4

  5

  6

  7

 40
1.0
 41
10.0
 42
2.5
 43
15.0
 44
5.0
 45
0.0
 46
0.0
 47
0.0
 48
0.0
140
10.0
141
10.0
142
0.0
143
0.0394
144
1.0
145
4.0
146
1.0
147
2.5
 71
     0
 72
     0
 73
     1
 74
     0
 75
     0
 76
     0
 77
     1
 78
     8
170
     0
171
     2
172
     1
173
     0
174
     0
175
     0
176
     0
177
     0
178
     0
270
     2
271
     4
272
     4
273
     2
274
     2
340
1667
275
     0
280
     0
281
     0
282
     0
283
     1
284
     8
285
     8
286
     8
287
     5
288
     0
  0
DIMSTYLE
105
167D
100
AcDbSymbolTableRecord
100
AcDbDimStyleTableRecord
  2
ISO1-4
 70
     0
  3

  4

  5

  6

  7

 40
1.0
 41
14.0
 42
3.5
 43
21.0
 44
7.0
 45
0.0
 46
0.0
 47
0.0
 48
0.0
140
14.0
141
14.0
142
0.0
143
0.0394
144
1.0
145
5.6
146
1.0
147
3.5
 71
     0
 72
     0
 73
     1
 74
     0
 75
     0
 76
     0
 77
     1
 78
     8
170
     0
171
     2
172
     1
173
     0
174
     0
175
     0
176
     0
177
     0
178
     0
270
     2
271
     4
272
     4
273
     2
274
     2
340
1667
275
     0
280
     0
281
     0
282
     0
283
     1
284
     8
285
     8
286
     8
287
     5
288
     0
  0
DIMSTYLE
105
167E
100
AcDbSymbolTableRecord
100
AcDbDimStyleTableRecord
  2
ISO2
 70
     0
  3

  4

  5

  6

  7

 40
1.0
 41
20.0
 42
5.0
 43
30.0
 44
10.0
 45
0.0
 46
0.0
 47
0.0
 48
0.0
140
20.0
141
20.0
142
0.0
143
0.0394
144
1.0
145
8.0
146
1.0
147
5.0
 71
     0
 72
     0
 73
     1
 74
     0
 75
     0
 76
     0
 77
     1
 78
     8
170
     0
171
     2
172
     1
173
     0
174
     0
175
     0
176
     0
177
     0
178
     0
270
     2
271
     4
272
     4
273
     2
274
     2
340
1667
275
     0
280
     0
281
     0
282
     0
283
     1
284
     8
285
     8
286
     8
287
     5
288
     0
  0
ENDTAB
  0
TABLE
  2
BLOCK_RECORD
  5
1659
100
AcDbSymbolTable
 70
     0
  0
BLOCK_RECORD
  5
166F
100
AcDbSymbolTableRecord
100
AcDbBlockTableRecord
  2
*MODEL_SPACE
  0
BLOCK_RECORD
  5
166C
100
AcDbSymbolTableRecord
100
AcDbBlockTableRecord
  2
*PAPER_SPACE
  0
ENDTAB
  0
ENDSEC
  0
SECTION
  2
BLOCKS
  0
BLOCK
  5
1686
100
AcDbEntity
  8
0
100
AcDbBlockBegin
  2
*MODEL_SPACE
 70
     0
 10
0.0
 20
0.0
 30
0.0
  3
*MODEL_SPACE
  1

  0
ENDBLK
  5
1687
100
AcDbEntity
  8
0
100
AcDbBlockEnd
  0
BLOCK
  5
1684
100
AcDbEntity
 67
     1
  8
0
100
AcDbBlockBegin
  2
*PAPER_SPACE
 70
     0
 10
0.0
 20
0.0
 30
0.0
  3
*PAPER_SPACE
  1

  0
ENDBLK
  5
1685
100
AcDbEntity
 67
     1
  8
0
100
AcDbBlockEnd
  0
ENDSEC
  0
SECTION
  2
ENTITIES
  0
LINE
  5
158E
100
AcDbEntity
  8
1
100
AcDbLine
 10
18.25
 20
55.0
 30
0.0
 11
62.25
 21
55.0
 31
0.0
  0
LINE
  5
158F
100
AcDbEntity
  8
1
100
AcDbLine
 10
40.0
 20
32.75
 30
0.0
 11
40.0
 21
77.0
 31
0.0
  0
CIRCLE
  5
1590
100
AcDbEntity
  8
2
100
AcDbCircle
 10
40.0
 20
54.75
 30
0.0
 40
20.0
  0
ARC
  5
159D
100
AcDbEntity
  8
0
100
AcDbCircle
 10
40.0
 20
71.095677
 30
0.0
 40
3.654323
100
AcDbArc
 50
16.71053
 51
163.28947
  0
ARC
  5
159E
100
AcDbEntity
  8
0
100
AcDbCircle
 10
59.922013
 20
82.420298
 30
0.0
 40
19.370981
100
AcDbArc
 50
212.030746
 51
255.969254
  0
ARC
  5
159F
100
AcDbEntity
  8
0
100
AcDbCircle
 10
24.692102
 20
59.973838
 30
0.0
 40
3.654323
100
AcDbArc
 50
88.71053
 51
235.28947
  0
ARC
  5
15A0
100
AcDbEntity
  8
0
100
AcDbCircle
 10
20.077987
 20
82.420298
 30
0.0
 40
19.370981
100
AcDbArc
 50
284.030746
 51
327.969254
  0
ARC
  5
15A1
100
AcDbEntity
  8
0
100
AcDbCircle
 10
30.539199
 20
41.978324
 30
0.0
 40
3.654323
100
AcDbArc
 50
160.71053
 51
307.28947
  0
ARC
  5
15A2
100
AcDbEntity
  8
0
100
AcDbCircle
 10
7.765507
 20
44.526378
 30
0.0
 40
19.370981
100
AcDbArc
 50
356.030746
 51
39.969254
  0
ARC
  5
15A3
100
AcDbEntity
  8
0
100
AcDbCircle
 10
49.460801
 20
41.978324
 30
0.0
 40
3.654323
100
AcDbArc
 50
232.71053
 51
19.28947
  0
ARC
  5
15A4
100
AcDbEntity
  8
0
100
AcDbCircle
 10
40.0
 20
21.106648
 30
0.0
 40
19.370981
100
AcDbArc
 50
68.030746
 51
111.969254
  0
ARC
  5
15A5
100
AcDbEntity
  8
0
100
AcDbCircle
 10
55.307898
 20
59.973838
 30
0.0
 40
3.654323
100
AcDbArc
 50
304.71053
 51
91.28947
  0
ARC
  5
15A6
100
AcDbEntity
  8
0
100
AcDbCircle
 10
72.234493
 20
44.526378
 30
0.0
 40
19.370981
100
AcDbArc
 50
140.030746
 51
183.969254
  0
LINE
  5
15AA
100
AcDbEntity
  8
1
100
AcDbLine
 10
91.0
 20
55.0
 30
0.0
 11
128.25
 21
55.0
 31
0.0
  0
LINE
  5
15AC
100
AcDbEntity
  8
0
100
AcDbLine
 10
98.75
 20
75.0
 30
0.0
 11
108.5
 21
75.0
 31
0.0
  0
LINE
  5
15B2
100
AcDbEntity
  8
0
100
AcDbLine
 10
122.75
 20
55.0
 30
0.0
 11
122.75
 21
60.0
 31
0.0
  0
LINE
  5
15B3
100
AcDbEntity
  8
0
100
AcDbLine
 10
122.75
 20
60.0
 30
0.0
 11
122.5
 21
60.0
 31
0.0
  0
LINE
  5
15B4
100
AcDbEntity
  8
0
100
AcDbLine
 10
122.5
 20
55.0
 30
0.0
 11
122.5
 21
65.0
 31
0.0
  0
LINE
  5
15B5
100
AcDbEntity
  8
0
100
AcDbLine
 10
122.0
 20
65.5
 30
0.0
 11
110.686466
 21
65.5
 31
0.0
  0
LINE
  5
15B6
100
AcDbEntity
  8
0
100
AcDbLine
 10
110.75
 20
55.0
 30
0.0
 11
110.75
 21
65.5
 31
0.0
  0
ARC
  5
15BD
100
AcDbEntity
  8
0
100
AcDbCircle
 10
163.916667
 20
55.0
 30
0.0
 40
68.166667
100
AcDbArc
 50
162.938469
 51
192.315568
  0
ARC
  5
15BE
100
AcDbEntity
  8
0
100
AcDbCircle
 10
43.333333
 20
55.0
 30
0.0
 40
68.166667
100
AcDbArc
 50
347.684432
 51
351.492906
  0
ARC
  5
15BF
100
AcDbEntity
  8
0
100
AcDbCircle
 10
103.375
 20
74.375
 30
0.0
 40
4.667039
100
AcDbArc
 50
172.303948
 51
200.376435
  0
ARC
  5
15C0
100
AcDbEntity
  8
0
100
AcDbCircle
 10
91.625
 20
70.75
 30
0.0
 40
7.641376
100
AcDbArc
 50
344.827085
 51
15.172915
  0
ARC
  5
15C1
100
AcDbEntity
  8
0
100
AcDbCircle
 10
107.077381
 20
65.184524
 30
0.0
 40
8.829309
100
AcDbArc
 50
156.182623
 51
199.412181
  0
ARC
  5
15C2
100
AcDbEntity
  8
0
100
AcDbCircle
 10
87.334677
 20
59.576613
 30
0.0
 40
11.724188
100
AcDbArc
 50
342.238062
 51
13.180718
  0
ARC
  5
15C3
100
AcDbEntity
  8
0
100
AcDbCircle
 10
170.594512
 20
49.990854
 30
0.0
 40
72.344513
100
AcDbArc
 50
175.235356
 51
186.740165
  0
ARC
  5
15C4
100
AcDbEntity
  8
0
100
AcDbCircle
 10
93.625
 20
39.875
 30
0.0
 40
5.376453
100
AcDbArc
 50
342.407575
 51
17.592425
  0
ARC
  5
15C5
100
AcDbEntity
  8
0
100
AcDbCircle
 10
152.5
 20
74.625
 30
0.0
 40
64.901488
100
AcDbArc
 50
211.763082
 51
214.087948
  0
LINE
  5
15C6
100
AcDbEntity
  8
0
100
AcDbLine
 10
98.75
 20
38.25
 30
0.0
 11
108.5
 21
38.25
 31
0.0
  0
ARC
  5
15C7
100
AcDbEntity
  8
0
100
AcDbCircle
 10
54.75
 20
74.625
 30
0.0
 40
64.901488
100
AcDbArc
 50
325.912052
 51
328.236918
  0
ARC
  5
15C8
100
AcDbEntity
  8
0
100
AcDbCircle
 10
103.875
 20
74.375
 30
0.0
 40
4.667039
100
AcDbArc
 50
339.623565
 51
7.696052
  0
ARC
  5
15C9
100
AcDbEntity
  8
0
100
AcDbCircle
 10
115.625
 20
70.75
 30
0.0
 40
7.641376
100
AcDbArc
 50
164.827085
 51
195.172915
  0
ARC
  5
15CA
100
AcDbEntity
  8
0
100
AcDbCircle
 10
100.172619
 20
65.184524
 30
0.0
 40
8.829309
100
AcDbArc
 50
340.587819
 51
23.817377
  0
ARC
  5
15CB
100
AcDbEntity
  8
0
100
AcDbCircle
 10
119.915323
 20
59.576613
 30
0.0
 40
11.724188
100
AcDbArc
 50
166.819282
 51
197.761938
  0
ARC
  5
15CC
100
AcDbEntity
  8
0
100
AcDbCircle
 10
36.655488
 20
49.990854
 30
0.0
 40
72.344513
100
AcDbArc
 50
353.259835
 51
4.764644
  0
ARC
  5
15CD
100
AcDbEntity
  8
0
100
AcDbCircle
 10
113.625
 20
39.875
 30
0.0
 40
5.376453
100
AcDbArc
 50
162.407575
 51
197.592425
  0
LINE
  5
15CE
100
AcDbEntity
  8
0
100
AcDbLine
 10
122.0
 20
44.5
 30
0.0
 11
110.686466
 21
44.5
 31
0.0
  0
LINE
  5
15CF
100
AcDbEntity
  8
0
100
AcDbLine
 10
110.75
 20
55.0
 30
0.0
 11
110.75
 21
44.5
 31
0.0
  0
LINE
  5
15D0
100
AcDbEntity
  8
0
100
AcDbLine
 10
122.5
 20
55.0
 30
0.0
 11
122.5
 21
45.0
 31
0.0
  0
ARC
  5
15D3
100
AcDbEntity
  8
0
100
AcDbCircle
 10
43.333333
 20
55.0
 30
0.0
 40
68.166667
100
AcDbArc
 50
8.507094
 51
17.061531
  0
LINE
  5
15D4
100
AcDbEntity
  8
0
100
AcDbLine
 10
100.0
 20
73.0
 30
0.0
 11
107.5
 21
73.0
 31
0.0
  0
LINE
  5
15D5
100
AcDbEntity
  8
0
100
AcDbLine
 10
100.0
 20
63.5
 30
0.0
 11
107.5
 21
63.5
 31
0.0
  0
LINE
  5
15D6
100
AcDbEntity
  8
0
100
AcDbLine
 10
100.0
 20
57.5
 30
0.0
 11
107.5
 21
57.5
 31
0.0
  0
LINE
  5
15D7
100
AcDbEntity
  8
0
100
AcDbLine
 10
100.0
 20
41.5
 30
0.0
 11
107.5
 21
41.5
 31
0.0
  0
LINE
  5
15D8
100
AcDbEntity
  8
2
100
AcDbLine
 10
122.75
 20
59.5
 30
0.0
 11
122.0
 21
58.25
 31
0.0
  0
LINE
  5
15D9
100
AcDbEntity
  8
2
100
AcDbLine
 10
122.0
 20
58.25
 30
0.0
 11
122.0
 21
55.0
 31
0.0
  0
LINE
  5
15DA
100
AcDbEntity
  8
2
100
AcDbLine
 10
122.5
 20
59.0
 30
0.0
 11
109.75
 21
59.0
 31
0.0
  0
LINE
  5
15DB
100
AcDbEntity
  8
2
100
AcDbLine
 10
109.75
 20
59.0
 30
0.0
 11
109.25
 21
58.25
 31
0.0
  0
LINE
  5
15DC
100
AcDbEntity
  8
2
100
AcDbLine
 10
109.25
 20
58.25
 30
0.0
 11
109.25
 21
55.0
 31
0.0
  0
LINE
  5
15DD
100
AcDbEntity
  8
2
100
AcDbLine
 10
122.0
 20
58.25
 30
0.0
 11
107.5
 21
58.25
 31
0.0
  0
LINE
  5
15DE
100
AcDbEntity
  8
2
100
AcDbLine
 10
107.5
 20
58.25
 30
0.0
 11
107.5
 21
55.0
 31
0.0
  0
LINE
  5
15DF
100
AcDbEntity
  8
2
100
AcDbLine
 10
107.5
 20
58.25
 30
0.0
 11
106.5
 21
55.0
 31
0.0
  0
LINE
  5
15E0
100
AcDbEntity
  8
2
100
AcDbLine
 10
122.5
 20
60.0
 30
0.0
 11
105.25
 21
60.0
 31
0.0
  0
LINE
  5
15E1
100
AcDbEntity
  8
2
100
AcDbLine
 10
105.25
 20
60.0
 30
0.0
 11
105.25
 21
55.0
 31
0.0
  0
LINE
  5
15FF
100
AcDbEntity
  8
0
100
AcDbLine
 10
122.0
 20
65.5
 30
0.0
 11
122.5
 21
65.0
 31
0.0
  0
LINE
  5
1600
100
AcDbEntity
  8
0
100
AcDbLine
 10
122.5
 20
45.0
 30
0.0
 11
122.0
 21
44.5
 31
0.0
  0
LINE
  5
1605
100
AcDbEntity
  8
2
100
AcDbLine
 10
122.0
 20
51.75
 30
0.0
 11
107.5
 21
51.75
 31
0.0
  0
LINE
  5
1606
100
AcDbEntity
  8
2
100
AcDbLine
 10
122.5
 20
51.0
 30
0.0
 11
109.75
 21
51.0
 31
0.0
  0
LINE
  5
1607
100
AcDbEntity
  8
2
100
AcDbLine
 10
122.5
 20
50.0
 30
0.0
 11
105.25
 21
50.0
 31
0.0
  0
LINE
  5
1608
100
AcDbEntity
  8
2
100
AcDbLine
 10
109.75
 20
51.0
 30
0.0
 11
109.25
 21
51.75
 31
0.0
  0
LINE
  5
1609
100
AcDbEntity
  8
2
100
AcDbLine
 10
105.25
 20
50.0
 30
0.0
 11
105.25
 21
55.0
 31
0.0
  0
LINE
  5
160A
100
AcDbEntity
  8
2
100
AcDbLine
 10
107.5
 20
51.75
 30
0.0
 11
106.5
 21
55.0
 31
0.0
  0
LINE
  5
160B
100
AcDbEntity
  8
2
100
AcDbLine
 10
109.25
 20
51.75
 30
0.0
 11
109.25
 21
55.0
 31
0.0
  0
LINE
  5
160C
100
AcDbEntity
  8
2
100
AcDbLine
 10
107.5
 20
51.75
 30
0.0
 11
107.5
 21
55.0
 31
0.0
  0
LINE
  5
160D
100
AcDbEntity
  8
0
100
AcDbLine
 10
122.75
 20
55.0
 30
0.0
 11
122.75
 21
50.0
 31
0.0
  0
LINE
  5
160E
100
AcDbEntity
  8
2
100
AcDbLine
 10
122.75
 20
50.5
 30
0.0
 11
122.0
 21
51.75
 31
0.0
  0
LINE
  5
160F
100
AcDbEntity
  8
2
100
AcDbLine
 10
122.0
 20
51.75
 30
0.0
 11
122.0
 21
55.0
 31
0.0
  0
LINE
  5
1610
100
AcDbEntity
  8
0
100
AcDbLine
 10
122.75
 20
50.0
 30
0.0
 11
122.5
 21
50.0
 31
0.0
  0
LINE
  5
1611
100
AcDbEntity
  8
2
100
AcDbLine
 10
109.75
 20
59.0
 30
0.0
 11
109.75
 21
51.0
 31
0.0
  0
VIEWPORT
  5
22
100
AcDbEntity
 67
     1
  8
0
100
AcDbViewport
 10
261.517699
 20
148.5
 30
0.0
 40
523.035398
 41
297.0
 68
    -1
 69
     1
1001
ACAD
1000
MVIEW
1002
{
1070
    16
1010
0.0
1020
0.0
1030
0.0
1010
0.0
1020
0.0
1030
1.0
1040
0.0
1040
297.0
1040
261.517699
1040
148.5
1040
50.0
1040
0.0
1040
0.0
1070
     0
1070
   100
1070
     1
1070
     1
1070
     0
1070
     0
1070
     0
1070
     0
1040
0.0
1040
0.0
1040
0.0
1040
1.0
1040
1.0
1040
10.0
1040
10.0
1070
     0
1002
{
1002
}
1002
}
  0
ENDSEC
  0
SECTION
  2
OBJECTS
  0
DICTIONARY
  5
1664
100
AcDbDictionary
  3
ACAD_GROUP
350
1665
  3
ACAD_MLINESTYLE
350
1672
  3
ACDBVARIABLEDICTIONARY
350
1688
  0
DICTIONARY
  5
1665
102
{ACAD_REACTORS
330
1664
102
}
100
AcDbDictionary
  0
DICTIONARY
  5
1672
102
{ACAD_REACTORS
330
1664
102
}
100
AcDbDictionary
  3
STANDARD
350
1673
  0
DICTIONARY
  5
1688
102
{ACAD_REACTORS
330
1664
102
}
100
AcDbDictionary
  3
DIMADEC
350
1689
  0
MLINESTYLE
  5
1673
102
{ACAD_REACTORS
330
1672
102
}
100
AcDbMlineStyle
  2
STANDARD
 70
     0
  3

 62
   256
 51
90.0
 52
90.0
 71
     2
 49
0.5
 62
   256
  6
BYLAYER
 49
-0.5
 62
   256
  6
BYLAYER
  0
DICTIONARYVAR
  5
1689
102
{ACAD_REACTORS
330
1688
102
}
100
DictionaryVariables
280
     0
  1
0
  0
ENDSEC
  0
EOF
