  0
SECTION
  2
HEADER
  9
$ACADVER
  1
AC1014
  9
$ACADMAINTVER
 70
     0
  9
$DWGCODEPAGE
  3
ANSI_932
  9
$INSBASE
 10
0.0
 20
0.0
 30
0.0
  9
$EXTMIN
 10
19.25
 20
34.0
 30
0.0
  9
$EXTMAX
 10
126.0
 20
76.25
 30
0.0
  9
$LIMMIN
 10
0.0
 20
0.0
  9
$LIMMAX
 10
150.0
 20
100.0
  9
$ORTHOMODE
 70
     0
  9
$REGENMODE
 70
     1
  9
$FILLMODE
 70
     1
  9
$QTEXTMODE
 70
     0
  9
$MIRRTEXT
 70
     1
  9
$DRAGMODE
 70
     2
  9
$LTSCALE
 40
1.0
  9
$OSMODE
 70
     0
  9
$ATTMODE
 70
     1
  9
$TEXTSIZE
 40
7.0
  9
$TRACEWID
 40
1.0
  9
$TEXTSTYLE
  7
STANDARD
  9
$CLAYER
  8
0
  9
$CELTYPE
  6
BYLAYER
  9
$CECOLOR
 62
   256
  9
$CELTSCALE
 40
1.0
  9
$DELOBJ
 70
     1
  9
$DISPSILH
 70
     0
  9
$DIMSCALE
 40
1.0
  9
$DIMASZ
 40
2.5
  9
$DIMEXO
 40
0.625
  9
$DIMDLI
 40
3.75
  9
$DIMRND
 40
0.0
  9
$DIMDLE
 40
0.0
  9
$DIMEXE
 40
1.25
  9
$DIMTP
 40
0.0
  9
$DIMTM
 40
0.0
  9
$DIMTXT
 40
2.5
  9
$DIMCEN
 40
2.5
  9
$DIMTSZ
 40
0.0
  9
$DIMTOL
 70
     0
  9
$DIMLIM
 70
     0
  9
$DIMTIH
 70
     1
  9
$DIMTOH
 70
     0
  9
$DIMSE1
 70
     0
  9
$DIMSE2
 70
     0
  9
$DIMTAD
 70
     1
  9
$DIMZIN
 70
     8
  9
$DIMBLK
  1

  9
$DIMASO
 70
     1
  9
$DIMSHO
 70
     1
  9
$DIMPOST
  1

  9
$DIMAPOST
  1

  9
$DIMALT
 70
     0
  9
$DIMALTD
 70
     2
  9
$DIMALTF
 40
0.0394
  9
$DIMLFAC
 40
1.0
  9
$DIMTOFL
 70
     1
  9
$DIMTVP
 40
1.0
  9
$DIMTIX
 70
     0
  9
$DIMSOXD
 70
     0
  9
$DIMSAH
 70
     0
  9
$DIMBLK1
  1

  9
$DIMBLK2
  1

  9
$DIMSTYLE
  2
ISO-25
  9
$DIMCLRD
 70
     0
  9
$DIMCLRE
 70
     0
  9
$DIMCLRT
 70
     0
  9
$DIMTFAC
 40
1.0
  9
$DIMGAP
 40
0.625
  9
$DIMJUST
 70
     0
  9
$DIMSD1
 70
     0
  9
$DIMSD2
 70
     0
  9
$DIMTOLJ
 70
     1
  9
$DIMTZIN
 70
     8
  9
$DIMALTZ
 70
     8
  9
$DIMALTTZ
 70
     8
  9
$DIMFIT
 70
     5
  9
$DIMUPT
 70
     0
  9
$DIMUNIT
 70
     2
  9
$DIMDEC
 70
     4
  9
$DIMTDEC
 70
     4
  9
$DIMALTU
 70
     2
  9
$DIMALTTD
 70
     2
  9
$DIMTXSTY
  7
STANDARD
  9
$DIMAUNIT
 70
     0
  9
$LUNITS
 70
     2
  9
$LUPREC
 70
     4
  9
$SKETCHINC
 40
1.0
  9
$FILLETRAD
 40
2.0
  9
$AUNITS
 70
     0
  9
$AUPREC
 70
     0
  9
$MENU
  1
.
  9
$ELEVATION
 40
0.0
  9
$PELEVATION
 40
0.0
  9
$THICKNESS
 40
0.0
  9
$LIMCHECK
 70
     0
  9
$BLIPMODE
 70
     0
  9
$CHAMFERA
 40
0.5
  9
$CHAMFERB
 40
0.5
  9
$CHAMFERC
 40
0.0
  9
$CHAMFERD
 40
0.0
  9
$SKPOLY
 70
     0
  9
$TDCREATE
 40
2450870.935328703
  9
$TDUPDATE
 40
2450870.935328703
  9
$TDINDWG
 40
0.0000000000
  9
$TDUSRTIMER
 40
0.0000000000
  9
$USRTIMER
 70
     1
  9
$ANGBASE
 50
0.0
  9
$ANGDIR
 70
     0
  9
$PDMODE
 70
     0
  9
$PDSIZE
 40
0.0
  9
$PLINEWID
 40
0.0
  9
$COORDS
 70
     2
  9
$SPLFRAME
 70
     0
  9
$SPLINETYPE
 70
     6
  9
$SPLINESEGS
 70
     8
  9
$ATTDIA
 70
     0
  9
$ATTREQ
 70
     1
  9
$HANDLING
 70
     1
  9
$HANDSEED
  5
161B
  9
$SURFTAB1
 70
     6
  9
$SURFTAB2
 70
     6
  9
$SURFTYPE
 70
     6
  9
$SURFU
 70
     6
  9
$SURFV
 70
     6
  9
$UCSNAME
  2

  9
$UCSORG
 10
0.0
 20
0.0
 30
0.0
  9
$UCSXDIR
 10
1.0
 20
0.0
 30
0.0
  9
$UCSYDIR
 10
0.0
 20
1.0
 30
0.0
  9
$PUCSNAME
  2

  9
$PUCSORG
 10
0.0
 20
0.0
 30
0.0
  9
$PUCSXDIR
 10
1.0
 20
0.0
 30
0.0
  9
$PUCSYDIR
 10
0.0
 20
1.0
 30
0.0
  9
$USERI1
 70
     0
  9
$USERI2
 70
     0
  9
$USERI3
 70
     0
  9
$USERI4
 70
     0
  9
$USERI5
 70
     0
  9
$USERR1
 40
0.0
  9
$USERR2
 40
0.0
  9
$USERR3
 40
0.0
  9
$USERR4
 40
0.0
  9
$USERR5
 40
0.0
  9
$WORLDVIEW
 70
     1
  9
$SHADEDGE
 70
     3
  9
$SHADEDIF
 70
    70
  9
$TILEMODE
 70
     1
  9
$MAXACTVP
 70
    16
  9
$PINSBASE
 10
0.0
 20
0.0
 30
0.0
  9
$PLIMCHECK
 70
     0
  9
$PEXTMIN
 10
1.000000E+20
 20
1.000000E+20
 30
1.000000E+20
  9
$PEXTMAX
 10
-1.000000E+20
 20
-1.000000E+20
 30
-1.000000E+20
  9
$PLIMMIN
 10
0.0
 20
0.0
  9
$PLIMMAX
 10
420.0
 20
297.0
  9
$UNITMODE
 70
     0
  9
$VISRETAIN
 70
     0
  9
$PLINEGEN
 70
     0
  9
$PSLTSCALE
 70
     1
  9
$TREEDEPTH
 70
  3020
  9
$PICKSTYLE
 70
     1
  9
$CMLSTYLE
  2
STANDARD
  9
$CMLJUST
 70
     0
  9
$CMLSCALE
 40
1.0
  9
$PROXYGRAPHICS
 70
     1
  9
$MEASUREMENT
 70
     0
  0
ENDSEC
  0
SECTION
  2
CLASSES
  0
CLASS
  1
DICTIONARYVAR
  2
AcDbDictionaryVar
  3
"AutoCAD"
 90
        0
280
     0
281
     0
  0
ENDSEC
  0
SECTION
  2
TABLES
  0
TABLE
  2
VPORT
  5
15EE
100
AcDbSymbolTable
 70
     1
  0
VPORT
  5
1604
100
AcDbSymbolTableRecord
100
AcDbViewportTableRecord
  2
*ACTIVE
 70
     0
 10
0.0
 20
0.0
 11
1.0
 21
1.0
 12
88.681102
 22
50.0
 13
0.0
 23
0.0
 14
5.0
 24
5.0
 15
10.0
 25
10.0
 16
0.0
 26
0.0
 36
1.0
 17
0.0
 27
0.0
 37
0.0
 40
100.0
 41
1.773622
 42
50.0
 43
0.0
 44
0.0
 50
0.0
 51
0.0
 71
     0
 72
 20000
 73
     1
 74
     1
 75
     1
 76
     1
 77
     0
 78
     0
  0
ENDTAB
  0
TABLE
  2
LTYPE
  5
15EB
100
AcDbSymbolTable
 70
     3
  0
LTYPE
  5
15F7
100
AcDbSymbolTableRecord
100
AcDbLinetypeTableRecord
  2
BYBLOCK
 70
     0
  3

 72
    65
 73
     0
 40
0.0
  0
LTYPE
  5
15F8
100
AcDbSymbolTableRecord
100
AcDbLinetypeTableRecord
  2
BYLAYER
 70
     0
  3

 72
    65
 73
     0
 40
0.0
  0
LTYPE
  5
15F9
100
AcDbSymbolTableRecord
100
AcDbLinetypeTableRecord
  2
CONTINUOUS
 70
     0
  3
Solid line
 72
    65
 73
     0
 40
0.0
  0
LTYPE
  5
1602
100
AcDbSymbolTableRecord
100
AcDbLinetypeTableRecord
  2
TENSEN
 70
     0
  3

 72
    65
 73
     2
 40
2.5
 49
1.5
 74
     0
 49
-1.0
 74
     0
  0
LTYPE
  5
1603
100
AcDbSymbolTableRecord
100
AcDbLinetypeTableRecord
  2
ITTEN
 70
     0
  3

 72
    65
 73
     4
 40
3.6
 49
2.0
 74
     0
 49
-0.5
 74
     0
 49
0.6
 74
     0
 49
-0.5
 74
     0
  0
ENDTAB
  0
TABLE
  2
LAYER
  5
15E8
100
AcDbSymbolTable
 70
     4
  0
LAYER
  5
15F4
100
AcDbSymbolTableRecord
100
AcDbLayerTableRecord
  2
0
 70
     0
 62
     7
  6
CONTINUOUS
  0
LAYER
  5
160F
100
AcDbSymbolTableRecord
100
AcDbLayerTableRecord
  2
2
 70
     0
 62
     2
  6
TENSEN
  0
LAYER
  5
1610
100
AcDbSymbolTableRecord
100
AcDbLayerTableRecord
  2
1
 70
     0
 62
     1
  6
ITTEN
  0
LAYER
  5
1611
100
AcDbSymbolTableRecord
100
AcDbLayerTableRecord
  2
3
 70
     0
 62
     3
  6
CONTINUOUS
  0
ENDTAB
  0
TABLE
  2
STYLE
  5
15E9
100
AcDbSymbolTable
 70
     1
  0
STYLE
  5
15F5
100
AcDbSymbolTableRecord
100
AcDbTextStyleTableRecord
  2
STANDARD
 70
     0
 40
7.0
 41
0.8
 50
0.0
 71
     0
 42
7.0
  3
ISOCP
  4
bigfont.shx
  0
ENDTAB
  0
TABLE
  2
VIEW
  5
15EC
100
AcDbSymbolTable
 70
     0
  0
ENDTAB
  0
TABLE
  2
UCS
  5
15ED
100
AcDbSymbolTable
 70
     0
  0
ENDTAB
  0
TABLE
  2
APPID
  5
15EF
100
AcDbSymbolTable
 70
     1
  0
APPID
  5
15F6
100
AcDbSymbolTableRecord
100
AcDbRegAppTableRecord
  2
ACAD
 70
     0
  0
ENDTAB
  0
TABLE
  2
DIMSTYLE
  5
15F0
100
AcDbSymbolTable
 70
     8
  0
DIMSTYLE
105
1605
100
AcDbSymbolTableRecord
100
AcDbDimStyleTableRecord
  2
STANDARD
 70
     0
  3

  4

  5

  6

  7

 40
1.0
 41
0.18
 42
0.0625
 43
0.38
 44
0.18
 45
0.0
 46
0.0
 47
0.0
 48
0.0
140
0.18
141
0.09
142
0.0
143
25.4
144
1.0
145
0.0
146
1.0
147
0.09
 71
     0
 72
     0
 73
     1
 74
     1
 75
     0
 76
     0
 77
     0
 78
     0
170
     0
171
     2
172
     0
173
     0
174
     0
175
     0
176
     0
177
     0
178
     0
270
     2
271
     4
272
     4
273
     2
274
     2
340
15F5
275
     0
280
     0
281
     0
282
     0
283
     1
284
     8
285
     8
286
     8
287
     5
288
     0
  0
DIMSTYLE
105
1606
100
AcDbSymbolTableRecord
100
AcDbDimStyleTableRecord
  2
ISO-25
 70
     0
  3

  4

  5

  6

  7

 40
1.0
 41
2.5
 42
0.625
 43
3.75
 44
1.25
 45
0.0
 46
0.0
 47
0.0
 48
0.0
140
2.5
141
2.5
142
0.0
143
0.0394
144
1.0
145
1.0
146
1.0
147
0.625
 71
     0
 72
     0
 73
     1
 74
     0
 75
     0
 76
     0
 77
     1
 78
     8
170
     0
171
     2
172
     1
173
     0
174
     0
175
     0
176
     0
177
     0
178
     0
270
     2
271
     4
272
     4
273
     2
274
     2
340
15F5
275
     0
280
     0
281
     0
282
     0
283
     1
284
     8
285
     8
286
     8
287
     5
288
     0
  0
DIMSTYLE
105
1607
100
AcDbSymbolTableRecord
100
AcDbDimStyleTableRecord
  2
ISO-35
 70
     0
  3

  4

  5

  6

  7

 40
1.0
 41
3.5
 42
0.875
 43
5.25
 44
1.75
 45
0.0
 46
0.0
 47
0.0
 48
0.0
140
3.5
141
3.5
142
0.0
143
0.0394
144
1.0
145
1.4
146
1.0
147
0.875
 71
     0
 72
     0
 73
     1
 74
     0
 75
     0
 76
     0
 77
     1
 78
     8
170
     0
171
     2
172
     1
173
     0
174
     0
175
     0
176
     0
177
     0
178
     0
270
     2
271
     4
272
     4
273
     2
274
     2
340
15F5
275
     0
280
     0
281
     0
282
     0
283
     1
284
     8
285
     8
286
     8
287
     5
288
     0
  0
DIMSTYLE
105
1608
100
AcDbSymbolTableRecord
100
AcDbDimStyleTableRecord
  2
ISO-5
 70
     0
  3

  4

  5

  6

  7

 40
1.0
 41
5.0
 42
1.25
 43
7.5
 44
2.5
 45
0.0
 46
0.0
 47
0.0
 48
0.0
140
5.0
141
5.0
142
0.0
143
0.0394
144
1.0
145
2.0
146
1.0
147
1.25
 71
     0
 72
     0
 73
     1
 74
     0
 75
     0
 76
     0
 77
     1
 78
     8
170
     0
171
     2
172
     1
173
     0
174
     0
175
     0
176
     0
177
     0
178
     0
270
     2
271
     4
272
     4
273
     2
274
     2
340
15F5
275
     0
280
     0
281
     0
282
     0
283
     1
284
     8
285
     8
286
     8
287
     5
288
     0
  0
DIMSTYLE
105
1609
100
AcDbSymbolTableRecord
100
AcDbDimStyleTableRecord
  2
ISO-7
 70
     0
  3

  4

  5

  6

  7

 40
1.0
 41
7.0
 42
1.75
 43
10.5
 44
3.5
 45
0.0
 46
0.0
 47
0.0
 48
0.0
140
7.0
141
7.0
142
0.0
143
0.0394
144
1.0
145
2.8
146
1.0
147
1.75
 71
     0
 72
     0
 73
     1
 74
     0
 75
     0
 76
     0
 77
     1
 78
     8
170
     0
171
     2
172
     1
173
     0
174
     0
175
     0
176
     0
177
     0
178
     0
270
     2
271
     4
272
     4
273
     2
274
     2
340
15F5
275
     0
280
     0
281
     0
282
     0
283
     1
284
     8
285
     8
286
     8
287
     5
288
     0
  0
DIMSTYLE
105
160A
100
AcDbSymbolTableRecord
100
AcDbDimStyleTableRecord
  2
ISO1
 70
     0
  3

  4

  5

  6

  7

 40
1.0
 41
10.0
 42
2.5
 43
15.0
 44
5.0
 45
0.0
 46
0.0
 47
0.0
 48
0.0
140
10.0
141
10.0
142
0.0
143
0.0394
144
1.0
145
4.0
146
1.0
147
2.5
 71
     0
 72
     0
 73
     1
 74
     0
 75
     0
 76
     0
 77
     1
 78
     8
170
     0
171
     2
172
     1
173
     0
174
     0
175
     0
176
     0
177
     0
178
     0
270
     2
271
     4
272
     4
273
     2
274
     2
340
15F5
275
     0
280
     0
281
     0
282
     0
283
     1
284
     8
285
     8
286
     8
287
     5
288
     0
  0
DIMSTYLE
105
160B
100
AcDbSymbolTableRecord
100
AcDbDimStyleTableRecord
  2
ISO1-4
 70
     0
  3

  4

  5

  6

  7

 40
1.0
 41
14.0
 42
3.5
 43
21.0
 44
7.0
 45
0.0
 46
0.0
 47
0.0
 48
0.0
140
14.0
141
14.0
142
0.0
143
0.0394
144
1.0
145
5.6
146
1.0
147
3.5
 71
     0
 72
     0
 73
     1
 74
     0
 75
     0
 76
     0
 77
     1
 78
     8
170
     0
171
     2
172
     1
173
     0
174
     0
175
     0
176
     0
177
     0
178
     0
270
     2
271
     4
272
     4
273
     2
274
     2
340
15F5
275
     0
280
     0
281
     0
282
     0
283
     1
284
     8
285
     8
286
     8
287
     5
288
     0
  0
DIMSTYLE
105
160C
100
AcDbSymbolTableRecord
100
AcDbDimStyleTableRecord
  2
ISO2
 70
     0
  3

  4

  5

  6

  7

 40
1.0
 41
20.0
 42
5.0
 43
30.0
 44
10.0
 45
0.0
 46
0.0
 47
0.0
 48
0.0
140
20.0
141
20.0
142
0.0
143
0.0394
144
1.0
145
8.0
146
1.0
147
5.0
 71
     0
 72
     0
 73
     1
 74
     0
 75
     0
 76
     0
 77
     1
 78
     8
170
     0
171
     2
172
     1
173
     0
174
     0
175
     0
176
     0
177
     0
178
     0
270
     2
271
     4
272
     4
273
     2
274
     2
340
15F5
275
     0
280
     0
281
     0
282
     0
283
     1
284
     8
285
     8
286
     8
287
     5
288
     0
  0
ENDTAB
  0
TABLE
  2
BLOCK_RECORD
  5
15E7
100
AcDbSymbolTable
 70
     0
  0
BLOCK_RECORD
  5
15FD
100
AcDbSymbolTableRecord
100
AcDbBlockTableRecord
  2
*MODEL_SPACE
  0
BLOCK_RECORD
  5
15FA
100
AcDbSymbolTableRecord
100
AcDbBlockTableRecord
  2
*PAPER_SPACE
  0
ENDTAB
  0
ENDSEC
  0
SECTION
  2
BLOCKS
  0
BLOCK
  5
1614
100
AcDbEntity
  8
0
100
AcDbBlockBegin
  2
*MODEL_SPACE
 70
     0
 10
0.0
 20
0.0
 30
0.0
  3
*MODEL_SPACE
  1

  0
ENDBLK
  5
1615
100
AcDbEntity
  8
0
100
AcDbBlockEnd
  0
BLOCK
  5
1612
100
AcDbEntity
 67
     1
  8
0
100
AcDbBlockBegin
  2
*PAPER_SPACE
 70
     0
 10
0.0
 20
0.0
 30
0.0
  3
*PAPER_SPACE
  1

  0
ENDBLK
  5
1613
100
AcDbEntity
 67
     1
  8
0
100
AcDbBlockEnd
  0
ENDSEC
  0
SECTION
  2
ENTITIES
  0
LINE
  5
14A8
100
AcDbEntity
  8
1
100
AcDbLine
 10
19.25
 20
55.0
 30
0.0
 11
61.0
 21
55.0
 31
0.0
  0
LINE
  5
14A9
100
AcDbEntity
  8
1
100
AcDbLine
 10
40.0
 20
76.25
 30
0.0
 11
40.0
 21
34.0
 31
0.0
  0
LINE
  5
14AB
100
AcDbEntity
  8
1
100
AcDbLine
 10
94.0
 20
54.25
 30
0.0
 11
126.0
 21
54.25
 31
0.0
  0
ARC
  5
14B8
100
AcDbEntity
  8
0
100
AcDbCircle
 10
40.0
 20
67.612068
 30
0.0
 40
3.387932
100
AcDbArc
 50
27.687389
 51
152.312611
  0
ARC
  5
14B9
100
AcDbEntity
  8
0
100
AcDbCircle
 10
53.190301
 20
73.154892
 30
0.0
 40
10.935825
100
AcDbArc
 50
201.278515
 51
266.721485
  0
ARC
  5
14BA
100
AcDbEntity
  8
0
100
AcDbCircle
 10
28.005211
 20
58.897343
 30
0.0
 40
3.387932
100
AcDbArc
 50
99.687389
 51
224.312611
  0
ARC
  5
14BB
100
AcDbEntity
  8
0
100
AcDbCircle
 10
26.809699
 20
73.154892
 30
0.0
 40
10.935825
100
AcDbArc
 50
273.278515
 51
338.721485
  0
ARC
  5
14BC
100
AcDbEntity
  8
0
100
AcDbCircle
 10
32.586812
 20
44.796623
 30
0.0
 40
3.387932
100
AcDbArc
 50
171.687389
 51
296.312611
  0
ARC
  5
14BD
100
AcDbEntity
  8
0
100
AcDbCircle
 10
18.657645
 20
48.065448
 30
0.0
 40
10.935825
100
AcDbArc
 50
345.278515
 51
50.721485
  0
ARC
  5
14BE
100
AcDbEntity
  8
0
100
AcDbCircle
 10
47.413188
 20
44.796623
 30
0.0
 40
3.387932
100
AcDbArc
 50
243.687389
 51
8.312611
  0
ARC
  5
14BF
100
AcDbEntity
  8
0
100
AcDbCircle
 10
40.0
 20
32.559319
 30
0.0
 40
10.935825
100
AcDbArc
 50
57.278515
 51
122.721485
  0
ARC
  5
14C0
100
AcDbEntity
  8
0
100
AcDbCircle
 10
51.994789
 20
58.897343
 30
0.0
 40
3.387932
100
AcDbArc
 50
315.687389
 51
80.312611
  0
ARC
  5
14C1
100
AcDbEntity
  8
0
100
AcDbCircle
 10
61.342355
 20
48.065448
 30
0.0
 40
10.935825
100
AcDbArc
 50
129.278515
 51
194.721485
  0
CIRCLE
  5
14C3
100
AcDbEntity
  8
2
100
AcDbCircle
 10
40.0
 20
55.0
 30
0.0
 40
16.0
  0
LINE
  5
14C5
100
AcDbEntity
  8
0
100
AcDbLine
 10
101.25
 20
70.25
 30
0.0
 11
108.25
 21
70.25
 31
0.0
  0
LINE
  5
14D6
100
AcDbEntity
  8
0
100
AcDbLine
 10
121.5
 20
63.25
 30
0.0
 11
121.5
 21
54.25
 31
0.0
  0
LINE
  5
14D8
100
AcDbEntity
  8
0
100
AcDbLine
 10
121.5
 20
58.25
 30
0.0
 11
121.75
 21
58.25
 31
0.0
  0
LINE
  5
14D9
100
AcDbEntity
  8
0
100
AcDbLine
 10
121.75
 20
58.25
 30
0.0
 11
121.75
 21
54.25
 31
0.0
  0
LINE
  5
14DE
100
AcDbEntity
  8
0
100
AcDbLine
 10
121.5
 20
45.25
 30
0.0
 11
121.5
 21
54.25
 31
0.0
  0
LINE
  5
14DF
100
AcDbEntity
  8
0
100
AcDbLine
 10
121.75
 20
50.25
 30
0.0
 11
121.75
 21
54.25
 31
0.0
  0
LINE
  5
14E0
100
AcDbEntity
  8
0
100
AcDbLine
 10
121.5
 20
50.25
 30
0.0
 11
121.75
 21
50.25
 31
0.0
  0
ARC
  5
14ED
100
AcDbEntity
  8
0
100
AcDbCircle
 10
106.375
 20
69.875
 30
0.0
 40
5.138701
100
AcDbArc
 50
175.815084
 51
198.434949
  0
ARC
  5
14EE
100
AcDbEntity
  8
0
100
AcDbCircle
 10
97.953947
 20
66.888158
 30
0.0
 40
3.798566
100
AcDbArc
 50
330.193577
 51
21.009013
  0
ARC
  5
14EF
100
AcDbEntity
  8
0
100
AcDbCircle
 10
108.112705
 20
62.280738
 30
0.0
 40
7.381809
100
AcDbArc
 50
158.384663
 51
206.387225
  0
ARC
  5
14F0
100
AcDbEntity
  8
0
100
AcDbCircle
 10
97.944444
 20
57.638889
 30
0.0
 40
3.807177
100
AcDbArc
 50
330.255119
 51
20.947471
  0
ARC
  5
14F1
100
AcDbEntity
  8
0
100
AcDbCircle
 10
136.0
 20
49.75
 30
0.0
 40
35.264182
100
AcDbArc
 50
170.20379
 51
189.79621
  0
ARC
  5
14F3
100
AcDbEntity
  8
0
100
AcDbCircle
 10
73.5
 20
49.75
 30
0.0
 40
35.264182
100
AcDbArc
 50
350.20379
 51
9.79621
  0
ARC
  5
14F5
100
AcDbEntity
  8
0
100
AcDbCircle
 10
101.387295
 20
62.280738
 30
0.0
 40
7.381809
100
AcDbArc
 50
333.612775
 51
21.615337
  0
ARC
  5
14F6
100
AcDbEntity
  8
0
100
AcDbCircle
 10
111.555556
 20
57.638889
 30
0.0
 40
3.807177
100
AcDbArc
 50
159.052529
 51
209.744881
  0
ARC
  5
14F7
100
AcDbEntity
  8
0
100
AcDbCircle
 10
111.546053
 20
66.888158
 30
0.0
 40
3.798566
100
AcDbArc
 50
158.990987
 51
209.806423
  0
ARC
  5
14F8
100
AcDbEntity
  8
0
100
AcDbCircle
 10
103.125
 20
69.875
 30
0.0
 40
5.138701
100
AcDbArc
 50
341.565051
 51
4.184916
  0
LINE
  5
14FB
100
AcDbEntity
  8
0
100
AcDbLine
 10
121.0
 20
44.75
 30
0.0
 11
109.882482
 21
44.75
 31
0.0
  0
ARC
  5
14FF
100
AcDbEntity
  8
0
100
AcDbCircle
 10
151.2
 20
54.25
 30
0.0
 40
52.45
100
AcDbArc
 50
162.238682
 51
192.702327
  0
ARC
  5
1500
100
AcDbEntity
  8
0
100
AcDbCircle
 10
87.875
 20
41.125
 30
0.0
 40
13.63016
100
AcDbArc
 50
357.371827
 51
11.103833
  0
ARC
  5
1501
100
AcDbEntity
  8
0
100
AcDbCircle
 10
95.5
 20
38.125
 30
0.0
 40
6.452955
100
AcDbArc
 50
21.59531
 51
45.784825
  0
ARC
  5
1502
100
AcDbEntity
  8
0
100
AcDbCircle
 10
58.3
 20
54.25
 30
0.0
 40
52.45
100
AcDbArc
 50
347.297673
 51
349.564712
  0
ARC
  5
1503
100
AcDbEntity
  8
0
100
AcDbCircle
 10
114.0
 20
38.125
 30
0.0
 40
6.452955
100
AcDbArc
 50
134.215175
 51
158.40469
  0
LINE
  5
1504
100
AcDbEntity
  8
0
100
AcDbLine
 10
108.0
 20
40.5
 30
0.0
 11
101.5
 21
40.5
 31
0.0
  0
ARC
  5
1505
100
AcDbEntity
  8
0
100
AcDbCircle
 10
121.625
 20
41.125
 30
0.0
 40
13.63016
100
AcDbArc
 50
168.896167
 51
182.628173
  0
LINE
  5
1507
100
AcDbEntity
  8
0
100
AcDbLine
 10
121.0
 20
63.75
 30
0.0
 11
109.882482
 21
63.75
 31
0.0
  0
LINE
  5
1508
100
AcDbEntity
  8
0
100
AcDbLine
 10
109.882482
 20
63.75
 30
0.0
 11
109.882482
 21
44.75
 31
0.0
  0
ARC
  5
1509
100
AcDbEntity
  8
0
100
AcDbCircle
 10
58.3
 20
54.25
 30
0.0
 40
52.45
100
AcDbArc
 50
10.435288
 51
17.761318
  0
LINE
  5
150A
100
AcDbEntity
  8
0
100
AcDbLine
 10
102.25
 20
68.25
 30
0.0
 11
107.25
 21
68.25
 31
0.0
  0
LINE
  5
150B
100
AcDbEntity
  8
0
100
AcDbLine
 10
101.75
 20
61.5
 30
0.0
 11
107.75
 21
61.5
 31
0.0
  0
LINE
  5
150C
100
AcDbEntity
  8
0
100
AcDbLine
 10
102.25
 20
56.0
 30
0.0
 11
107.25
 21
56.0
 31
0.0
  0
LINE
  5
150D
100
AcDbEntity
  8
0
100
AcDbLine
 10
101.75
 20
44.25
 30
0.0
 11
107.75
 21
44.25
 31
0.0
  0
LINE
  5
151B
100
AcDbEntity
  8
2
100
AcDbLine
 10
121.5
 20
58.25
 30
0.0
 11
105.0
 21
58.25
 31
0.0
  0
LINE
  5
151C
100
AcDbEntity
  8
2
100
AcDbLine
 10
105.0
 20
58.25
 30
0.0
 11
105.0
 21
54.25
 31
0.0
  0
LINE
  5
1528
100
AcDbEntity
  8
2
100
AcDbLine
 10
121.5
 20
50.25
 30
0.0
 11
105.0
 21
50.25
 31
0.0
  0
LINE
  5
152A
100
AcDbEntity
  8
2
100
AcDbLine
 10
105.0
 20
50.25
 30
0.0
 11
105.0
 21
54.25
 31
0.0
  0
LINE
  5
1531
100
AcDbEntity
  8
0
100
AcDbLine
 10
121.75
 20
50.25
 30
0.0
 11
121.75
 21
54.25
 31
0.0
  0
LINE
  5
1533
100
AcDbEntity
  8
0
100
AcDbLine
 10
121.5
 20
50.25
 30
0.0
 11
121.75
 21
50.25
 31
0.0
  0
LINE
  5
1538
100
AcDbEntity
  8
0
100
AcDbLine
 10
121.0
 20
63.75
 30
0.0
 11
121.5
 21
63.25
 31
0.0
  0
LINE
  5
1539
100
AcDbEntity
  8
0
100
AcDbLine
 10
121.5
 20
45.25
 30
0.0
 11
121.0
 21
44.75
 31
0.0
  0
LINE
  5
158E
100
AcDbEntity
  8
2
100
AcDbLine
 10
121.75
 20
57.5
 30
0.0
 11
121.0
 21
56.5
 31
0.0
  0
LINE
  5
158F
100
AcDbEntity
  8
2
100
AcDbLine
 10
121.0
 20
56.5
 30
0.0
 11
107.5
 21
56.5
 31
0.0
  0
LINE
  5
1590
100
AcDbEntity
  8
2
100
AcDbLine
 10
107.5
 20
56.5
 30
0.0
 11
106.0
 21
54.25
 31
0.0
  0
LINE
  5
1591
100
AcDbEntity
  8
2
100
AcDbLine
 10
107.5
 20
56.5
 30
0.0
 11
107.5
 21
54.25
 31
0.0
  0
LINE
  5
1592
100
AcDbEntity
  8
2
100
AcDbLine
 10
121.0
 20
56.5
 30
0.0
 11
121.0
 21
54.25
 31
0.0
  0
LINE
  5
1593
100
AcDbEntity
  8
2
100
AcDbLine
 10
121.5
 20
57.25
 30
0.0
 11
110.0
 21
57.25
 31
0.0
  0
LINE
  5
1594
100
AcDbEntity
  8
2
100
AcDbLine
 10
110.0
 20
57.25
 30
0.0
 11
110.0
 21
54.25
 31
0.0
  0
LINE
  5
1595
100
AcDbEntity
  8
2
100
AcDbLine
 10
110.0
 20
57.25
 30
0.0
 11
109.25
 21
56.5
 31
0.0
  0
LINE
  5
1596
100
AcDbEntity
  8
2
100
AcDbLine
 10
109.25
 20
56.5
 30
0.0
 11
109.25
 21
54.25
 31
0.0
  0
LINE
  5
1597
100
AcDbEntity
  8
2
100
AcDbLine
 10
121.5
 20
51.25
 30
0.0
 11
110.0
 21
51.25
 31
0.0
  0
LINE
  5
1598
100
AcDbEntity
  8
2
100
AcDbLine
 10
121.0
 20
52.0
 30
0.0
 11
107.5
 21
52.0
 31
0.0
  0
LINE
  5
1599
100
AcDbEntity
  8
2
100
AcDbLine
 10
107.5
 20
52.0
 30
0.0
 11
106.0
 21
54.25
 31
0.0
  0
LINE
  5
159A
100
AcDbEntity
  8
2
100
AcDbLine
 10
109.25
 20
52.0
 30
0.0
 11
109.25
 21
54.25
 31
0.0
  0
LINE
  5
159B
100
AcDbEntity
  8
2
100
AcDbLine
 10
110.0
 20
51.25
 30
0.0
 11
109.25
 21
52.0
 31
0.0
  0
LINE
  5
159C
100
AcDbEntity
  8
2
100
AcDbLine
 10
110.0
 20
51.25
 30
0.0
 11
110.0
 21
54.25
 31
0.0
  0
LINE
  5
159D
100
AcDbEntity
  8
2
100
AcDbLine
 10
107.5
 20
52.0
 30
0.0
 11
107.5
 21
54.25
 31
0.0
  0
LINE
  5
159E
100
AcDbEntity
  8
2
100
AcDbLine
 10
121.0
 20
52.0
 30
0.0
 11
121.0
 21
54.25
 31
0.0
  0
LINE
  5
159F
100
AcDbEntity
  8
2
100
AcDbLine
 10
121.75
 20
51.0
 30
0.0
 11
121.0
 21
52.0
 31
0.0
  0
VIEWPORT
  5
22
100
AcDbEntity
 67
     1
  8
0
100
AcDbViewport
 10
261.517699
 20
148.5
 30
0.0
 40
523.035398
 41
297.0
 68
    -1
 69
     1
1001
ACAD
1000
MVIEW
1002
{
1070
    16
1010
0.0
1020
0.0
1030
0.0
1010
0.0
1020
0.0
1030
1.0
1040
0.0
1040
297.0
1040
261.517699
1040
148.5
1040
50.0
1040
0.0
1040
0.0
1070
     0
1070
   100
1070
     1
1070
     1
1070
     0
1070
     0
1070
     0
1070
     0
1040
0.0
1040
0.0
1040
0.0
1040
1.0
1040
1.0
1040
10.0
1040
10.0
1070
     0
1002
{
1002
}
1002
}
  0
ENDSEC
  0
SECTION
  2
OBJECTS
  0
DICTIONARY
  5
15F2
100
AcDbDictionary
  3
ACAD_GROUP
350
15F3
  3
ACAD_MLINESTYLE
350
1600
  3
ACDBVARIABLEDICTIONARY
350
1616
  0
DICTIONARY
  5
15F3
102
{ACAD_REACTORS
330
15F2
102
}
100
AcDbDictionary
  0
DICTIONARY
  5
1600
102
{ACAD_REACTORS
330
15F2
102
}
100
AcDbDictionary
  3
STANDARD
350
1601
  0
DICTIONARY
  5
1616
102
{ACAD_REACTORS
330
15F2
102
}
100
AcDbDictionary
  3
DIMADEC
350
1617
  0
MLINESTYLE
  5
1601
102
{ACAD_REACTORS
330
1600
102
}
100
AcDbMlineStyle
  2
STANDARD
 70
     0
  3

 62
   256
 51
90.0
 52
90.0
 71
     2
 49
0.5
 62
   256
  6
BYLAYER
 49
-0.5
 62
   256
  6
BYLAYER
  0
DICTIONARYVAR
  5
1617
102
{ACAD_REACTORS
330
1616
102
}
100
DictionaryVariables
280
     0
  1
0
  0
ENDSEC
  0
EOF
