  0
SECTION
  2
HEADER
  9
$ACADVER
  1
AC1009
  9
$INSBASE
 10
0.0
 20
0.0
 30
0.0
  9
$EXTMIN
 10
17.976644
 20
2.160051
 30
-0.001526
  9
$EXTMAX
 10
358.829328
 20
199.519135
 30
0.0
  9
$LIMMIN
 10
0.0
 20
0.0
  9
$LIMMAX
 10
400.0
 20
300.0
  9
$ORTHOMODE
 70
     1
  9
$REGENMODE
 70
     1
  9
$FILLMODE
 70
     1
  9
$QTEXTMODE
 70
     0
  9
$MIRRTEXT
 70
     1
  9
$DRAGMODE
 70
     2
  9
$LTSCALE
 40
1.0
  9
$OSMODE
 70
     0
  9
$ATTMODE
 70
     1
  9
$TEXTSIZE
 40
7.0
  9
$TRACEWID
 40
1.0
  9
$TEXTSTYLE
  7
STANDARD
  9
$CLAYER
  8
0
  9
$CELTYPE
  6
BYLAYER
  9
$CECOLOR
 62
   256
  9
$DIMSCALE
 40
1.0
  9
$DIMASZ
 40
2.5
  9
$DIMEXO
 40
0.625
  9
$DIMDLI
 40
3.75
  9
$DIMRND
 40
0.0
  9
$DIMDLE
 40
0.0
  9
$DIMEXE
 40
1.25
  9
$DIMTP
 40
0.0
  9
$DIMTM
 40
0.0
  9
$DIMTXT
 40
2.5
  9
$DIMCEN
 40
2.5
  9
$DIMTSZ
 40
0.0
  9
$DIMTOL
 70
     0
  9
$DIMLIM
 70
     0
  9
$DIMTIH
 70
     1
  9
$DIMTOH
 70
     0
  9
$DIMSE1
 70
     0
  9
$DIMSE2
 70
     0
  9
$DIMTAD
 70
     1
  9
$DIMZIN
 70
     8
  9
$DIMBLK
  1

  9
$DIMASO
 70
     1
  9
$DIMSHO
 70
     1
  9
$DIMPOST
  1

  9
$DIMAPOST
  1

  9
$DIMALT
 70
     0
  9
$DIMALTD
 70
     2
  9
$DIMALTF
 40
0.0394
  9
$DIMLFAC
 40
1.0
  9
$DIMTOFL
 70
     1
  9
$DIMTVP
 40
1.0
  9
$DIMTIX
 70
     0
  9
$DIMSOXD
 70
     0
  9
$DIMSAH
 70
     0
  9
$DIMBLK1
  1

  9
$DIMBLK2
  1

  9
$DIMSTYLE
  2
ISO-25
  9
$DIMCLRD
 70
     0
  9
$DIMCLRE
 70
     0
  9
$DIMCLRT
 70
     0
  9
$DIMTFAC
 40
1.0
  9
$DIMGAP
 40
0.625
  9
$LUNITS
 70
     2
  9
$LUPREC
 70
     4
  9
$SKETCHINC
 40
1.0
  9
$FILLETRAD
 40
2.0
  9
$AUNITS
 70
     0
  9
$AUPREC
 70
     0
  9
$MENU
  1
.
  9
$ELEVATION
 40
0.0
  9
$PELEVATION
 40
0.0
  9
$THICKNESS
 40
0.0
  9
$LIMCHECK
 70
     0
  9
$BLIPMODE
 70
     1
  9
$CHAMFERA
 40
1.0
  9
$CHAMFERB
 40
1.0
  9
$SKPOLY
 70
     0
  9
$TDCREATE
 40
2450687.646551
  9
$TDUPDATE
 40
2450826.565069
  9
$TDINDWG
 40
0.062269
  9
$TDUSRTIMER
 40
0.062269
  9
$USRTIMER
 70
     1
  9
$ANGBASE
 50
0.0
  9
$ANGDIR
 70
     0
  9
$PDMODE
 70
     0
  9
$PDSIZE
 40
0.0
  9
$PLINEWID
 40
0.0
  9
$COORDS
 70
     2
  9
$SPLFRAME
 70
     0
  9
$SPLINETYPE
 70
     6
  9
$SPLINESEGS
 70
     8
  9
$ATTDIA
 70
     0
  9
$ATTREQ
 70
     1
  9
$HANDLING
 70
     1
  9
$HANDSEED
  5
1975
  9
$SURFTAB1
 70
     6
  9
$SURFTAB2
 70
     6
  9
$SURFTYPE
 70
     6
  9
$SURFU
 70
     6
  9
$SURFV
 70
     6
  9
$UCSNAME
  2

  9
$UCSORG
 10
0.0
 20
0.0
 30
0.0
  9
$UCSXDIR
 10
1.0
 20
0.0
 30
0.0
  9
$UCSYDIR
 10
0.0
 20
1.0
 30
0.0
  9
$PUCSNAME
  2

  9
$PUCSORG
 10
0.0
 20
0.0
 30
0.0
  9
$PUCSXDIR
 10
1.0
 20
0.0
 30
0.0
  9
$PUCSYDIR
 10
0.0
 20
1.0
 30
0.0
  9
$USERI1
 70
     0
  9
$USERI2
 70
     0
  9
$USERI3
 70
     0
  9
$USERI4
 70
     0
  9
$USERI5
 70
     0
  9
$USERR1
 40
0.0
  9
$USERR2
 40
0.0
  9
$USERR3
 40
0.0
  9
$USERR4
 40
0.0
  9
$USERR5
 40
0.0
  9
$WORLDVIEW
 70
     1
  9
$SHADEDGE
 70
     3
  9
$SHADEDIF
 70
    70
  9
$TILEMODE
 70
     1
  9
$MAXACTVP
 70
    16
  9
$PLIMCHECK
 70
     0
  9
$PEXTMIN
 10
1.000000E+020
 20
1.000000E+020
 30
1.000000E+020
  9
$PEXTMAX
 10
-1.000000E+020
 20
-1.000000E+020
 30
-1.000000E+020
  9
$PLIMMIN
 10
0.0
 20
0.0
  9
$PLIMMAX
 10
420.0
 20
297.0
  9
$UNITMODE
 70
     0
  9
$VISRETAIN
 70
     0
  9
$PLINEGEN
 70
     0
  9
$PSLTSCALE
 70
     1
  0
ENDSEC
  0
SECTION
  2
TABLES
  0
TABLE
  2
VPORT
 70
     3
  0
VPORT
  2
*ACTIVE
 70
     0
 10
0.0
 20
0.0
 11
1.0
 21
1.0
 12
201.861702
 22
150.0
 13
0.0
 23
0.0
 14
0.5
 24
0.5
 15
1.0
 25
1.0
 16
0.0
 26
0.0
 36
1.0
 17
0.0
 27
0.0
 37
0.0
 40
300.0
 41
1.345745
 42
50.0
 43
0.0
 44
0.0
 50
0.0
 51
0.0
 71
     0
 72
 20000
 73
     1
 74
     1
 75
     1
 76
     1
 77
     0
 78
     0
  0
ENDTAB
  0
TABLE
  2
LTYPE
 70
     3
  0
LTYPE
  2
CONTINUOUS
 70
     0
  3
Solid line
 72
    65
 73
     0
 40
0.0
  0
LTYPE
  2
TENSEN
 70
     0
  3

 72
    65
 73
     2
 40
2.5
 49
1.5
 49
-1.0
  0
LTYPE
  2
ITTEN
 70
     0
  3

 72
    65
 73
     4
 40
3.6
 49
2.0
 49
-0.5
 49
0.6
 49
-0.5
  0
ENDTAB
  0
TABLE
  2
LAYER
 70
     4
  0
LAYER
  2
0
 70
     0
 62
     7
  6
CONTINUOUS
  0
LAYER
  2
2
 70
     0
 62
     2
  6
TENSEN
  0
LAYER
  2
1
 70
     0
 62
     1
  6
ITTEN
  0
LAYER
  2
3
 70
     0
 62
     3
  6
CONTINUOUS
  0
ENDTAB
  0
TABLE
  2
STYLE
 70
     1
  0
STYLE
  2
STANDARD
 70
     0
 40
7.0
 41
0.8
 50
0.0
 71
     0
 42
7.0
  3
ISOCP
  4
B:\r13\com\fonts\bigfont.shx
  0
ENDTAB
  0
TABLE
  2
VIEW
 70
     0
  0
ENDTAB
  0
TABLE
  2
UCS
 70
     0
  0
ENDTAB
  0
TABLE
  2
APPID
 70
     1
  0
APPID
  2
ACAD
 70
     0
  0
ENDTAB
  0
TABLE
  2
DIMSTYLE
 70
     8
  0
DIMSTYLE
  2
STANDARD
 70
     0
  3

  4

  5

  6

  7

 40
1.0
 41
0.18
 42
0.0625
 43
0.38
 44
0.18
 45
0.0
 46
0.0
 47
0.0
 48
0.0
140
0.18
141
0.09
142
0.0
143
25.4
144
1.0
145
0.0
146
1.0
147
0.09
 71
     0
 72
     0
 73
     1
 74
     1
 75
     0
 76
     0
 77
     0
 78
     0
170
     0
171
     2
172
     0
173
     0
174
     0
175
     0
176
     0
177
     0
178
     0
  0
DIMSTYLE
  2
ISO-25
 70
     0
  3

  4

  5

  6

  7

 40
1.0
 41
2.5
 42
0.625
 43
3.75
 44
1.25
 45
0.0
 46
0.0
 47
0.0
 48
0.0
140
2.5
141
2.5
142
0.0
143
0.0394
144
1.0
145
1.0
146
1.0
147
0.625
 71
     0
 72
     0
 73
     1
 74
     0
 75
     0
 76
     0
 77
     1
 78
     8
170
     0
171
     2
172
     1
173
     0
174
     0
175
     0
176
     0
177
     0
178
     0
  0
DIMSTYLE
  2
ISO-35
 70
     0
  3

  4

  5

  6

  7

 40
1.0
 41
3.5
 42
0.875
 43
5.25
 44
1.75
 45
0.0
 46
0.0
 47
0.0
 48
0.0
140
3.5
141
3.5
142
0.0
143
0.0394
144
1.0
145
1.4
146
1.0
147
0.875
 71
     0
 72
     0
 73
     1
 74
     0
 75
     0
 76
     0
 77
     1
 78
     8
170
     0
171
     2
172
     1
173
     0
174
     0
175
     0
176
     0
177
     0
178
     0
  0
DIMSTYLE
  2
ISO-5
 70
     0
  3

  4

  5

  6

  7

 40
1.0
 41
5.0
 42
1.25
 43
7.5
 44
2.5
 45
0.0
 46
0.0
 47
0.0
 48
0.0
140
5.0
141
5.0
142
0.0
143
0.0394
144
1.0
145
2.0
146
1.0
147
1.25
 71
     0
 72
     0
 73
     1
 74
     0
 75
     0
 76
     0
 77
     1
 78
     8
170
     0
171
     2
172
     1
173
     0
174
     0
175
     0
176
     0
177
     0
178
     0
  0
DIMSTYLE
  2
ISO-7
 70
     0
  3

  4

  5

  6

  7

 40
1.0
 41
7.0
 42
1.75
 43
10.5
 44
3.5
 45
0.0
 46
0.0
 47
0.0
 48
0.0
140
7.0
141
7.0
142
0.0
143
0.0394
144
1.0
145
2.8
146
1.0
147
1.75
 71
     0
 72
     0
 73
     1
 74
     0
 75
     0
 76
     0
 77
     1
 78
     8
170
     0
171
     2
172
     1
173
     0
174
     0
175
     0
176
     0
177
     0
178
     0
  0
DIMSTYLE
  2
ISO1
 70
     0
  3

  4

  5

  6

  7

 40
1.0
 41
10.0
 42
2.5
 43
15.0
 44
5.0
 45
0.0
 46
0.0
 47
0.0
 48
0.0
140
10.0
141
10.0
142
0.0
143
0.0394
144
1.0
145
4.0
146
1.0
147
2.5
 71
     0
 72
     0
 73
     1
 74
     0
 75
     0
 76
     0
 77
     1
 78
     8
170
     0
171
     2
172
     1
173
     0
174
     0
175
     0
176
     0
177
     0
178
     0
  0
DIMSTYLE
  2
ISO1-4
 70
     0
  3

  4

  5

  6

  7

 40
1.0
 41
14.0
 42
3.5
 43
21.0
 44
7.0
 45
0.0
 46
0.0
 47
0.0
 48
0.0
140
14.0
141
14.0
142
0.0
143
0.0394
144
1.0
145
5.6
146
1.0
147
3.5
 71
     0
 72
     0
 73
     1
 74
     0
 75
     0
 76
     0
 77
     1
 78
     8
170
     0
171
     2
172
     1
173
     0
174
     0
175
     0
176
     0
177
     0
178
     0
  0
DIMSTYLE
  2
ISO2
 70
     0
  3

  4

  5

  6

  7

 40
1.0
 41
20.0
 42
5.0
 43
30.0
 44
10.0
 45
0.0
 46
0.0
 47
0.0
 48
0.0
140
20.0
141
20.0
142
0.0
143
0.0394
144
1.0
145
8.0
146
1.0
147
5.0
 71
     0
 72
     0
 73
     1
 74
     0
 75
     0
 76
     0
 77
     1
 78
     8
170
     0
171
     2
172
     1
173
     0
174
     0
175
     0
176
     0
177
     0
178
     0
  0
ENDTAB
  0
ENDSEC
  0
SECTION
  2
BLOCKS
  0
BLOCK
  8
0
  2
$MODEL_SPACE
 70
     0
 10
0.0
 20
0.0
 30
0.0
  3
$MODEL_SPACE
  1

  0
ENDBLK
  5
18E8
  8
0
  0
BLOCK
 67
     1
  8
0
  2
$PAPER_SPACE
 70
     0
 10
0.0
 20
0.0
 30
0.0
  3
$PAPER_SPACE
  1

  0
ENDBLK
  5
18E6
 67
     1
  8
0
  0
ENDSEC
  0
SECTION
  2
ENTITIES
  0
TEXT
  5
37
  8
0
 10
280.257298
 20
54.965674
 30
0.0
 40
4.55
  1
部品名称
 41
0.8
  0
TEXT
  5
38
  8
0
 10
280.007298
 20
40.385271
 30
0.0
 40
4.55
  1
品番
 41
0.8
  0
TEXT
  5
39
  8
0
 10
280.257298
 20
25.175271
 30
0.0
 40
4.55
  1
尺度
 41
0.8
  0
TEXT
  5
3A
  8
0
 10
280.757298
 20
10.715271
 30
0.0
 40
4.55
  1
図番
 41
0.8
  0
TEXT
  5
3F
  8
0
 10
279.85
 20
17.0
 30
0.0
 40
7.0
  1
１／１
 41
0.8
  0
TEXT
  5
14A4
  8
0
 10
279.682661
 20
47.066549
 30
0.0
 40
7.0
  1
タップドブラインド・ノブ
 41
0.8
  0
TEXT
  5
18F4
  8
0
 10
279.5
 20
32.5
 30
0.0
 40
7.0
  1
ＢＴＫ－８５
 41
0.8
  0
TEXT
  5
18F5
  8
0
 10
280.5
 20
2.1
 30
0.0
 40
7.0
  1
BTK00085
 41
0.8
  0
LINE
  5
18F7
  8
1
 10
70.0
 20
199.5
 30
0.0
 11
70.0
 21
99.5
 31
0.0
  0
LINE
  5
18F8
  8
1
 10
18.0
 20
150.5
 30
0.0
 11
121.5
 21
150.5
 31
0.0
  0
ARC
  5
18F9
  8
0
 10
70.0
 20
150.5
 30
0.0
 40
42.5
 50
147.225123
 51
212.216546
  0
ARC
  5
1907
  8
0
 10
70.0
 20
181.920345
 30
0.0
 40
11.079655
 50
18.615346
 51
161.384654
  0
ARC
  5
1908
  8
0
 10
40.117476
 20
160.209421
 30
0.0
 40
11.079655
 50
90.615346
 51
233.384654
  0
ARC
  5
1909
  8
0
 10
51.531585
 20
125.080407
 30
0.0
 40
11.079655
 50
162.615346
 51
305.384654
  0
ARC
  5
190A
  8
0
 10
88.468415
 20
125.080407
 30
0.0
 40
11.079655
 50
234.615346
 51
17.384654
  0
ARC
  5
190B
  8
0
 10
99.882524
 20
160.209421
 30
0.0
 40
11.079655
 50
306.615346
 51
89.384654
  0
ARC
  5
191F
  8
0
 10
101.60116
 20
193.995266
 30
0.0
 40
22.763105
 50
202.029702
 51
265.970298
  0
ARC
  5
1920
  8
0
 10
38.39884
 20
193.995266
 30
0.0
 40
22.763105
 50
274.029702
 51
337.970298
  0
ARC
  5
1921
  8
0
 10
18.868248
 20
133.886287
 30
0.0
 40
22.763105
 50
346.029702
 51
49.970298
  0
ARC
  5
1922
  8
0
 10
70.0
 20
96.736895
 30
0.0
 40
22.763105
 50
58.029702
 51
121.970298
  0
ARC
  5
1923
  8
0
 10
121.131752
 20
133.886287
 30
0.0
 40
22.763105
 50
130.029702
 51
193.970298
  0
ARC
  5
1924
  8
0
 10
70.0
 20
150.5
 30
0.0
 40
42.5
 50
327.994617
 51
35.928502
  0
LINE
  5
1925
  8
1
 10
153.0
 20
150.5
 30
0.0
 11
219.0
 21
150.5
 31
0.0
  0
LINE
  5
1927
  8
0
 10
164.0
 20
193.0
 30
0.0
 11
181.7
 21
193.0
 31
0.0
  0
LINE
  5
1928
  8
0
 10
185.0
 20
168.0
 30
0.0
 11
185.0
 21
150.5
 31
0.0
  0
LINE
  5
192B
  8
0
 10
214.7
 20
150.5
 30
0.0
 11
214.7
 21
167.0
 31
0.0
  0
LINE
  5
192C
  8
0
 10
213.7
 20
168.0
 30
0.0
 11
185.0
 21
168.0
 31
0.0
  0
LINE
  5
192D
  8
0
 10
162.943424
 20
114.0
 30
0.0
 11
182.756576
 21
114.0
 31
0.0
  0
ARC
  5
1931
  8
0
 10
387.78125
 20
150.5
 30
0.0
 40
227.78125
 50
169.246589
 51
189.220912
  0
ARC
  5
1932
  8
0
 10
-42.08125
 20
150.5
 30
0.0
 40
227.78125
 50
350.779088
 51
355.593732
  0
LINE
  5
1933
  8
0
 10
185.0
 20
133.0
 30
0.0
 11
185.0
 21
150.5
 31
0.0
  0
LINE
  5
1934
  8
0
 10
214.7
 20
150.5
 30
0.0
 11
214.7
 21
134.0
 31
0.0
  0
LINE
  5
1935
  8
0
 10
213.7
 20
133.0
 30
0.0
 11
185.0
 21
133.0
 31
0.0
  0
ARC
  5
1936
  8
0
 10
-42.08125
 20
150.5
 30
0.0
 40
227.78125
 50
4.406268
 51
10.753411
  0
LINE
  5
1937
  8
0
 10
181.0
 20
186.0
 30
0.0
 11
165.0
 21
186.0
 31
0.0
  0
LINE
  5
1938
  8
0
 10
181.0
 20
171.0
 30
0.0
 11
165.0
 21
171.0
 31
0.0
  0
LINE
  5
1939
  8
0
 10
181.0
 20
153.5
 30
0.0
 11
165.0
 21
153.5
 31
0.0
  0
LINE
  5
193A
  8
0
 10
181.0
 20
125.5
 30
0.0
 11
165.0
 21
125.5
 31
0.0
  0
ARC
  5
193B
  8
0
 10
192.25
 20
120.464286
 30
0.0
 40
29.851888
 50
164.384157
 51
191.525026
  0
ARC
  5
193C
  8
0
 10
128.5625
 20
140.6875
 30
0.0
 40
37.002217
 50
340.769328
 51
13.77805
  0
ARC
  5
193E
  8
0
 10
200.0
 20
160.5
 30
0.0
 40
37.165172
 50
160.346176
 51
197.216074
  0
ARC
  5
193F
  8
0
 10
147.886364
 20
177.44697
 30
0.0
 40
17.681971
 50
345.433862
 51
20.01876
  0
ARC
  5
1940
  8
0
 10
182.25
 20
187.75
 30
0.0
 40
18.251712
 50
166.534792
 51
193.465208
  0
ARC
  5
1941
  8
0
 10
163.25
 20
187.75
 30
0.0
 40
18.251712
 50
346.534792
 51
13.465208
  0
ARC
  5
1942
  8
0
 10
197.613636
 20
177.44697
 30
0.0
 40
17.681971
 50
159.98124
 51
194.566138
  0
ARC
  5
1943
  8
0
 10
145.5
 20
160.5
 30
0.0
 40
37.165172
 50
342.783926
 51
19.653824
  0
ARC
  5
1944
  8
0
 10
216.9375
 20
140.6875
 30
0.0
 40
37.002217
 50
166.22195
 51
199.230672
  0
ARC
  5
1945
  8
0
 10
153.25
 20
120.464286
 30
0.0
 40
29.851888
 50
348.474974
 51
15.615843
  0
LINE
  5
1946
  8
0
 10
213.7
 20
168.0
 30
0.0
 11
214.7
 21
167.0
 31
0.0
  0
LINE
  5
1947
  8
0
 10
213.7
 20
133.0
 30
0.0
 11
214.7
 21
134.0
 31
0.0
  0
LINE
  5
1948
  8
0
 10
215.0
 20
150.5
 30
0.0
 11
215.0
 21
160.5
 31
0.0
  0
LINE
  5
1949
  8
0
 10
215.0
 20
160.5
 30
0.0
 11
214.7
 21
160.5
 31
0.0
  0
LINE
  5
1952
  8
2
 10
193.0
 20
158.5
 30
0.0
 11
190.0
 21
150.5
 31
0.0
  0
LINE
  5
1953
  8
2
 10
182.5
 20
150.5
 30
0.0
 11
182.5
 21
158.5
 31
0.0
  0
LINE
  5
1954
  8
2
 10
182.5
 20
158.5
 30
0.0
 11
184.5
 21
160.5
 31
0.0
  0
LINE
  5
1955
  8
2
 10
184.5
 20
160.5
 30
0.0
 11
214.7
 21
160.5
 31
0.0
  0
LINE
  5
1956
  8
2
 10
193.0
 20
158.5
 30
0.0
 11
215.0
 21
158.5
 31
0.0
  0
LINE
  5
1957
  8
2
 10
215.0
 20
157.0
 30
0.0
 11
192.4375
 21
157.0
 31
0.0
  0
LINE
  5
1958
  8
2
 10
215.0
 20
144.0
 30
0.0
 11
192.4375
 21
144.0
 31
0.0
  0
LINE
  5
1959
  8
2
 10
193.0
 20
142.5
 30
0.0
 11
215.0
 21
142.5
 31
0.0
  0
LINE
  5
195A
  8
2
 10
184.5
 20
140.5
 30
0.0
 11
214.7
 21
140.5
 31
0.0
  0
LINE
  5
195B
  8
2
 10
182.5
 20
150.5
 30
0.0
 11
182.5
 21
142.5
 31
0.0
  0
LINE
  5
195C
  8
2
 10
182.5
 20
142.5
 30
0.0
 11
184.5
 21
140.5
 31
0.0
  0
LINE
  5
195D
  8
2
 10
193.0
 20
142.5
 30
0.0
 11
190.0
 21
150.5
 31
0.0
  0
LINE
  5
195E
  8
0
 10
215.0
 20
150.5
 30
0.0
 11
215.0
 21
140.5
 31
0.0
  0
LINE
  5
195F
  8
0
 10
215.0
 20
140.5
 30
0.0
 11
214.7
 21
140.5
 31
0.0
  0
ARC
  5
1960
  8
0
 10
356.631752
 20
133.886287
 30
0.0
 40
22.763105
 50
130.029702
 51
193.970298
  0
ARC
  5
1961
  8
0
 10
254.368248
 20
133.886287
 30
0.0
 40
22.763105
 50
346.029702
 51
49.970298
  0
LINE
  5
1962
  8
1
 10
305.5
 20
199.5
 30
0.0
 11
305.5
 21
99.5
 31
0.0
  0
ARC
  5
1963
  8
0
 10
305.5
 20
150.5
 30
0.0
 40
42.5
 50
147.225123
 51
212.216546
  0
ARC
  5
1964
  8
0
 10
305.5
 20
150.5
 30
0.0
 40
42.5
 50
327.994617
 51
35.928502
  0
ARC
  5
1965
  8
0
 10
323.968415
 20
125.080407
 30
0.0
 40
11.079655
 50
234.615346
 51
17.384654
  0
ARC
  5
1966
  8
0
 10
287.031585
 20
125.080407
 30
0.0
 40
11.079655
 50
162.615346
 51
305.384654
  0
ARC
  5
1967
  8
0
 10
305.5
 20
96.736895
 30
0.0
 40
22.763105
 50
58.029702
 51
121.970298
  0
ARC
  5
1968
  8
0
 10
337.10116
 20
193.995266
 30
0.0
 40
22.763105
 50
202.029702
 51
265.970298
  0
LINE
  5
1969
  8
1
 10
253.5
 20
150.5
 30
0.0
 11
357.0
 21
150.5
 31
0.0
  0
ARC
  5
196A
  8
0
 10
273.89884
 20
193.995266
 30
0.0
 40
22.763105
 50
274.029702
 51
337.970298
  0
ARC
  5
196B
  8
0
 10
275.617476
 20
160.209421
 30
0.0
 40
11.079655
 50
90.615346
 51
233.384654
  0
ARC
  5
196C
  8
0
 10
305.5
 20
181.920345
 30
0.0
 40
11.079655
 50
18.615346
 51
161.384654
  0
ARC
  5
196D
  8
0
 10
335.382524
 20
160.209421
 30
0.0
 40
11.079655
 50
306.615346
 51
89.384654
  0
CIRCLE
  5
196E
  8
0
 10
305.5
 20
150.5
 30
0.0
 40
17.5
  0
CIRCLE
  5
196F
  8
0
 10
305.5
 20
150.5
 30
0.0
 40
10.0
  0
CIRCLE
  5
1970
  8
0
 10
305.5
 20
150.5
 30
0.0
 40
8.0
  0
CIRCLE
  5
1971
  8
0
 10
305.5
 20
150.5
 30
0.0
 40
6.5
  0
VIEWPORT
  5
22
 67
     1
  8
0
 10
261.517699
 20
148.5
 30
0.0
 40
523.035398
 41
297.0
 68
    -1
 69
     1
1001
ACAD
1000
MVIEW
1002
{
1070
    16
1010
0.0
1020
0.0
1030
0.0
1010
0.0
1020
0.0
1030
1.0
1040
0.0
1040
297.0
1040
261.517699
1040
148.5
1040
50.0
1040
0.0
1040
0.0
1070
     0
1070
   100
1070
     1
1070
     1
1070
     0
1070
     0
1070
     0
1070
     0
1040
0.0
1040
0.0
1040
0.0
1040
1.0
1040
1.0
1040
10.0
1040
10.0
1070
     0
1002
{
1002
}
1002
}
  0
ENDSEC
  0
EOF
