  0
SECTION
  2
HEADER
  9
$ACADVER
  1
AC1015
  9
$ACADMAINTVER
 70
    13
  9
$DWGCODEPAGE
  3
ANSI_932
  9
$INSBASE
 10
0.0
 20
0.0
 30
0.0
  9
$EXTMIN
 10
241.9630192679008
 20
158.6748683073721
 30
0.0
  9
$EXTMAX
 10
309.991166401126
 20
253.1186411170154
 30
0.0
  9
$LIMMIN
 10
0.0
 20
0.0
  9
$LIMMAX
 10
400.0
 20
277.0
  9
$ORTHOMODE
 70
     1
  9
$REGENMODE
 70
     1
  9
$FILLMODE
 70
     1
  9
$QTEXTMODE
 70
     0
  9
$MIRRTEXT
 70
     1
  9
$LTSCALE
 40
5.0
  9
$ATTMODE
 70
     1
  9
$TEXTSIZE
 40
2.5
  9
$TRACEWID
 40
1.0
  9
$TEXTSTYLE
  7
STANDARD
  9
$CLAYER
  8
0
  9
$CELTYPE
  6
ByLayer
  9
$CECOLOR
 62
   256
  9
$CELTSCALE
 40
1.0
  9
$DISPSILH
 70
     0
  9
$DIMSCALE
 40
1.0
  9
$DIMASZ
 40
2.5
  9
$DIMEXO
 40
1.0
  9
$DIMDLI
 40
6.0
  9
$DIMRND
 40
0.0
  9
$DIMDLE
 40
0.0
  9
$DIMEXE
 40
1.0
  9
$DIMTP
 40
495.0
  9
$DIMTM
 40
0.0
  9
$DIMTXT
 40
3.0
  9
$DIMCEN
 40
0.0
  9
$DIMTSZ
 40
0.0
  9
$DIMTOL
 70
     0
  9
$DIMLIM
 70
     0
  9
$DIMTIH
 70
     0
  9
$DIMTOH
 70
     0
  9
$DIMSE1
 70
     0
  9
$DIMSE2
 70
     0
  9
$DIMTAD
 70
     3
  9
$DIMZIN
 70
     8
  9
$DIMBLK
  1

  9
$DIMASO
 70
     0
  9
$DIMSHO
 70
     1
  9
$DIMPOST
  1

  9
$DIMAPOST
  1

  9
$DIMALT
 70
     0
  9
$DIMALTD
 70
     2
  9
$DIMALTF
 40
25.4
  9
$DIMLFAC
 40
1.0
  9
$DIMTOFL
 70
     1
  9
$DIMTVP
 40
0.0
  9
$DIMTIX
 70
     1
  9
$DIMSOXD
 70
     0
  9
$DIMSAH
 70
     0
  9
$DIMBLK1
  1

  9
$DIMBLK2
  1

  9
$DIMSTYLE
  2
ITM
  9
$DIMCLRD
 70
     0
  9
$DIMCLRE
 70
     0
  9
$DIMCLRT
 70
     0
  9
$DIMTFAC
 40
1.0
  9
$DIMGAP
 40
0.5
  9
$DIMJUST
 70
     0
  9
$DIMSD1
 70
     0
  9
$DIMSD2
 70
     0
  9
$DIMTOLJ
 70
     1
  9
$DIMTZIN
 70
     0
  9
$DIMALTZ
 70
     0
  9
$DIMALTTZ
 70
     0
  9
$DIMUPT
 70
     0
  9
$DIMDEC
 70
     4
  9
$DIMTDEC
 70
     4
  9
$DIMALTU
 70
     2
  9
$DIMALTTD
 70
     2
  9
$DIMTXSTY
  7
STANDARD
  9
$DIMAUNIT
 70
     0
  9
$DIMADEC
 70
     0
  9
$DIMALTRND
 40
0.0
  9
$DIMAZIN
 70
     0
  9
$DIMDSEP
 70
    46
  9
$DIMATFIT
 70
     3
  9
$DIMFRAC
 70
     0
  9
$DIMLDRBLK
  1

  9
$DIMLUNIT
 70
     2
  9
$DIMLWD
 70
    -2
  9
$DIMLWE
 70
    -2
  9
$DIMTMOVE
 70
     0
  9
$LUNITS
 70
     2
  9
$LUPREC
 70
     2
  9
$SKETCHINC
 40
1.0
  9
$FILLETRAD
 40
31.0
  9
$AUNITS
 70
     0
  9
$AUPREC
 70
     0
  9
$MENU
  1
.
  9
$ELEVATION
 40
0.0
  9
$PELEVATION
 40
0.0
  9
$THICKNESS
 40
0.0
  9
$LIMCHECK
 70
     0
  9
$CHAMFERA
 40
10.0
  9
$CHAMFERB
 40
10.0
  9
$CHAMFERC
 40
0.0
  9
$CHAMFERD
 40
0.0
  9
$SKPOLY
 70
     0
  9
$TDCREATE
 40
2451449.307680995
  9
$TDUCREATE
 40
2451448.932680995
  9
$TDUPDATE
 40
2454132.543491030
  9
$TDUUPDATE
 40
2454132.168491030
  9
$TDINDWG
 40
0.3758647685
  9
$TDUSRTIMER
 40
0.1336087731
  9
$USRTIMER
 70
     1
  9
$ANGBASE
 50
0.0
  9
$ANGDIR
 70
     0
  9
$PDMODE
 70
     0
  9
$PDSIZE
 40
0.0
  9
$PLINEWID
 40
0.0
  9
$SPLFRAME
 70
     0
  9
$SPLINETYPE
 70
     6
  9
$SPLINESEGS
 70
     8
  9
$HANDSEED
  5
AB6
  9
$SURFTAB1
 70
     6
  9
$SURFTAB2
 70
     6
  9
$SURFTYPE
 70
     6
  9
$SURFU
 70
     6
  9
$SURFV
 70
     6
  9
$UCSBASE
  2

  9
$UCSNAME
  2

  9
$UCSORG
 10
0.0
 20
0.0
 30
0.0
  9
$UCSXDIR
 10
1.0
 20
0.0
 30
0.0
  9
$UCSYDIR
 10
0.0
 20
1.0
 30
0.0
  9
$UCSORTHOREF
  2

  9
$UCSORTHOVIEW
 70
     0
  9
$UCSORGTOP
 10
0.0
 20
0.0
 30
0.0
  9
$UCSORGBOTTOM
 10
0.0
 20
0.0
 30
0.0
  9
$UCSORGLEFT
 10
0.0
 20
0.0
 30
0.0
  9
$UCSORGRIGHT
 10
0.0
 20
0.0
 30
0.0
  9
$UCSORGFRONT
 10
0.0
 20
0.0
 30
0.0
  9
$UCSORGBACK
 10
0.0
 20
0.0
 30
0.0
  9
$PUCSBASE
  2

  9
$PUCSNAME
  2

  9
$PUCSORG
 10
0.0
 20
0.0
 30
0.0
  9
$PUCSXDIR
 10
1.0
 20
0.0
 30
0.0
  9
$PUCSYDIR
 10
0.0
 20
1.0
 30
0.0
  9
$PUCSORTHOREF
  2

  9
$PUCSORTHOVIEW
 70
     0
  9
$PUCSORGTOP
 10
0.0
 20
0.0
 30
0.0
  9
$PUCSORGBOTTOM
 10
0.0
 20
0.0
 30
0.0
  9
$PUCSORGLEFT
 10
0.0
 20
0.0
 30
0.0
  9
$PUCSORGRIGHT
 10
0.0
 20
0.0
 30
0.0
  9
$PUCSORGFRONT
 10
0.0
 20
0.0
 30
0.0
  9
$PUCSORGBACK
 10
0.0
 20
0.0
 30
0.0
  9
$USERI1
 70
     3
  9
$USERI2
 70
     1
  9
$USERI3
 70
     1
  9
$USERI4
 70
     0
  9
$USERI5
 70
     0
  9
$USERR1
 40
1.0
  9
$USERR2
 40
3.0
  9
$USERR3
 40
3.0
  9
$USERR4
 40
2.5
  9
$USERR5
 40
10.0
  9
$WORLDVIEW
 70
     1
  9
$SHADEDGE
 70
     3
  9
$SHADEDIF
 70
    70
  9
$TILEMODE
 70
     1
  9
$MAXACTVP
 70
    16
  9
$PINSBASE
 10
0.0
 20
0.0
 30
0.0
  9
$PLIMCHECK
 70
     0
  9
$PEXTMIN
 10
-1.000000000000000E+20
 20
-1.000000000000000E+20
 30
-1.000000000000000E+20
  9
$PEXTMAX
 10
1.000000000000000E+20
 20
1.000000000000000E+20
 30
1.000000000000000E+20
  9
$PLIMMIN
 10
0.0
 20
0.0
  9
$PLIMMAX
 10
420.0
 20
297.0
  9
$UNITMODE
 70
     0
  9
$VISRETAIN
 70
     0
  9
$PLINEGEN
 70
     0
  9
$PSLTSCALE
 70
     1
  9
$TREEDEPTH
 70
  3020
  9
$CMLSTYLE
  2
Standard
  9
$CMLJUST
 70
     0
  9
$CMLSCALE
 40
1.0
  9
$PROXYGRAPHICS
 70
     1
  9
$MEASUREMENT
 70
     0
  9
$CELWEIGHT
370
    -1
  9
$ENDCAPS
280
     0
  9
$JOINSTYLE
280
     0
  9
$LWDISPLAY
290
     0
  9
$INSUNITS
 70
     0
  9
$HYPERLINKBASE
  1

  9
$STYLESHEET
  1

  9
$XEDIT
290
     1
  9
$CEPSNTYPE
380
     0
  9
$PSTYLEMODE
290
     1
  9
$FINGERPRINTGUID
  2
{9CDD05D4-AE84-41B1-88E2-695BC45DB091}
  9
$VERSIONGUID
  2
{BBE3C8B1-9A8D-4630-B316-93606B131A59}
  9
$EXTNAMES
290
     1
  9
$PSVPSCALE
 40
0.0
  9
$OLESTARTUP
290
     0
  0
ENDSEC
  0
SECTION
  2
CLASSES
  0
CLASS
  1
ACDBDICTIONARYWDFLT
  2
AcDbDictionaryWithDefault
  3
AutoCAD 2000
 90
        0
280
     0
281
     0
  0
CLASS
  1
ACDBPLACEHOLDER
  2
AcDbPlaceHolder
  3
AutoCAD 2000
 90
        0
280
     0
281
     0
  0
CLASS
  1
LAYOUT
  2
AcDbLayout
  3
AutoCAD 2000
 90
        0
280
     0
281
     0
  0
CLASS
  1
AMGSETTINGSOBJ
  2
AmgSettingsObj
  3
"AcadM|Product Description: AutoCAD Mechanical 2000|Company: Autodesk"
 90
        0
280
     0
281
     0
  0
CLASS
  1
ACME_DOCUMENT
  2
AcMeDbDoc
  3
AcMeServices
 90
        0
280
     0
281
     0
  0
CLASS
  1
ACMESCOPE
  2
AcMeScope
  3
AcMeServices
 90
        0
280
     0
281
     0
  0
CLASS
  1
ACMECOMMANDHISTORY
  2
AcMeCommandHistory
  3
AcMeServices
 90
        0
280
     0
281
     0
  0
CLASS
  1
ACIMSYSVARMAN
  2
AcImSysVarManager
  3
AcMeServices
 90
        0
280
     0
281
     0
  0
CLASS
  1
ACIMREALSYSVAR
  2
AcImRealSysVar
  3
AcMeServices
 90
        0
280
     0
281
     0
  0
CLASS
  1
ACIMINTSYSVAR
  2
AcImIntSysVar
  3
AcMeServices
 90
        0
280
     0
281
     0
  0
CLASS
  1
ACMEDRAWINGMAN
  2
AcMeDrawingMan
  3
AcMeServices
 90
        0
280
     0
281
     0
  0
CLASS
  1
ACMEVIEW
  2
AcMeView
  3
AcMeServices
 90
        0
280
     0
281
     0
  0
CLASS
  1
ACDBENTITYCACHE
  2
AcMeEntityCache
  3
AcMeServices
 90
        0
280
     0
281
     0
  0
CLASS
  1
GSMANAGER
  2
AcMeGSManager
  3
AcMeServices
 90
        0
280
     0
281
     0
  0
CLASS
  1
AMDTINTERNALREACTOR
  2
AmdtInternalReactor
  3
AcMeServices
 90
        0
280
     0
281
     0
  0
CLASS
  1
ACMESTATEMGR
  2
AcMeStateMgr
  3
AcMeServices
 90
        0
280
     0
281
     0
  0
CLASS
  1
ACGREFMASTER
  2
AcGrefMaster
  3
AcAttribServices
 90
        0
280
     0
281
     0
  0
CLASS
  1
AM_DRAWING_MGR
  2
AcDmDwgMgr
  3
AcMechDwgViewMgmt
 90
        0
280
     0
281
     0
  0
CLASS
  1
AM_DWG_DOCUMENT
  2
AcDmDwgDocument
  3
AcMechDwgViewMgmt
 90
        0
280
     0
281
     0
  0
CLASS
  1
AM_DWG_SHEET
  2
AcDmSheet
  3
AcMechDwgViewMgmt
 90
        0
280
     0
281
     0
  0
CLASS
  1
AM_VIEWDIMPARMAP
  2
AcDmViewDimParMap
  3
AcMechDwgViewMgmt
 90
        0
280
     0
281
     0
  0
CLASS
  1
AM_DWGMGR_NAME
  2
AcDmDwgMgrName
  3
AcMechDwgViewMgmt
 90
        0
280
     0
281
     0
  0
CLASS
  1
ACME_DATABASE
  2
AcMeDbDatabase
  3
AcMeServices
 90
        0
280
     0
281
     0
  0
CLASS
  1
ACRFINSADJUSTERMGR
  2
AcRfInsAdjusterMgr
  3
AcMeServices
 90
        0
280
     0
281
     0
  0
CLASS
  1
ACGREFACADMASTER
  2
AcGrefacadMaster
  3
AcGrefServices
 90
        0
280
     0
281
     0
  0
CLASS
  1
AMDTMENUSTATEMGR
  2
AmdtMenuStateMgr
  3
McadcomServices
 90
        0
280
     0
281
     0
  0
CLASS
  1
AMDTMCOMMENUSTATE
  2
AmdtMcomMenuState
  3
McadcomServices
 90
        0
280
     0
281
     0
  0
CLASS
  1
AMIMASTER
  2
AmiMaster
  3
AmiServices
 90
        0
280
     0
281
     0
  0
CLASS
  1
ASAPP
  2
AcAsAppObject
  3
AutoSurfServices
 90
        0
280
     0
281
     0
  0
CLASS
  1
IM_STATIC_MAN
  2
AcImStaticVarManager
  3
AcMeServices
 90
        0
280
     0
281
     0
  0
CLASS
  1
ACIMSTRSYSVAR
  2
AcImStrSysVar
  3
AcMeServices
 90
        0
280
     0
281
     0
  0
CLASS
  1
ACIMDBLSTATICVAR
  2
AcImDblStaticVar
  3
AcMeServices
 90
        0
280
     0
281
     0
  0
CLASS
  1
ACIMSTRSTATICVAR
  2
AcImStrStaticVar
  3
AcMeServices
 90
        0
280
     0
281
     0
  0
CLASS
  1
ACIMINTSTATICVAR
  2
AcImIntStaticVar
  3
AcMeServices
 90
        0
280
     0
281
     0
  0
CLASS
  1
ACASGREFMASTER
  2
AcAsGrefMaster
  3
AutoSurfResolverServices
 90
        0
280
     0
281
     0
  0
CLASS
  1
ACADGREFMODULE
  2
AcAdGrefModule
  3
AdGrefServices
 90
        0
280
     0
281
     0
  0
CLASS
  1
AMDTMAPISURFMOUDULE
  2
AmdtMApiSurfModule
  3
MApiSurfServices
 90
        0
280
     0
281
     0
  0
CLASS
  1
MAPIAMMOUDLE
  2
MApiAmModule
  3
MApiAmServices
 90
        0
280
     0
281
     0
  0
CLASS
  1
AMDTADMENUSTATE
  2
AmdtAdMenuState
  3
DesignerServices
 90
        0
280
     0
281
     0
  0
CLASS
  1
ADAPPL
  2
AcAdAppl
  3
DesignerServices
 90
        0
280
     0
281
     0
  0
CLASS
  1
DEPMGR
  2
AcAdDepMgr
  3
DesignerServices
 90
        0
280
     0
281
     0
  0
CLASS
  1
PARAMMGR
  2
AcAdParamMgr
  3
DesignerServices
 90
        0
280
     0
281
     0
  0
CLASS
  1
PARAMSCOPE
  2
AcAdParamScope
  3
DesignerServices
 90
        0
280
     0
281
     0
  0
CLASS
  1
NAMEDAPPL
  2
AcAdNamedAppl
  3
DesignerServices
 90
        0
280
     0
281
     0
  0
CLASS
  1
AMDTDMMENUSTATE
  2
AmdtDmMenuState
  3
AcMechDwgViewMgmt
 90
        0
280
     0
281
     0
  0
CLASS
  1
MAPIADMODULE
  2
MApiAdModule
  3
MApiAdServices
 90
        0
280
     0
281
     0
  0
CLASS
  1
AMDTAMMENUSTATE
  2
AmdtAmMenuState
  3
DesignerAssemblies
 90
        0
280
     0
281
     0
  0
CLASS
  1
ACAMPROJECT
  2
AcAmProject
  3
DesignerAssemblies
 90
        0
280
     0
281
     0
  0
CLASS
  1
ACAMGRCOMPDEF
  2
AcAmGrCompDef
  3
DesignerAssemblies
 90
        0
280
     0
281
     0
  0
CLASS
  1
ACCMCONTEXT
  2
AcCmContext
  3
DesignerAssemblies
 90
        0
280
     0
281
     0
  0
CLASS
  1
ACAMCOMPDEF
  2
AcAmCompDef
  3
DesignerAssemblies
 90
        0
280
     0
281
     0
  0
CLASS
  1
ACAMCOMPDEFMGR
  2
AcAmCompDefMgr
  3
DesignerAssemblies
 90
        0
280
     0
281
     0
  0
CLASS
  1
AMCONTEXTMGR
  2
AcAmContextMgr
  3
DesignerAssemblies
 90
        0
280
     0
281
     0
  0
CLASS
  1
ACAMCONTEXTMODELER
  2
AcAmContextModeler
  3
DesignerAssemblies
 90
        0
280
     0
281
     0
  0
CLASS
  1
ACMDATADICTIONARY
  2
AcmDataDictionary
  3
"AcmSymBB|Product Description: AutoCAD Mechanical 2000|Company: Autodesk"
 90
        0
280
     0
281
     0
  0
CLASS
  1
ACMDATAENTRYBLOCK
  2
AcmDataEntryBlock
  3
"AcmSymBB|Product Description: AutoCAD Mechanical 2000|Company: Autodesk"
 90
        0
280
     0
281
     0
  0
CLASS
  1
CATALOGSTATE
  2
AcAmCatalogState
  3
DesignerAssemblies
 90
        0
280
     0
281
     0
  0
CLASS
  1
ACAMGRCOMPDEFSET
  2
AcAmGrCompDefSet
  3
DesignerAssemblies
 90
        0
280
     0
281
     0
  0
CLASS
  1
AMDTBROWSERDBTAB
  2
AmdtBrowserDbTab
  3
McadcomServices
 90
        0
280
     0
281
     0
  0
CLASS
  1
CBROWSERAPPOBJECT
  2
CBrowserAppObject
  3
McadcomServices
 90
        0
280
     0
281
     0
  0
CLASS
  1
DM_PLACEHOLDER
  2
AcDmSelsetPlaceholder
  3
AcMechDwgViewMgmt
 90
        0
280
     0
281
     0
  0
CLASS
  1
AMGOBJPROPCFG
  2
AmgObjPropCfg
  3
"AmgLay|Product Description: AutoCAD Mechanical 2000|Company: Autodesk"
 90
        1
280
     0
281
     0
  0
CLASS
  1
ACAMGFILTERDAT
  2
AcAmgFilterDat
  3
"AcadM|Product Description: AutoCAD Mechanical 2000|Company: Autodesk"
 90
        0
280
     0
281
     0
  0
CLASS
  1
AMDTFORMULAUPDATEDISPATCHER
  2
AmdtFormulaUpdateDispatcher
  3
AcMeServices
 90
        0
280
     0
281
     0
  0
CLASS
  1
LAYER_INDEX
  2
AcDbLayerIndex
  3
AutoCAD 2000
 90
        0
280
     0
281
     0
  0
CLASS
  1
IDBUFFER
  2
AcDbIdBuffer
  3
AutoCAD 2000
 90
        0
280
     0
281
     0
  0
CLASS
  1
DICTIONARYVAR
  2
AcDbDictionaryVar
  3
AutoCAD 2000
 90
        0
280
     0
281
     0
  0
ENDSEC
  0
SECTION
  2
TABLES
  0
TABLE
  2
VPORT
  5
8
330
0
100
AcDbSymbolTable
 70
     5
  0
VPORT
  5
AB5
330
8
100
AcDbSymbolTableRecord
100
AcDbViewportTableRecord
  2
*Active
 70
     0
 10
0.0
 20
0.0
 11
1.0
 21
1.0
 12
0.0
 22
0.0
 13
0.0
 23
0.0
 14
10.0
 24
10.0
 15
10.0
 25
10.0
 16
0.0
 26
0.0
 36
1.0
 17
350.3808809782677
 27
190.8259397786558
 37
0.0
 40
184.1988471355271
 41
1.462378640776698
 42
50.0
 43
0.0
 44
0.0
 50
0.0
 51
0.0
 71
     0
 72
   100
 73
     1
 74
     0
 75
     0
 76
     0
 77
     0
 78
     0
281
     0
 65
     0
110
0.0
120
0.0
130
0.0
111
1.0
121
0.0
131
0.0
112
0.0
122
1.0
132
0.0
 79
     0
146
0.0
  0
ENDTAB
  0
TABLE
  2
LTYPE
  5
5
330
0
100
AcDbSymbolTable
 70
    16
  0
LTYPE
  5
13
330
5
100
AcDbSymbolTableRecord
100
AcDbLinetypeTableRecord
  2
ByBlock
 70
     0
  3

 72
    65
 73
     0
 40
0.0
  0
LTYPE
  5
14
330
5
100
AcDbSymbolTableRecord
100
AcDbLinetypeTableRecord
  2
ByLayer
 70
     0
  3

 72
    65
 73
     0
 40
0.0
  0
LTYPE
  5
15
330
5
100
AcDbSymbolTableRecord
100
AcDbLinetypeTableRecord
  2
CONTINUOUS
 70
     0
  3
Solid line
 72
    65
 73
     0
 40
0.0
  0
LTYPE
  5
23
330
5
100
AcDbSymbolTableRecord
100
AcDbLinetypeTableRecord
  2
CENTER
 70
     0
  3
____ _ ____ _ ____ _ ____ _ ____ _ ____ _ ____
 72
    65
 73
     4
 40
2.0
 49
1.25
 74
     0
 49
-0.25
 74
     0
 49
0.25
 74
     0
 49
-0.25
 74
     0
  0
LTYPE
  5
B4
330
5
100
AcDbSymbolTableRecord
100
AcDbLinetypeTableRecord
  2
HIDDEN
 70
     0
  3
Hidden __ __ __ __ __ __ __ __ __ __ __ __ __ _
 72
    65
 73
     2
 40
0.375
 49
0.25
 74
     0
 49
-0.125
 74
     0
  0
LTYPE
  5
B5
330
5
100
AcDbSymbolTableRecord
100
AcDbLinetypeTableRecord
  2
PHANTOM2
 70
     0
  3
Phantom (.5x) ___ _ _ ___ _ _ ___ _ _ ___ _ _
 72
    65
 73
     6
 40
1.25
 49
0.625
 74
     0
 49
-0.125
 74
     0
 49
0.125
 74
     0
 49
-0.125
 74
     0
 49
0.125
 74
     0
 49
-0.125
 74
     0
  0
LTYPE
  5
117
330
5
100
AcDbSymbolTableRecord
100
AcDbLinetypeTableRecord
  2
ASULTYPE
 70
     0
  3
実線
 72
    65
 73
     2
 40
3.0
 49
2.5
 74
     0
 49
0.5
 74
     0
  0
LTYPE
  5
118
330
5
100
AcDbSymbolTableRecord
100
AcDbLinetypeTableRecord
  2
ASVLTYPE
 70
     0
  3
__ __ __ __ __ __ __ __ __ __ __ __ __ __ __ __ __ __ __ __ __
 72
    65
 73
     2
 40
0.75
 49
0.5
 74
     0
 49
-0.25
 74
     0
  0
LTYPE
  5
159
330
5
100
AcDbSymbolTableRecord
100
AcDbLinetypeTableRecord
  2
AM_ISO02W050
 70
     0
  3
__ __ __ __ __ __ __ __ __ __ __ __ __ __ __
 72
    65
 73
     2
 40
7.5
 49
6.0
 74
     0
 49
-1.5
 74
     0
  0
LTYPE
  5
15A
330
5
100
AcDbSymbolTableRecord
100
AcDbLinetypeTableRecord
  2
AM_ISO08W050
 70
     0
  3
____ . ____ . ____ . ____ . ____ . ____ . ____
 72
    65
 73
     4
 40
18.0
 49
12.0
 74
     0
 49
-1.5
 74
     0
 49
3.0
 74
     0
 49
-1.5
 74
     0
  0
LTYPE
  5
15B
330
5
100
AcDbSymbolTableRecord
100
AcDbLinetypeTableRecord
  2
AM_ISO09W050
 70
     0
  3
_____ . . _____ . . _____ . . ____ .. ____
 72
    65
 73
     6
 40
22.5
 49
12.0
 74
     0
 49
-1.5
 74
     0
 49
3.0
 74
     0
 49
-1.5
 74
     0
 49
3.0
 74
     0
 49
-1.5
 74
     0
  0
LTYPE
  5
15C
330
5
100
AcDbSymbolTableRecord
100
AcDbLinetypeTableRecord
  2
Amconstr
 70
     0
  3
_______________________
 72
    65
 73
     2
 40
9999.0
 49
9999.0
 74
     0
 49
0.0
 74
     0
  0
LTYPE
  5
15D
330
5
100
AcDbSymbolTableRecord
100
AcDbLinetypeTableRecord
  2
AM_ISO08W050x2
 70
     0
  3
__ . __ . __ . __ . __ . __
 72
    65
 73
     4
 40
9.0
 49
6.0
 74
     0
 49
-0.75
 74
     0
 49
1.5
 74
     0
 49
-0.75
 74
     0
  0
LTYPE
  5
15E
330
5
100
AcDbSymbolTableRecord
100
AcDbLinetypeTableRecord
  2
AM_ISO02W050x2
 70
     0
  3
 _ _ _ _ _ _ _ _ _ _ _ _
 72
    65
 73
     2
 40
3.75
 49
3.0
 74
     0
 49
-0.75
 74
     0
  0
LTYPE
  5
161
330
5
100
AcDbSymbolTableRecord
100
AcDbLinetypeTableRecord
  2
Amzigzag
 70
     0
  3
/\/-/\/-/\/-/\/-/\/-/\/
 72
    65
 73
     2
 40
11.00009999999999
 49
0.0001
 74
     4
 75
   135
340
160
 46
0.04
 50
0.0
 44
0.0
 45
0.0
 49
-11.0
 74
     0
  0
LTYPE
  5
162
330
5
100
AcDbSymbolTableRecord
100
AcDbLinetypeTableRecord
  2
CENTER2
 70
     0
  3
Center (.5x) ___ _ ___ _ ___ _ ___ _ ___ _ ___
 72
    65
 73
     4
 40
1.125
 49
0.75
 74
     0
 49
-0.125
 74
     0
 49
0.125
 74
     0
 49
-0.125
 74
     0
  0
LTYPE
  5
163
330
5
100
AcDbSymbolTableRecord
100
AcDbLinetypeTableRecord
  2
HIDDEN2
 70
     0
  3
Hidden (.5x) _ _ _ _ _ _ _ _ _ _ _ _ _ _ _ _ _
 72
    65
 73
     2
 40
0.1875
 49
0.125
 74
     0
 49
-0.0625
 74
     0
  0
LTYPE
  5
164
330
5
100
AcDbSymbolTableRecord
100
AcDbLinetypeTableRecord
  2
Amzigzag2
 70
     0
  3
/\/-/\/-/\/-/\/-/\/-/\/
 72
    65
 73
     2
 40
0.4401
 49
0.0001
 74
     4
 75
   135
340
160
 46
0.0016
 50
0.0
 44
0.0
 45
0.0
 49
-0.4400000000000003
 74
     0
  0
ENDTAB
  0
TABLE
  2
LAYER
  5
2
330
0
100
AcDbSymbolTable
 70
     9
  0
LAYER
  5
10
330
2
100
AcDbSymbolTableRecord
100
AcDbLayerTableRecord
  2
0
 70
     0
 62
     7
  6
CONTINUOUS
370
    -3
390
F
  0
LAYER
  5
22
330
2
100
AcDbSymbolTableRecord
100
AcDbLayerTableRecord
  2
CONTINUOUS
 70
     0
 62
     7
  6
CONTINUOUS
370
    -3
390
F
  0
LAYER
  5
24
330
2
100
AcDbSymbolTableRecord
100
AcDbLayerTableRecord
  2
CENTER
 70
     0
 62
     1
  6
CENTER
370
    -3
390
F
  0
LAYER
  5
25
330
2
100
AcDbSymbolTableRecord
100
AcDbLayerTableRecord
  2
DIVIDE
 70
     0
 62
     7
  6
CONTINUOUS
370
    -3
390
F
  0
LAYER
  5
26
330
2
100
AcDbSymbolTableRecord
100
AcDbLayerTableRecord
  2
TEXT
 70
     0
 62
     3
  6
CONTINUOUS
370
    -3
390
F
  0
LAYER
  5
27
330
2
100
AcDbSymbolTableRecord
100
AcDbLayerTableRecord
  2
THIN
 70
     0
 62
     4
  6
CONTINUOUS
370
    -3
390
F
  0
LAYER
  5
16F
330
2
100
AcDbSymbolTableRecord
100
AcDbLayerTableRecord
  2
1
 70
     0
 62
     1
  6
CENTER
370
    -3
390
F
  0
LAYER
  5
170
330
2
100
AcDbSymbolTableRecord
100
AcDbLayerTableRecord
  2
2
 70
     0
 62
     7
  6
HIDDEN
370
    -3
390
F
  0
LAYER
  5
7BC
330
2
100
AcDbSymbolTableRecord
100
AcDbLayerTableRecord
  2
DOTTED
 70
     0
 62
     7
  6
HIDDEN
370
    -3
390
F
  0
ENDTAB
  0
TABLE
  2
STYLE
  5
3
330
0
100
AcDbSymbolTable
 70
     3
  0
STYLE
  5
11
330
3
100
AcDbSymbolTableRecord
100
AcDbTextStyleTableRecord
  2
STANDARD
 70
     0
 40
0.0
 41
1.0
 50
0.0
 71
     0
 42
2.5
  3
ROMANS.shx
  4
EXTFONT.shx
  0
STYLE
  5
28
330
3
100
AcDbSymbolTableRecord
100
AcDbTextStyleTableRecord
  2
K
 70
     0
 40
0.0
 41
1.0
 50
15.0
 71
     0
 42
1.0
  3
ROMANS
  4
EXTFONT
  0
STYLE
  5
160
330
3
100
AcDbSymbolTableRecord
100
AcDbTextStyleTableRecord
  2

 70
     1
 40
0.0
 41
1.0
 50
0.0
 71
     0
 42
2.5
  3
ltypeshp.shx
  4

  0
ENDTAB
  0
TABLE
  2
VIEW
  5
6
330
0
100
AcDbSymbolTable
 70
     0
  0
ENDTAB
  0
TABLE
  2
UCS
  5
7
330
0
100
AcDbSymbolTable
 70
     0
  0
ENDTAB
  0
TABLE
  2
APPID
  5
9
330
0
100
AcDbSymbolTable
 70
    12
  0
APPID
  5
12
330
9
100
AcDbSymbolTableRecord
100
AcDbRegAppTableRecord
  2
ACAD
 70
     0
  0
APPID
  5
93
330
9
100
AcDbSymbolTableRecord
100
AcDbRegAppTableRecord
  2
GENIUS_GENDIM_13
 70
     0
  0
APPID
  5
94
330
9
100
AcDbSymbolTableRecord
100
AcDbRegAppTableRecord
  2
GENIUS_GENDTOL_13
 70
     0
  0
APPID
  5
95
330
9
100
AcDbSymbolTableRecord
100
AcDbRegAppTableRecord
  2
GENIUS_GE3DTOL_13
 70
     0
  0
APPID
  5
97
330
9
100
AcDbSymbolTableRecord
100
AcDbRegAppTableRecord
  2
MCAD_NO_VIS
 70
     0
  0
APPID
  5
98
330
9
100
AcDbSymbolTableRecord
100
AcDbRegAppTableRecord
  2
ACAD_TEMP_GRAPHIC
 70
     0
  0
APPID
  5
CA
330
9
100
AcDbSymbolTableRecord
100
AcDbRegAppTableRecord
  2
AD_DRAW
 70
     0
  0
APPID
  5
CD
330
9
100
AcDbSymbolTableRecord
100
AcDbRegAppTableRecord
  2
ACATTRIBSERVICES
 70
     0
  0
APPID
  5
119
330
9
100
AcDbSymbolTableRecord
100
AcDbRegAppTableRecord
  2
ASURF_PCURVE_APPNAME
 70
     0
  0
APPID
  5
148
330
9
100
AcDbSymbolTableRecord
100
AcDbRegAppTableRecord
  2
DESIGNERASSEMBLIES
 70
     0
  0
APPID
  5
150
330
9
100
AcDbSymbolTableRecord
100
AcDbRegAppTableRecord
  2
ACADM_DIM_EDIT
 70
     0
  0
APPID
  5
151
330
9
100
AcDbSymbolTableRecord
100
AcDbRegAppTableRecord
  2
AMDT_DM_ADJ
 70
     0
  0
ENDTAB
  0
TABLE
  2
DIMSTYLE
  5
A
330
0
100
AcDbSymbolTable
 70
     2
100
AcDbDimStyleTable
 71
     1
340
29
  0
DIMSTYLE
105
29
330
A
100
AcDbSymbolTableRecord
100
AcDbDimStyleTableRecord
  2
ITM
 70
     0
 41
1.5
 42
1.0
 43
6.0
 44
1.0
 47
495.0
 73
     0
 74
     0
 77
     3
 78
     8
140
3.0
141
0.0
147
0.5
172
     1
173
     1
174
     1
271
     2
272
     2
279
     2
284
     8
285
     8
286
     8
340
11
  0
DIMSTYLE
105
171
330
A
100
AcDbSymbolTableRecord
100
AcDbDimStyleTableRecord
  2
STANDARD
 70
     0
279
     2
340
11
  0
ENDTAB
  0
TABLE
  2
BLOCK_RECORD
  5
1
330
0
100
AcDbSymbolTable
 70
     3
  0
BLOCK_RECORD
  5
1E
102
{ACAD_XDICTIONARY
360
267
102
}
330
1
100
AcDbSymbolTableRecord
100
AcDbBlockTableRecord
  2
*Model_Space
340
21
  0
BLOCK_RECORD
  5
1A
330
1
100
AcDbSymbolTableRecord
100
AcDbBlockTableRecord
  2
*Paper_Space
340
1D
  0
BLOCK_RECORD
  5
13F
330
1
100
AcDbSymbolTableRecord
100
AcDbBlockTableRecord
  2
*U0
340
0
  0
BLOCK_RECORD
  5
79F
330
1
100
AcDbSymbolTableRecord
100
AcDbBlockTableRecord
  2
*U1
340
0
  0
BLOCK_RECORD
  5
A8A
330
1
100
AcDbSymbolTableRecord
100
AcDbBlockTableRecord
  2
*U2
340
0
  0
ENDTAB
  0
ENDSEC
  0
SECTION
  2
BLOCKS
  0
BLOCK
  5
1F
330
1E
100
AcDbEntity
  8
0
100
AcDbBlockBegin
  2
*Model_Space
 70
     0
 10
0.0
 20
0.0
 30
0.0
  3
*Model_Space
  1

  0
ENDBLK
  5
20
330
1E
100
AcDbEntity
  8
0
100
AcDbBlockEnd
  0
BLOCK
  5
1B
330
1A
100
AcDbEntity
 67
     1
  8
0
100
AcDbBlockBegin
  2
*Paper_Space
 70
     0
 10
0.0
 20
0.0
 30
0.0
  3
*Paper_Space
  1

  0
ENDBLK
  5
1C
330
1A
100
AcDbEntity
 67
     1
  8
0
100
AcDbBlockEnd
  0
BLOCK
  5
140
330
13F
100
AcDbEntity
  8
0
100
AcDbBlockBegin
  2
*U0
 70
     1
 10
0.0
 20
0.0
 30
0.0
  3
*U0
  1

  0
ENDBLK
  5
141
330
13F
100
AcDbEntity
  8
0
100
AcDbBlockEnd
  0
BLOCK
  5
7A0
330
79F
100
AcDbEntity
  8
0
100
AcDbBlockBegin
  2
*U1
 70
     1
 10
0.0
 20
0.0
 30
0.0
  3
*U1
  1

  0
ENDBLK
  5
7A1
330
79F
100
AcDbEntity
  8
0
100
AcDbBlockEnd
  0
BLOCK
  5
A8B
330
A8A
100
AcDbEntity
  8
0
100
AcDbBlockBegin
  2
*U2
 70
     1
 10
0.0
 20
0.0
 30
0.0
  3
*U2
  1

  0
ENDBLK
  5
A8C
330
A8A
100
AcDbEntity
  8
0
100
AcDbBlockEnd
  0
ENDSEC
  0
SECTION
  2
ENTITIES
  0
ARC
  5
98C
330
1E
100
AcDbEntity
  8
CONTINUOUS
100
AcDbCircle
 10
257.4063671015508
 20
258.033985307372
 30
0.0
 40
17.0
100
AcDbArc
 50
261.215441000001
 51
304.4988450000005
  0
ARC
  5
98D
330
1E
100
AcDbEntity
  8
CONTINUOUS
100
AcDbCircle
 10
257.4063671015508
 20
191.920931307372
 30
0.0
 40
17.0
100
AcDbArc
 50
55.50115499999935
 51
98.7845590000005
  0
POLYLINE
  5
98E
330
1E
100
AcDbEntity
  8
CONTINUOUS
100
AcDb2dPolyline
 66
     1
 10
0.0
 20
0.0
 30
0.0
  0
VERTEX
  5
98F
330
98E
100
AcDbEntity
  8
CONTINUOUS
100
AcDbVertex
100
AcDb2dVertex
 10
267.0349901015508
 20
177.6748683073719
 30
0.0
 42
0.211404
 50
90.0
  0
VERTEX
  5
990
330
98E
100
AcDbEntity
  8
CONTINUOUS
100
AcDbVertex
100
AcDb2dVertex
 10
266.7122201015508
 20
178.404148307372
 30
0.0
 42
0.09467
 50
90.0
  0
VERTEX
  5
991
330
98E
100
AcDbEntity
  8
CONTINUOUS
100
AcDbVertex
100
AcDb2dVertex
 10
265.2447021015508
 20
179.3012153073721
 30
0.0
 42
0.051364
 70
     2
 50
159.379545
  0
VERTEX
  5
992
330
98E
100
AcDbEntity
  8
CONTINUOUS
100
AcDbVertex
100
AcDb2dVertex
 10
263.4192311015508
 20
179.781470307372
 30
0.0
 42
0.038674
 50
159.379545
  0
VERTEX
  5
993
330
98E
100
AcDbEntity
  8
CONTINUOUS
100
AcDbVertex
100
AcDb2dVertex
 10
260.9225631015508
 20
179.9748693073721
 30
0.0
 42
0.038674
 50
90.0
  0
VERTEX
  5
994
330
98E
100
AcDbEntity
  8
CONTINUOUS
100
AcDbVertex
100
AcDb2dVertex
 10
258.4258941015507
 20
179.781470307372
 30
0.0
 42
0.051364
 50
90.0
  0
VERTEX
  5
995
330
98E
100
AcDbEntity
  8
CONTINUOUS
100
AcDbVertex
100
AcDb2dVertex
 10
256.6004241015507
 20
179.3012153073721
 30
0.0
 42
0.09467
 70
     2
 50
200.620455
  0
VERTEX
  5
996
330
98E
100
AcDbEntity
  8
CONTINUOUS
100
AcDbVertex
100
AcDb2dVertex
 10
255.1329051015508
 20
178.404148307372
 30
0.0
 42
0.211404
 50
200.620455
  0
VERTEX
  5
997
330
98E
100
AcDbEntity
  8
CONTINUOUS
100
AcDbVertex
100
AcDb2dVertex
 10
254.8101351015508
 20
177.6748683073719
 30
0.0
 42
0.211404
 50
90.0
  0
SEQEND
  5
998
330
98E
100
AcDbEntity
  8
CONTINUOUS
  0
ARC
  5
999
330
1E
100
AcDbEntity
  8
CONTINUOUS
100
AcDbCircle
 10
264.9513031015508
 20
119.6748683073721
 30
0.0
 40
65.0
100
AcDbArc
 50
90.0
 51
102.5558579999995
  0
ARC
  5
99A
330
1E
100
AcDbEntity
  8
CONTINUOUS
100
AcDbCircle
 10
256.9254601015507
 20
160.674868307372
 30
0.0
 40
1.0
100
AcDbArc
 50
181.4999999999994
 51
270.0
  0
LINE
  5
99B
330
1E
100
AcDbEntity
  8
CONTINUOUS
100
AcDbLine
 10
245.4513031015508
 20
172.674868307372
 30
0.0
 11
282.7554631015508
 21
172.674868307372
 31
0.0
  0
LINE
  5
99C
330
1E
100
AcDbEntity
  8
CENTER
100
AcDbLine
 10
243.9513031015508
 20
224.9774583073721
 30
0.0
 11
282.8579401015508
 21
224.9774583073721
 31
0.0
  0
ARC
  5
99D
330
1E
100
AcDbEntity
  8
CONTINUOUS
100
AcDbCircle
 10
252.4513031015508
 20
175.7997293073721
 30
0.0
 40
7.5
100
AcDbArc
 50
102.5558579999995
 51
180.0
  0
LINE
  5
99E
330
1E
100
AcDbEntity
  8
CONTINUOUS
100
AcDbLine
 10
255.6108861015508
 20
172.674868307372
 30
0.0
 11
255.9258031015508
 21
160.6486913073721
 31
0.0
  0
ARC
  5
99F
330
1E
100
AcDbEntity
  8
CONTINUOUS
100
AcDbCircle
 10
245.4513031015508
 20
173.174868307372
 30
0.0
 40
0.5
100
AcDbArc
 50
180.0
 51
270.0
  0
LINE
  5
9A0
330
1E
100
AcDbEntity
  8
CONTINUOUS
100
AcDbLine
 10
244.9513031015508
 20
175.7997293073721
 30
0.0
 11
244.9513031015508
 21
173.174868307372
 31
0.0
  0
LINE
  5
9A1
330
1E
100
AcDbEntity
  8
CONTINUOUS
100
AcDbLine
 10
245.9189791015508
 20
172.674868307372
 30
0.0
 11
245.9189791015508
 21
177.6748683073719
 31
0.0
  0
LINE
  5
9A2
330
1E
100
AcDbEntity
  8
CONTINUOUS
100
AcDbLine
 10
254.8101351015508
 20
172.674868307372
 30
0.0
 11
254.8101351015508
 21
177.6748683073719
 31
0.0
  0
LINE
  5
9A3
330
1E
100
AcDbEntity
  8
CONTINUOUS
100
AcDbLine
 10
251.3595521015508
 20
172.674868307372
 30
0.0
 11
251.3595521015508
 21
177.6748683073719
 31
0.0
  0
POLYLINE
  5
9A4
330
1E
100
AcDbEntity
  8
CONTINUOUS
100
AcDb2dPolyline
 66
     1
 10
0.0
 20
0.0
 30
0.0
  0
VERTEX
  5
9A5
330
9A4
100
AcDbEntity
  8
CONTINUOUS
100
AcDbVertex
100
AcDb2dVertex
 10
251.3595521015508
 20
177.6748683073719
 30
0.0
 42
0.114379
 50
90.0
  0
VERTEX
  5
9A6
330
9A4
100
AcDbEntity
  8
CONTINUOUS
100
AcDbVertex
100
AcDb2dVertex
 10
251.1601711015506
 20
178.5350413073721
 30
0.0
 42
0.103715
 50
90.0
  0
VERTEX
  5
9A7
330
9A4
100
AcDbEntity
  8
CONTINUOUS
100
AcDbVertex
100
AcDb2dVertex
 10
250.5627981015506
 20
179.3012143073721
 30
0.0
 42
0.091506
 70
     2
 50
139.785504
  0
VERTEX
  5
9A8
330
9A4
100
AcDbEntity
  8
CONTINUOUS
100
AcDbVertex
100
AcDb2dVertex
 10
249.7000111015508
 20
179.794493307372
 30
0.0
 42
0.084417
 50
139.785504
  0
VERTEX
  5
9A9
330
9A4
100
AcDbEntity
  8
CONTINUOUS
100
AcDbVertex
100
AcDb2dVertex
 10
248.6392661015508
 20
179.9748683073721
 30
0.0
 42
0.084417
 50
90.0
  0
VERTEX
  5
9AA
330
9A4
100
AcDbEntity
  8
CONTINUOUS
100
AcDbVertex
100
AcDb2dVertex
 10
247.5785201015508
 20
179.794493307372
 30
0.0
 42
0.091506
 50
90.0
  0
VERTEX
  5
9AB
330
9A4
100
AcDbEntity
  8
CONTINUOUS
100
AcDbVertex
100
AcDb2dVertex
 10
246.7157331015508
 20
179.3012143073721
 30
0.0
 42
0.103715
 70
     2
 50
220.214496
  0
VERTEX
  5
9AC
330
9A4
100
AcDbEntity
  8
CONTINUOUS
100
AcDbVertex
100
AcDb2dVertex
 10
246.1183601015508
 20
178.5350413073721
 30
0.0
 42
0.114379
 50
220.214496
  0
VERTEX
  5
9AD
330
9A4
100
AcDbEntity
  8
CONTINUOUS
100
AcDbVertex
100
AcDb2dVertex
 10
245.9189791015508
 20
177.6748683073719
 30
0.0
 42
0.114379
 50
90.0
  0
SEQEND
  5
9AE
330
9A4
100
AcDbEntity
  8
CONTINUOUS
  0
ARC
  5
9AF
330
1E
100
AcDbEntity
  8
CONTINUOUS
100
AcDbCircle
 10
234.4024791015508
 20
210.2659203073721
 30
0.0
 40
17.0
100
AcDbArc
 50
4.072584000000246
 51
47.35598799999976
  0
ARC
  5
9B0
330
1E
100
AcDbEntity
  8
CONTINUOUS
100
AcDbCircle
 10
254.3519761015508
 20
211.6863233073721
 30
0.0
 40
3.0
100
AcDbArc
 50
184.0725840000002
 51
278.7845589999988
  0
ARC
  5
9B1
330
1E
100
AcDbEntity
  8
CONTINUOUS
100
AcDbCircle
 10
234.4024791015508
 20
239.6889963073721
 30
0.0
 40
17.0
100
AcDbArc
 50
312.6440120000002
 51
355.9274159999997
  0
ARC
  5
9B2
330
1E
100
AcDbEntity
  8
CONTINUOUS
100
AcDbCircle
 10
247.9513031015508
 20
224.9774583073721
 30
0.0
 40
3.0
100
AcDbArc
 50
132.6440120000001
 51
227.3559879999996
  0
ARC
  5
9B3
330
1E
100
AcDbEntity
  8
CONTINUOUS
100
AcDbCircle
 10
254.3519761015508
 20
238.268593307372
 30
0.0
 40
3.0
100
AcDbArc
 50
81.21544099999949
 51
175.9274159999996
  0
ARC
  5
9B4
330
1E
100
AcDbEntity
  8
CONTINUOUS
100
AcDbCircle
 10
275.7540941015508
 20
175.920528307372
 30
0.0
 40
7.5
100
AcDbArc
 50
0.0285559999993909
 51
76.76696199999958
  0
LINE
  5
9B5
330
1E
100
AcDbEntity
  8
CENTER
100
AcDbLine
 10
264.9513031015508
 20
185.674868307372
 30
0.0
 11
264.9513031015508
 21
158.6748683073721
 31
0.0
  0
POLYLINE
  5
9B6
330
1E
100
AcDbEntity
  8
CONTINUOUS
100
AcDb2dPolyline
 66
     1
 10
0.0
 20
0.0
 30
0.0
  0
VERTEX
  5
9B7
330
9B6
100
AcDbEntity
  8
CONTINUOUS
100
AcDbVertex
100
AcDb2dVertex
 10
281.1413701015508
 20
177.6748683073719
 30
0.0
 42
0.182801
 50
90.0
  0
VERTEX
  5
9B8
330
9B6
100
AcDbEntity
  8
CONTINUOUS
100
AcDbVertex
100
AcDb2dVertex
 10
280.8508451015508
 20
178.442962307372
 30
0.0
 42
0.102572
 50
90.0
  0
VERTEX
  5
9B9
330
9B6
100
AcDbEntity
  8
CONTINUOUS
100
AcDbVertex
100
AcDb2dVertex
 10
279.7056701015508
 20
179.3012143073721
 30
0.0
 42
0.061767
 70
     2
 50
154.8632399999999
  0
VERTEX
  5
9BA
330
9B6
100
AcDbEntity
  8
CONTINUOUS
100
AcDbVertex
100
AcDb2dVertex
 10
278.2273041015508
 20
179.7834973073721
 30
0.0
 42
0.048028
 50
154.8632399999999
  0
VERTEX
  5
9BB
330
9B6
100
AcDbEntity
  8
CONTINUOUS
100
AcDbVertex
100
AcDb2dVertex
 10
276.2395831015508
 20
179.9748693073721
 30
0.0
 42
0.048028
 50
90.0
  0
VERTEX
  5
9BC
330
9B6
100
AcDbEntity
  8
CONTINUOUS
100
AcDbVertex
100
AcDb2dVertex
 10
274.2518631015508
 20
179.7834973073721
 30
0.0
 42
0.061767
 50
90.0
  0
VERTEX
  5
9BD
330
9B6
100
AcDbEntity
  8
CONTINUOUS
100
AcDbVertex
100
AcDb2dVertex
 10
272.7734971015506
 20
179.3012143073721
 30
0.0
 42
0.102572
 70
     2
 50
205.13676
  0
VERTEX
  5
9BE
330
9B6
100
AcDbEntity
  8
CONTINUOUS
100
AcDbVertex
100
AcDb2dVertex
 10
271.6283211015507
 20
178.442962307372
 30
0.0
 42
0.182801
 50
205.13676
  0
VERTEX
  5
9BF
330
9B6
100
AcDbEntity
  8
CONTINUOUS
100
AcDbVertex
100
AcDb2dVertex
 10
271.3377971015507
 20
177.6748683073719
 30
0.0
 42
0.182801
 50
90.0
  0
SEQEND
  5
9C0
330
9B6
100
AcDbEntity
  8
CONTINUOUS
  0
LINE
  5
9C1
330
1E
100
AcDbEntity
  8
CONTINUOUS
100
AcDbLine
 10
273.9768041015508
 20
160.6486913073721
 30
0.0
 11
274.2917201015508
 21
172.674868307372
 31
0.0
  0
LINE
  5
9C2
330
1E
100
AcDbEntity
  8
DOTTED
100
AcDbLine
 10
260.9513031015508
 20
159.674868307372
 30
0.0
 11
260.9513031015508
 21
174.674868307372
 31
0.0
  0
LINE
  5
9C3
330
1E
100
AcDbEntity
  8
DOTTED
100
AcDbLine
 10
268.9513031015508
 20
174.674868307372
 30
0.0
 11
268.9513031015508
 21
159.674868307372
 31
0.0
  0
LINE
  5
9C4
330
1E
100
AcDbEntity
  8
DOTTED
100
AcDbLine
 10
261.5513031015508
 20
159.674868307372
 30
0.0
 11
261.5513031015508
 21
174.674868307372
 31
0.0
  0
LINE
  5
9C5
330
1E
100
AcDbEntity
  8
DOTTED
100
AcDbLine
 10
268.3513031015507
 20
174.674868307372
 30
0.0
 11
268.3513031015507
 21
159.674868307372
 31
0.0
  0
LINE
  5
9C6
330
1E
100
AcDbEntity
  8
CONTINUOUS
100
AcDbLine
 10
256.9254601015507
 20
159.674868307372
 30
0.0
 11
272.9771461015508
 21
159.674868307372
 31
0.0
  0
ARC
  5
9C7
330
1E
100
AcDbEntity
  8
CONTINUOUS
100
AcDbCircle
 10
272.9771461015508
 20
160.674868307372
 30
0.0
 40
1.0
100
AcDbArc
 50
270.0
 51
358.5000000000005
  0
LINE
  5
9CC
330
1E
100
AcDbEntity
  8
CONTINUOUS
100
AcDbLine
 10
267.0349901015508
 20
172.674868307372
 30
0.0
 11
267.0349901015508
 21
177.6748683073719
 31
0.0
  0
LINE
  5
9CF
330
1E
100
AcDbEntity
  8
CONTINUOUS
100
AcDbLine
 10
271.3377971015507
 20
172.674868307372
 30
0.0
 11
271.3377971015507
 21
177.6748683073719
 31
0.0
  0
LINE
  5
9D1
330
1E
100
AcDbEntity
  8
CONTINUOUS
100
AcDbLine
 10
281.1413701015508
 20
172.674868307372
 30
0.0
 11
281.1413701015508
 21
177.6748683073719
 31
0.0
  0
LINE
  5
9D2
330
1E
100
AcDbEntity
  8
CONTINUOUS
100
AcDbLine
 10
283.2554631015508
 20
173.175117307372
 30
0.0
 11
283.2540931015508
 21
175.924266307372
 31
0.0
  0
ARC
  5
9D3
330
1E
100
AcDbEntity
  8
CONTINUOUS
100
AcDbCircle
 10
282.7554631015508
 20
173.174868307372
 30
0.0
 40
0.5
100
AcDbArc
 50
270.0
 51
0.0285559999993909
  0
ARC
  5
9D4
330
1E
100
AcDbEntity
  8
CONTINUOUS
100
AcDbCircle
 10
280.2677741015508
 20
217.601434307372
 30
0.0
 40
3.0
100
AcDbArc
 50
286.9297269999996
 51
21.64170200000041
  0
LINE
  5
9D5
330
1E
100
AcDbEntity
  8
CENTER
100
AcDbLine
 10
264.9513031015508
 20
243.8000123073721
 30
0.0
 11
264.9513031015508
 21
206.154904307372
 31
0.0
  0
ARC
  5
9D6
330
1E
100
AcDbEntity
  8
CONTINUOUS
100
AcDbCircle
 10
286.0917451015508
 20
198.4681823073721
 30
0.0
 40
17.0
100
AcDbArc
 50
106.9297269999996
 51
150.2131300000004
  0
ARC
  5
9D7
330
1E
100
AcDbEntity
  8
CONTINUOUS
100
AcDbCircle
 10
264.9404491015508
 20
129.9356063073721
 30
0.0
 40
54.73926399999999
100
AcDbArc
 50
76.76696199999958
 51
89.98863900000054
  0
ARC
  5
9D8
330
1E
100
AcDbEntity
  8
CONTINUOUS
100
AcDbCircle
 10
268.7341591015508
 20
208.403683307372
 30
0.0
 40
3.0
100
AcDbArc
 50
235.5011549999992
 51
330.2131300000004
  0
ARC
  5
9D9
330
1E
100
AcDbEntity
  8
CONTINUOUS
100
AcDbCircle
 10
286.0917451015508
 20
251.4867343073721
 30
0.0
 40
17.0
100
AcDbArc
 50
209.7868699999994
 51
253.0702730000002
  0
ARC
  5
9DA
330
1E
100
AcDbEntity
  8
CONTINUOUS
100
AcDbCircle
 10
268.7341591015508
 20
241.5512323073719
 30
0.0
 40
3.0
100
AcDbArc
 50
29.78686999999947
 51
124.4988450000005
  0
ARC
  5
9DB
330
1E
100
AcDbEntity
  8
CONTINUOUS
100
AcDbCircle
 10
280.2677741015508
 20
232.353481307372
 30
0.0
 40
3.0
100
AcDbArc
 50
338.3582979999995
 51
73.07027300000026
  0
ARC
  5
9DC
330
1E
100
AcDbEntity
  8
CONTINUOUS
100
AcDbCircle
 10
298.8579401015508
 20
224.9774583073721
 30
0.0
 40
17.0
100
AcDbArc
 50
158.3582979999995
 51
201.6417020000004
  0
LINE
  5
AA8
330
1E
100
AcDbEntity
  8
2
100
AcDbLine
 10
268.9513031015508
 20
174.674868307372
 30
0.0
 11
260.9513031015508
 21
174.674868307372
 31
0.0
  0
LINE
  5
AA9
330
1E
100
AcDbEntity
  8
2
100
AcDbLine
 10
268.9513031015508
 20
174.674868307372
 30
0.0
 11
269.9513031015508
 21
174.674868307372
 31
0.0
  0
LINE
  5
AAA
330
1E
100
AcDbEntity
  8
2
100
AcDbLine
 10
269.9513031015508
 20
174.674868307372
 30
0.0
 11
270.8745364307717
 21
184.352273155231
 31
0.0
  0
LINE
  5
AAB
330
1E
100
AcDbEntity
  8
2
100
AcDbLine
 10
259.9513031015508
 20
174.674868307372
 30
0.0
 11
259.0231376625644
 21
184.4039719202602
 31
0.0
  0
LINE
  5
AAC
330
1E
100
AcDbEntity
  8
2
100
AcDbLine
 10
260.9513031015508
 20
174.674868307372
 30
0.0
 11
259.9513031015508
 21
174.674868307372
 31
0.0
  0
CIRCLE
  5
AAE
330
1E
100
AcDbEntity
  8
0
100
AcDbCircle
 10
264.9513031015508
 20
224.9774583073721
 30
0.0
 40
5.92323332922092
  0
CIRCLE
  5
AB0
330
1E
100
AcDbEntity
  8
0
100
AcDbCircle
 10
264.9513031015508
 20
224.9774583073721
 30
0.0
 40
5.0
  0
CIRCLE
  5
AB1
330
1E
100
AcDbEntity
  8
0
100
AcDbCircle
 10
264.9513031015508
 20
224.9774583073721
 30
0.0
 40
4.0
  0
CIRCLE
  5
AB2
330
1E
100
AcDbEntity
  8
0
100
AcDbCircle
 10
264.9513031015508
 20
224.9774583073721
 30
0.0
 40
3.2
  0
TEXT
  5
AB3
330
1E
100
AcDbEntity
  8
0
100
AcDbText
 10
287.7292616392212
 20
187.4768698050049
 30
0.0
 40
2.5
  1
SLK-40-NT
100
AcDbText
  0
ENDSEC
  0
SECTION
  2
OBJECTS
  0
DICTIONARY
  5
C
330
0
100
AcDbDictionary
281
     1
  3
ACAD_GROUP
350
D
  3
ACAD_LAYOUT
350
19
  3
ACAD_MLINESTYLE
350
16
  3
ACAD_PLOTSETTINGS
350
18
  3
ACAD_PLOTSTYLENAME
350
E
  3
AcDbVariableDictionary
350
273
  3
AcmDictionary
350
149
  3
AMG
350
90
  3
AMGSNAPSETTINGS
350
166
  3
DWGPROPS
350
A96
  3
MAPISURF_MODULE
350
A67
  0
DICTIONARY
  5
267
330
1E
100
AcDbDictionary
280
     1
281
     1
  3
ACAD_INDEX
360
268
  0
DICTIONARY
  5
D
102
{ACAD_REACTORS
330
C
102
}
330
C
100
AcDbDictionary
281
     1
  0
DICTIONARY
  5
19
102
{ACAD_REACTORS
330
C
102
}
330
C
100
AcDbDictionary
281
     1
  3
Model
350
21
  3
ﾚｲｱｳﾄ1
350
1D
  0
DICTIONARY
  5
16
102
{ACAD_REACTORS
330
C
102
}
330
C
100
AcDbDictionary
281
     1
  3
Standard
350
17
  0
DICTIONARY
  5
18
102
{ACAD_REACTORS
330
C
102
}
330
C
100
AcDbDictionary
281
     1
  0
ACDBDICTIONARYWDFLT
  5
E
102
{ACAD_REACTORS
330
C
102
}
330
C
100
AcDbDictionary
281
     1
  3
Normal
350
F
100
AcDbDictionaryWithDefault
340
F
  0
DICTIONARY
  5
273
102
{ACAD_REACTORS
330
C
102
}
330
C
100
AcDbDictionary
281
     1
  3
DIMASSOC
350
275
  3
INDEXCTL
350
274
  0
DICTIONARY
  5
149
102
{ACAD_REACTORS
330
C
102
}
330
C
100
AcDbDictionary
281
     1
  3
AcmBOMDATA
350
A94
  0
DICTIONARY
  5
90
102
{ACAD_REACTORS
330
C
102
}
330
C
100
AcDbDictionary
281
     1
  3
AcMgSettings
350
91
  3
AMGLAYCFG
350
A9E
  0
DICTIONARY
  5
166
102
{ACAD_REACTORS
330
C
102
}
330
C
100
AcDbDictionary
281
     1
  3
DIMENSION
350
16B
  3
FEA
350
16A
  3
HATCH (1)
350
167
  3
HATCH (2)
350
168
  3
SIMPLE WELD
350
16C
  3
SYMBOLS
350
169
  0
XRECORD
  5
A96
102
{ACAD_REACTORS
330
C
102
}
330
C
100
AcDbXrecord
280
     1
  1
DWGPROPS COOKIE
  2

  3

  4

  6

  7

  8

  9

300
AmdtFileType=84
301
=
302
=
303
=
304
=
305
=
306
=
307
=
308
=
309
=
 40
0.373179212962963
 41
2451449.307680995
 42
2454132.497706886
  1

 90
        1
  0
DICTIONARY
  5
268
102
{ACAD_REACTORS
330
267
102
}
330
267
100
AcDbDictionary
281
     1
  3
*A1
350
269
  0
LAYOUT
  5
21
102
{ACAD_REACTORS
330
19
102
}
330
19
100
AcDbPlotSettings
  1

  2
EPSON PM-3700C
  4

  6

 40
0.0
 41
0.0
 42
0.0
 43
0.0
 44
0.0
 45
0.0
 46
0.0
 47
0.0
 48
0.0
 49
0.0
140
0.0
141
0.0
142
1.0
143
1.0
 70
  1712
 72
     0
 73
     0
 74
     0
  7

 75
     0
147
1.0
148
0.0
149
0.0
100
AcDbLayout
  1
Model
 70
     1
 71
     0
 10
0.0
 20
0.0
 11
12.0
 21
9.0
 12
0.0
 22
0.0
 32
0.0
 14
0.0
 24
0.0
 34
0.0
 15
0.0
 25
0.0
 35
0.0
146
0.0
 13
0.0
 23
0.0
 33
0.0
 16
1.0
 26
0.0
 36
0.0
 17
0.0
 27
1.0
 37
0.0
 76
     0
330
1E
  0
LAYOUT
  5
1D
102
{ACAD_REACTORS
330
19
102
}
330
19
100
AcDbPlotSettings
  1

  2
EPSON PM-3700C
  4

  6

 40
0.0
 41
0.0
 42
0.0
 43
0.0
 44
0.0
 45
0.0
 46
0.0
 47
0.0
 48
0.0
 49
0.0
140
0.0
141
0.0
142
1.0
143
1.0
 70
   688
 72
     0
 73
     0
 74
     5
  7

 75
    16
147
1.0
148
0.0
149
0.0
100
AcDbLayout
  1
ﾚｲｱｳﾄ1
 70
     1
 71
     1
 10
0.0
 20
0.0
 11
420.0
 21
297.0
 12
0.0
 22
0.0
 32
0.0
 14
-1.000000000000000E+20
 24
-1.000000000000000E+20
 34
-1.000000000000000E+20
 15
1.000000000000000E+20
 25
1.000000000000000E+20
 35
1.000000000000000E+20
146
0.0
 13
0.0
 23
0.0
 33
0.0
 16
1.0
 26
0.0
 36
0.0
 17
0.0
 27
1.0
 37
0.0
 76
     0
330
1A
  0
MLINESTYLE
  5
17
102
{ACAD_REACTORS
330
16
102
}
330
16
100
AcDbMlineStyle
  2
STANDARD
 70
     0
  3

 62
   256
 51
90.0
 52
90.0
 71
     2
 49
0.5
 62
   256
  6
BYLAYER
 49
-0.5
 62
   256
  6
BYLAYER
  0
ACDBPLACEHOLDER
  5
F
102
{ACAD_REACTORS
330
E
102
}
330
E
  0
DICTIONARYVAR
  5
275
102
{ACAD_REACTORS
330
273
102
}
330
273
100
DictionaryVariables
280
     0
  1
0
  0
DICTIONARYVAR
  5
274
102
{ACAD_REACTORS
330
273
102
}
330
273
100
DictionaryVariables
280
     0
  1
1
  0
ACMDATADICTIONARY
  5
A94
102
{ACAD_REACTORS
330
149
102
}
330
149
100
AcDbDictionary
281
     1
  3
*A1
350
A95
100
AcmDataDictionary
  0
DICTIONARY
  5
91
102
{ACAD_REACTORS
330
90
102
}
330
90
100
AcDbDictionary
281
     1
  3
DWGSETTINGS
350
9E5
  0
ACAMGFILTERDAT
  5
16B
102
{ACAD_REACTORS
330
166
102
}
330
166
100
AcAmgFilterDat
 70
    15
  1
DIMENSION,AMDT_*_DIM
  2
*
  3
*
  4
*
  5
*
290
     1
  0
ACAMGFILTERDAT
  5
16A
102
{ACAD_REACTORS
330
166
102
}
330
166
100
AcAmgFilterDat
 70
    15
  1
*
  2
AM_FEA-AM_*
  3
*
  4
*
  5
*
290
     1
  0
ACAMGFILTERDAT
  5
167
102
{ACAD_REACTORS
330
166
102
}
330
166
100
AcAmgFilterDat
 70
    15
  1
HATCH
  2
*
  3
*
  4
*
  5
*
290
     1
  0
ACAMGFILTERDAT
  5
168
102
{ACAD_REACTORS
330
166
102
}
330
166
100
AcAmgFilterDat
 70
    15
  1
LINE
  2
8,8N,*-8,*-8N,AM_8,AM_8N,*-AM_8,*-AM_8N
  3
*
  4
*
  5
INSERT,STDPART2D
290
     1
  0
ACAMGFILTERDAT
  5
16C
102
{ACAD_REACTORS
330
166
102
}
330
166
100
AcAmgFilterDat
 70
    15
  1
ARC
  2
AM_5
  3
*
  4
2
  5
INSERT
290
     0
  0
ACAMGFILTERDAT
  5
169
102
{ACAD_REACTORS
330
166
102
}
330
166
100
AcAmgFilterDat
 70
    15
  1
ACMFCFRAME,ACMDATUMTARGET,ACMDATUMID,ACMWELDSYM,ACMSURFSYM,ACMFEATID,ACMPARTREF,ACMBALLOON,AMDTEDGESYM,AMGSCREWCALCTABLE
  2
*
  3
*
  4
*
  5
*
290
     1
  0
LAYER_INDEX
  5
269
102
{ACAD_REACTORS
330
268
102
}
330
268
100
AcDbIndex
 40
2454132.54349103
100
AcDbLayerIndex
  8
0
360
26A
 90
        5
  8
CONTINUOUS
360
26B
 90
       37
  8
CENTER
360
26C
 90
        3
  8
DIVIDE
360
26D
 90
        0
  8
TEXT
360
26E
 90
        0
  8
THIN
360
26F
 90
        0
  8
1
360
270
 90
        0
  8
2
360
271
 90
        5
  8
DOTTED
360
875
 90
        4
  0
ACMDATAENTRYBLOCK
  5
A95
102
{ACAD_REACTORS
330
A94
102
}
330
A94
100
AcmDataEntry
100
AcmDataEntryBlock
  0
IDBUFFER
  5
26A
330
0
100
AcDbIdBuffer
330
AB1
330
AB2
330
AB3
330
AAE
330
AB0
  0
IDBUFFER
  5
26B
330
0
100
AcDbIdBuffer
330
98C
330
98D
330
98E
330
999
330
99A
330
99B
330
99D
330
99E
330
99F
330
9A0
330
9A1
330
9A2
330
9A3
330
9A4
330
9AF
330
9B0
330
9B1
330
9B2
330
9B3
330
9B4
330
9B6
330
9C1
330
9C6
330
9C7
330
9CC
330
9CF
330
9D1
330
9D2
330
9D3
330
9D4
330
9D6
330
9D7
330
9D8
330
9D9
330
9DA
330
9DB
330
9DC
  0
IDBUFFER
  5
26C
330
0
100
AcDbIdBuffer
330
99C
330
9B5
330
9D5
  0
IDBUFFER
  5
26D
330
0
100
AcDbIdBuffer
  0
IDBUFFER
  5
26E
330
0
100
AcDbIdBuffer
  0
IDBUFFER
  5
26F
330
0
100
AcDbIdBuffer
  0
IDBUFFER
  5
270
330
0
100
AcDbIdBuffer
  0
IDBUFFER
  5
271
330
0
100
AcDbIdBuffer
330
AA8
330
AA9
330
AAA
330
AAB
330
AAC
  0
IDBUFFER
  5
875
330
0
100
AcDbIdBuffer
330
9C2
330
9C3
330
9C4
330
9C5
  0
ENDSEC
  0
EOF
