  0
SECTION
  2
HEADER
  9
$ACADVER
  1
AC1014
  9
$ACADMAINTVER
 70
     0
  9
$DWGCODEPAGE
  3
ANSI_932
  9
$INSBASE
 10
0.0
 20
0.0
 30
0.0
  9
$EXTMIN
 10
0.0
 20
0.0
 30
0.0
  9
$EXTMAX
 10
375.0
 20
270.0
 30
0.0
  9
$LIMMIN
 10
0.0
 20
0.0
  9
$LIMMAX
 10
375.0
 20
270.0
  9
$ORTHOMODE
 70
     0
  9
$REGENMODE
 70
     1
  9
$FILLMODE
 70
     1
  9
$QTEXTMODE
 70
     0
  9
$MIRRTEXT
 70
     1
  9
$DRAGMODE
 70
     1
  9
$LTSCALE
 40
10.0
  9
$OSMODE
 70
     0
  9
$ATTMODE
 70
     1
  9
$TEXTSIZE
 40
6.0
  9
$TRACEWID
 40
0.05
  9
$TEXTSTYLE
  7
BIGFONT
  9
$CLAYER
  8
0
  9
$CELTYPE
  6
BYLAYER
  9
$CECOLOR
 62
   256
  9
$CELTSCALE
 40
1.0
  9
$DELOBJ
 70
     1
  9
$DISPSILH
 70
     0
  9
$DIMSCALE
 40
1.0
  9
$DIMASZ
 40
3.0
  9
$DIMEXO
 40
2.0
  9
$DIMDLI
 40
0.38
  9
$DIMRND
 40
0.0
  9
$DIMDLE
 40
0.0
  9
$DIMEXE
 40
2.0
  9
$DIMTP
 40
0.0
  9
$DIMTM
 40
0.0
  9
$DIMTXT
 40
3.2
  9
$DIMCEN
 40
0.0
  9
$DIMTSZ
 40
0.0
  9
$DIMTOL
 70
     0
  9
$DIMLIM
 70
     0
  9
$DIMTIH
 70
     0
  9
$DIMTOH
 70
     0
  9
$DIMSE1
 70
     0
  9
$DIMSE2
 70
     0
  9
$DIMTAD
 70
     1
  9
$DIMZIN
 70
     0
  9
$DIMBLK
  1

  9
$DIMASO
 70
     0
  9
$DIMSHO
 70
     0
  9
$DIMPOST
  1

  9
$DIMAPOST
  1

  9
$DIMALT
 70
     0
  9
$DIMALTD
 70
     2
  9
$DIMALTF
 40
25.4
  9
$DIMLFAC
 40
1.0
  9
$DIMTOFL
 70
     0
  9
$DIMTVP
 40
1.6
  9
$DIMTIX
 70
     1
  9
$DIMSOXD
 70
     0
  9
$DIMSAH
 70
     0
  9
$DIMBLK1
  1

  9
$DIMBLK2
  1

  9
$DIMSTYLE
  2
STANDARD
  9
$DIMCLRD
 70
     0
  9
$DIMCLRE
 70
     0
  9
$DIMCLRT
 70
     0
  9
$DIMTFAC
 40
1.0
  9
$DIMGAP
 40
0.09
  9
$DIMJUST
 70
     0
  9
$DIMSD1
 70
     0
  9
$DIMSD2
 70
     0
  9
$DIMTOLJ
 70
     1
  9
$DIMTZIN
 70
     0
  9
$DIMALTZ
 70
     0
  9
$DIMALTTZ
 70
     0
  9
$DIMFIT
 70
     5
  9
$DIMUPT
 70
     0
  9
$DIMUNIT
 70
     2
  9
$DIMDEC
 70
     4
  9
$DIMTDEC
 70
     4
  9
$DIMALTU
 70
     2
  9
$DIMALTTD
 70
     2
  9
$DIMTXSTY
  7
BIGFONT
  9
$DIMAUNIT
 70
     0
  9
$LUNITS
 70
     2
  9
$LUPREC
 70
     4
  9
$SKETCHINC
 40
0.1
  9
$FILLETRAD
 40
0.0
  9
$AUNITS
 70
     0
  9
$AUPREC
 70
     0
  9
$MENU
  1
ACAD
  9
$ELEVATION
 40
0.0
  9
$PELEVATION
 40
0.0
  9
$THICKNESS
 40
0.0
  9
$LIMCHECK
 70
     0
  9
$BLIPMODE
 70
     0
  9
$CHAMFERA
 40
0.0
  9
$CHAMFERB
 40
0.0
  9
$CHAMFERC
 40
0.0
  9
$CHAMFERD
 40
0.0
  9
$SKPOLY
 70
     0
  9
$TDCREATE
 40
2450683.627916666
  9
$TDUPDATE
 40
2450683.627916666
  9
$TDINDWG
 40
0.0000000000
  9
$TDUSRTIMER
 40
0.0000000000
  9
$USRTIMER
 70
     1
  9
$ANGBASE
 50
0.0
  9
$ANGDIR
 70
     0
  9
$PDMODE
 70
     0
  9
$PDSIZE
 40
0.0
  9
$PLINEWID
 40
0.0
  9
$COORDS
 70
     2
  9
$SPLFRAME
 70
     0
  9
$SPLINETYPE
 70
     6
  9
$SPLINESEGS
 70
     8
  9
$ATTDIA
 70
     0
  9
$ATTREQ
 70
     1
  9
$HANDLING
 70
     1
  9
$HANDSEED
  5
2AB
  9
$SURFTAB1
 70
     6
  9
$SURFTAB2
 70
     6
  9
$SURFTYPE
 70
     6
  9
$SURFU
 70
     6
  9
$SURFV
 70
     6
  9
$UCSNAME
  2

  9
$UCSORG
 10
0.0
 20
0.0
 30
0.0
  9
$UCSXDIR
 10
1.0
 20
0.0
 30
0.0
  9
$UCSYDIR
 10
0.0
 20
1.0
 30
0.0
  9
$PUCSNAME
  2

  9
$PUCSORG
 10
0.0
 20
0.0
 30
0.0
  9
$PUCSXDIR
 10
1.0
 20
0.0
 30
0.0
  9
$PUCSYDIR
 10
0.0
 20
1.0
 30
0.0
  9
$USERI1
 70
     0
  9
$USERI2
 70
     0
  9
$USERI3
 70
     0
  9
$USERI4
 70
     0
  9
$USERI5
 70
     0
  9
$USERR1
 40
0.0
  9
$USERR2
 40
0.0
  9
$USERR3
 40
0.0
  9
$USERR4
 40
0.0
  9
$USERR5
 40
0.0
  9
$WORLDVIEW
 70
     1
  9
$SHADEDGE
 70
     3
  9
$SHADEDIF
 70
    70
  9
$TILEMODE
 70
     1
  9
$MAXACTVP
 70
    16
  9
$PINSBASE
 10
0.0
 20
0.0
 30
0.0
  9
$PLIMCHECK
 70
     0
  9
$PEXTMIN
 10
1.000000E+20
 20
1.000000E+20
 30
1.000000E+20
  9
$PEXTMAX
 10
-1.000000E+20
 20
-1.000000E+20
 30
-1.000000E+20
  9
$PLIMMIN
 10
0.0
 20
0.0
  9
$PLIMMAX
 10
12.0
 20
9.0
  9
$UNITMODE
 70
     0
  9
$VISRETAIN
 70
     0
  9
$PLINEGEN
 70
   510
  9
$PSLTSCALE
 70
     0
  9
$TREEDEPTH
 70
  3020
  9
$PICKSTYLE
 70
     1
  9
$CMLSTYLE
  2
STANDARD
  9
$CMLJUST
 70
     0
  9
$CMLSCALE
 40
1.0
  9
$PROXYGRAPHICS
 70
     1
  9
$MEASUREMENT
 70
     0
  0
ENDSEC
  0
SECTION
  2
CLASSES
  0
CLASS
  1
DICTIONARYVAR
  2
AcDbDictionaryVar
  3
"AutoCAD"
 90
        0
280
     0
281
     0
  0
CLASS
  1
LWPOLYLINE
  2
AcDbPolyline
  3
"AutoCAD"
 90
        0
280
     0
281
     1
  0
ENDSEC
  0
SECTION
  2
TABLES
  0
TABLE
  2
VPORT
  5
27E
100
AcDbSymbolTable
 70
     3
  0
VPORT
  5
2AA
100
AcDbSymbolTableRecord
100
AcDbViewportTableRecord
  2
*ACTIVE
 70
     0
 10
0.0
 20
0.0
 11
1.0
 21
1.0
 12
229.111675
 22
159.665908
 13
0.0
 23
0.0
 14
0.5
 24
0.5
 15
1.0
 25
1.0
 16
0.0
 26
0.0
 36
1.0
 17
0.0
 27
0.0
 37
0.0
 40
638.663633
 41
1.434944
 42
50.0
 43
0.0
 44
0.0
 50
0.0
 51
0.0
 71
     0
 72
   500
 73
     1
 74
     1
 75
     0
 76
     0
 77
     0
 78
     0
  0
ENDTAB
  0
TABLE
  2
LTYPE
  5
27B
100
AcDbSymbolTable
 70
     4
  0
LTYPE
  5
287
100
AcDbSymbolTableRecord
100
AcDbLinetypeTableRecord
  2
BYBLOCK
 70
     0
  3

 72
    65
 73
     0
 40
0.0
  0
LTYPE
  5
288
100
AcDbSymbolTableRecord
100
AcDbLinetypeTableRecord
  2
BYLAYER
 70
     0
  3

 72
    65
 73
     0
 40
0.0
  0
LTYPE
  5
289
100
AcDbSymbolTableRecord
100
AcDbLinetypeTableRecord
  2
CONTINUOUS
 70
     0
  3
実線
 72
    65
 73
     0
 40
0.0
  0
LTYPE
  5
296
100
AcDbSymbolTableRecord
100
AcDbLinetypeTableRecord
  2
CENTER
 70
     0
  3
____ _ ____ _ ____ _ ____ _ ____ _ ____ _ ____
 72
    65
 73
     4
 40
2.0
 49
1.25
 74
     0
 49
-0.25
 74
     0
 49
0.25
 74
     0
 49
-0.25
 74
     0
  0
LTYPE
  5
297
100
AcDbSymbolTableRecord
100
AcDbLinetypeTableRecord
  2
HIDDEN
 70
     0
  3
_ _ _ _ _ _ _ _ _ _ _ _ _ _ _ _ _ _ _ _ _ _ _
 72
    65
 73
     2
 40
0.375
 49
0.25
 74
     0
 49
-0.125
 74
     0
  0
LTYPE
  5
298
100
AcDbSymbolTableRecord
100
AcDbLinetypeTableRecord
  2
TENSEN1
 70
     0
  3

 72
    65
 73
     2
 40
0.4
 49
0.3
 74
     0
 49
-0.1
 74
     0
  0
ENDTAB
  0
TABLE
  2
LAYER
  5
278
100
AcDbSymbolTable
 70
     5
  0
LAYER
  5
284
100
AcDbSymbolTableRecord
100
AcDbLayerTableRecord
  2
0
 70
     0
 62
     7
  6
CONTINUOUS
  0
LAYER
  5
29D
100
AcDbSymbolTableRecord
100
AcDbLayerTableRecord
  2
1
 70
     0
 62
     1
  6
CENTER
  0
LAYER
  5
29E
100
AcDbSymbolTableRecord
100
AcDbLayerTableRecord
  2
10
 70
     0
 62
     7
  6
CONTINUOUS
  0
LAYER
  5
29F
100
AcDbSymbolTableRecord
100
AcDbLayerTableRecord
  2
11
 70
     0
 62
     3
  6
CONTINUOUS
  0
LAYER
  5
2A0
100
AcDbSymbolTableRecord
100
AcDbLayerTableRecord
  2
2
 70
     0
 62
     2
  6
TENSEN1
  0
ENDTAB
  0
TABLE
  2
STYLE
  5
279
100
AcDbSymbolTable
 70
     4
  0
STYLE
  5
285
100
AcDbSymbolTableRecord
100
AcDbTextStyleTableRecord
  2
STANDARD
 70
     0
 40
0.0
 41
1.0
 50
0.0
 71
     0
 42
0.2
  3
TXT
  4
BIGFONT
  0
STYLE
  5
293
100
AcDbSymbolTableRecord
100
AcDbTextStyleTableRecord
  2
K70
 70
     0
 40
0.0
 41
0.7
 50
0.0
 71
     0
 42
0.2
  3
TXT
  4
BIGFONT
  0
STYLE
  5
294
100
AcDbSymbolTableRecord
100
AcDbTextStyleTableRecord
  2
07500
 70
     0
 40
0.0
 41
0.75
 50
0.0
 71
     0
 42
0.2
  3
TXT
  4
BIGFONT
  0
STYLE
  5
295
100
AcDbSymbolTableRecord
100
AcDbTextStyleTableRecord
  2
BIGFONT
 70
     0
 40
6.0
 41
0.9
 50
0.0
 71
     0
 42
6.0
  3

  4
bigfont
  0
ENDTAB
  0
TABLE
  2
VIEW
  5
27C
100
AcDbSymbolTable
 70
     1
  0
VIEW
  5
299
100
AcDbSymbolTableRecord
100
AcDbViewTableRecord
  2
ALL
 70
     0
 40
179.538466
 10
135.0
 20
89.769233
 41
0.0
 11
0.0
 21
0.0
 31
1.0
 12
0.0
 22
0.0
 32
0.0
 42
0.0
 43
0.0
 44
0.0
 50
0.0
 71
     0
  0
ENDTAB
  0
TABLE
  2
UCS
  5
27D
100
AcDbSymbolTable
 70
     0
  0
ENDTAB
  0
TABLE
  2
APPID
  5
27F
100
AcDbSymbolTable
 70
     1
  0
APPID
  5
286
100
AcDbSymbolTableRecord
100
AcDbRegAppTableRecord
  2
ACAD
 70
     0
  0
ENDTAB
  0
TABLE
  2
DIMSTYLE
  5
280
100
AcDbSymbolTable
 70
     1
  0
DIMSTYLE
105
29C
100
AcDbSymbolTableRecord
100
AcDbDimStyleTableRecord
  2
STANDARD
 70
     0
  3

  4

  5

  6

  7

 40
1.0
 41
0.18
 42
0.0625
 43
0.38
 44
0.18
 45
0.0
 46
0.0
 47
0.0
 48
0.0
140
0.18
141
0.09
142
0.0
143
25.4
144
1.0
145
0.0
146
1.0
147
0.09
 71
     0
 72
     0
 73
     1
 74
     1
 75
     0
 76
     0
 77
     0
 78
     0
170
     0
171
     2
172
     0
173
     0
174
     0
175
     0
176
     0
177
     0
178
     0
270
     2
271
     4
272
     4
273
     2
274
     2
340
295
275
     0
280
     0
281
     0
282
     0
283
     1
284
     0
285
     0
286
     0
287
     5
288
     0
  0
ENDTAB
  0
TABLE
  2
BLOCK_RECORD
  5
277
100
AcDbSymbolTable
 70
     1
  0
BLOCK_RECORD
  5
28D
100
AcDbSymbolTableRecord
100
AcDbBlockTableRecord
  2
*MODEL_SPACE
  0
BLOCK_RECORD
  5
28A
100
AcDbSymbolTableRecord
100
AcDbBlockTableRecord
  2
*PAPER_SPACE
  0
BLOCK_RECORD
  5
292
100
AcDbSymbolTableRecord
100
AcDbBlockTableRecord
  2
QQ
  0
ENDTAB
  0
ENDSEC
  0
SECTION
  2
BLOCKS
  0
BLOCK
  5
2A3
100
AcDbEntity
  8
0
100
AcDbBlockBegin
  2
*MODEL_SPACE
 70
     0
 10
0.0
 20
0.0
 30
0.0
  3
*MODEL_SPACE
  1

  0
ENDBLK
  5
2A4
100
AcDbEntity
  8
0
100
AcDbBlockEnd
  0
BLOCK
  5
2A1
100
AcDbEntity
 67
     1
  8
0
100
AcDbBlockBegin
  2
*PAPER_SPACE
 70
     0
 10
0.0
 20
0.0
 30
0.0
  3
*PAPER_SPACE
  1

  0
ENDBLK
  5
2A2
100
AcDbEntity
 67
     1
  8
0
100
AcDbBlockEnd
  0
BLOCK
  5
2E
100
AcDbEntity
  8
0
100
AcDbBlockBegin
  2
QQ
 70
     0
 10
270.0
 20
0.0
 30
0.0
  3
QQ
  1

  0
LINE
  5
2F
100
AcDbEntity
  8
11
100
AcDbLine
 10
173.0
 20
36.0
 30
0.0
 11
270.0
 21
36.0
 31
0.0
  0
TEXT
  5
30
100
AcDbEntity
  8
11
100
AcDbText
 10
175.0
 20
32.5
 30
0.0
 40
2.5
  1
部品名称
100
AcDbText
  0
LINE
  5
31
100
AcDbEntity
  8
11
100
AcDbLine
 10
173.0
 20
36.0
 30
0.0
 11
173.0
 21
0.0
 31
0.0
  0
LINE
  5
32
100
AcDbEntity
  8
11
100
AcDbLine
 10
173.0
 20
24.0
 30
0.0
 11
270.0
 21
24.0
 31
0.0
  0
TEXT
  5
33
100
AcDbEntity
  8
11
100
AcDbText
 10
175.0
 20
20.5
 30
0.0
 40
2.5
  1
品番
100
AcDbText
  0
LINE
  5
34
100
AcDbEntity
  8
11
100
AcDbLine
 10
173.0
 20
12.0
 30
0.0
 11
270.0
 21
12.0
 31
0.0
  0
TEXT
  5
35
100
AcDbEntity
  8
11
100
AcDbText
 10
175.0
 20
8.5
 30
0.0
 40
2.5
  1
尺度
100
AcDbText
  0
TEXT
  5
36
100
AcDbEntity
  8
11
100
AcDbText
 10
200.0
 20
8.5
 30
0.0
 40
2.5
  1
図番
100
AcDbText
  0
LINE
  5
37
100
AcDbEntity
  8
11
100
AcDbLine
 10
198.0
 20
0.0
 30
0.0
 11
198.0
 21
12.0
 31
0.0
  0
ENDBLK
  5
38
100
AcDbEntity
  8
0
100
AcDbBlockEnd
  0
ENDSEC
  0
SECTION
  2
ENTITIES
  0
LINE
  5
39
100
AcDbEntity
  8
0
100
AcDbLine
 10
215.038857
 20
145.990475
 30
0.0
 11
215.038857
 21
121.990475
 31
0.0
  0
LINE
  5
3A
100
AcDbEntity
  8
0
100
AcDbLine
 10
215.038857
 20
121.990475
 30
0.0
 11
214.538857
 21
121.490475
 31
0.0
  0
LINE
  5
3B
100
AcDbEntity
  8
0
100
AcDbLine
 10
215.038857
 20
145.990475
 30
0.0
 11
214.538857
 21
146.490475
 31
0.0
  0
LINE
  5
3C
100
AcDbEntity
  8
0
100
AcDbLine
 10
192.038857
 20
121.490475
 30
0.0
 11
214.538857
 21
121.490475
 31
0.0
  0
LINE
  5
3D
100
AcDbEntity
  8
0
100
AcDbLine
 10
192.038857
 20
146.490475
 30
0.0
 11
214.538857
 21
146.490475
 31
0.0
  0
LINE
  5
3E
100
AcDbEntity
  8
1
100
AcDbLine
 10
160.038857
 20
133.990475
 30
0.0
 11
220.038857
 21
133.990475
 31
0.0
  0
LINE
  5
3F
100
AcDbEntity
  8
1
100
AcDbLine
 10
110.587304
 20
133.990475
 30
0.0
 11
20.587304
 21
133.990475
 31
0.0
  0
LINE
  5
40
100
AcDbEntity
  8
1
100
AcDbLine
 10
65.587304
 20
178.990475
 30
0.0
 11
65.587304
 21
88.990475
 31
0.0
  0
ARC
  5
41
100
AcDbEntity
  8
0
100
AcDbCircle
 10
65.587304
 20
133.990475
 30
0.0
 40
40.0
100
AcDbArc
 50
26.108906
 51
33.891094
  0
ARC
  5
42
100
AcDbEntity
  8
0
100
AcDbCircle
 10
93.587304
 20
182.487897
 30
0.0
 40
24.0
100
AcDbArc
 50
207.918196
 51
272.081804
  0
ARC
  5
43
100
AcDbEntity
  8
0
100
AcDbCircle
 10
67.962412
 20
168.909794
 30
0.0
 40
5.0
100
AcDbArc
 50
27.918196
 51
86.108906
  0
ARC
  5
44
100
AcDbEntity
  8
0
100
AcDbCircle
 10
94.640768
 20
153.507038
 30
0.0
 40
5.0
100
AcDbArc
 50
33.891094
 51
92.081804
  0
ARC
  5
45
100
AcDbEntity
  8
0
100
AcDbCircle
 10
63.212196
 20
168.909794
 30
0.0
 40
5.0
100
AcDbArc
 50
93.891094
 51
152.081804
  0
ARC
  5
46
100
AcDbEntity
  8
0
100
AcDbCircle
 10
36.53384
 20
153.507038
 30
0.0
 40
5.0
100
AcDbArc
 50
87.918196
 51
146.108906
  0
ARC
  5
47
100
AcDbEntity
  8
0
100
AcDbCircle
 10
37.587304
 20
182.487897
 30
0.0
 40
24.0
100
AcDbArc
 50
267.918196
 51
332.081804
  0
ARC
  5
48
100
AcDbEntity
  8
0
100
AcDbCircle
 10
65.587304
 20
133.990475
 30
0.0
 40
40.0
100
AcDbArc
 50
86.108906
 51
93.891094
  0
ARC
  5
49
100
AcDbEntity
  8
0
100
AcDbCircle
 10
34.158733
 20
149.393231
 30
0.0
 40
5.0
100
AcDbArc
 50
153.891094
 51
212.081804
  0
ARC
  5
4A
100
AcDbEntity
  8
0
100
AcDbCircle
 10
34.158733
 20
118.587719
 30
0.0
 40
5.0
100
AcDbArc
 50
147.918196
 51
206.108906
  0
ARC
  5
4B
100
AcDbEntity
  8
0
100
AcDbCircle
 10
9.587304
 20
133.990475
 30
0.0
 40
24.0
100
AcDbArc
 50
327.918196
 51
32.081804
  0
ARC
  5
4C
100
AcDbEntity
  8
0
100
AcDbCircle
 10
65.587304
 20
133.990475
 30
0.0
 40
40.0
100
AcDbArc
 50
146.108906
 51
153.891094
  0
ARC
  5
4D
100
AcDbEntity
  8
0
100
AcDbCircle
 10
36.53384
 20
114.473912
 30
0.0
 40
5.0
100
AcDbArc
 50
213.891094
 51
272.081804
  0
ARC
  5
4E
100
AcDbEntity
  8
0
100
AcDbCircle
 10
63.212196
 20
99.071155
 30
0.0
 40
5.0
100
AcDbArc
 50
207.918196
 51
266.108906
  0
ARC
  5
4F
100
AcDbEntity
  8
0
100
AcDbCircle
 10
37.587304
 20
85.493052
 30
0.0
 40
24.0
100
AcDbArc
 50
27.918196
 51
92.081804
  0
ARC
  5
50
100
AcDbEntity
  8
0
100
AcDbCircle
 10
65.587304
 20
133.990475
 30
0.0
 40
40.0
100
AcDbArc
 50
206.108906
 51
213.891094
  0
ARC
  5
51
100
AcDbEntity
  8
0
100
AcDbCircle
 10
67.962412
 20
99.071155
 30
0.0
 40
5.0
100
AcDbArc
 50
273.891094
 51
332.081804
  0
ARC
  5
52
100
AcDbEntity
  8
0
100
AcDbCircle
 10
94.640768
 20
114.473912
 30
0.0
 40
5.0
100
AcDbArc
 50
267.918196
 51
326.108906
  0
ARC
  5
53
100
AcDbEntity
  8
0
100
AcDbCircle
 10
93.587304
 20
85.493052
 30
0.0
 40
24.0
100
AcDbArc
 50
87.918196
 51
152.081804
  0
ARC
  5
54
100
AcDbEntity
  8
0
100
AcDbCircle
 10
65.587304
 20
133.990475
 30
0.0
 40
40.0
100
AcDbArc
 50
266.108906
 51
273.891094
  0
ARC
  5
55
100
AcDbEntity
  8
0
100
AcDbCircle
 10
97.015875
 20
118.587719
 30
0.0
 40
5.0
100
AcDbArc
 50
333.891094
 51
32.081804
  0
ARC
  5
56
100
AcDbEntity
  8
0
100
AcDbCircle
 10
97.015875
 20
149.393231
 30
0.0
 40
5.0
100
AcDbArc
 50
327.918196
 51
26.108906
  0
ARC
  5
57
100
AcDbEntity
  8
0
100
AcDbCircle
 10
121.587304
 20
133.990475
 30
0.0
 40
24.0
100
AcDbArc
 50
147.918196
 51
212.081804
  0
ARC
  5
58
100
AcDbEntity
  8
0
100
AcDbCircle
 10
65.587304
 20
133.990475
 30
0.0
 40
40.0
100
AcDbArc
 50
326.108906
 51
333.891094
  0
LINE
  5
59
100
AcDbEntity
  8
0
100
AcDbLine
 10
181.612242
 20
93.990475
 30
0.0
 11
188.038857
 21
93.990475
 31
0.0
  0
LINE
  5
5A
100
AcDbEntity
  8
0
100
AcDbLine
 10
181.612242
 20
173.990475
 30
0.0
 11
188.038857
 21
173.990475
 31
0.0
  0
LINE
  5
5B
100
AcDbEntity
  8
0
100
AcDbLine
 10
190.038857
 20
171.990475
 30
0.0
 11
190.038857
 21
95.990477
 31
0.0
  0
LINE
  5
5C
100
AcDbEntity
  8
0
100
AcDbLine
 10
192.038857
 20
149.490475
 30
0.0
 11
192.038857
 21
118.490475
 31
0.0
  0
LINE
  5
5D
100
AcDbEntity
  8
0
100
AcDbLine
 10
190.038857
 20
118.490475
 30
0.0
 11
192.038857
 21
118.490475
 31
0.0
  0
LINE
  5
5E
100
AcDbEntity
  8
0
100
AcDbLine
 10
190.038857
 20
149.490475
 30
0.0
 11
192.038857
 21
149.490475
 31
0.0
  0
ARC
  5
5F
100
AcDbEntity
  8
0
100
AcDbCircle
 10
181.612242
 20
105.990475
 30
0.0
 40
12.0
100
AcDbArc
 50
198.553005
 51
270.0
  0
ARC
  5
60
100
AcDbEntity
  8
0
100
AcDbCircle
 10
181.612242
 20
161.990475
 30
0.0
 40
12.0
100
AcDbArc
 50
90.0
 51
161.446995
  0
ARC
  5
61
100
AcDbEntity
  8
0
100
AcDbCircle
 10
188.038857
 20
95.990475
 30
0.0
 40
2.0
100
AcDbArc
 50
270.0
 51
0.0
  0
ARC
  5
62
100
AcDbEntity
  8
0
100
AcDbCircle
 10
188.038857
 20
171.990475
 30
0.0
 40
2.0
100
AcDbArc
 50
0.0
 51
90.0
  0
ARC
  5
63
100
AcDbEntity
  8
0
100
AcDbCircle
 10
265.038857
 20
133.990475
 30
0.0
 40
100.0
100
AcDbArc
 50
161.446995
 51
168.463041
  0
LINE
  5
98
100
AcDbEntity
  8
0
100
AcDbLine
 10
214.538857
 20
146.490475
 30
0.0
 11
214.538857
 21
121.490475
 31
0.0
  0
LINE
  5
A1
100
AcDbEntity
  8
0
100
AcDbLine
 10
181.612242
 20
119.144325
 30
0.0
 11
188.038857
 21
119.144325
 31
0.0
  0
LINE
  5
A2
100
AcDbEntity
  8
0
100
AcDbLine
 10
181.612242
 20
109.246892
 30
0.0
 11
188.038857
 21
109.246892
 31
0.0
  0
LINE
  5
A3
100
AcDbEntity
  8
0
100
AcDbLine
 10
173.387343
 20
111.685831
 30
0.0
 11
173.387343
 21
116.387325
 31
0.0
  0
LWPOLYLINE
  5
A4
100
AcDbEntity
  8
0
100
AcDbPolyline
 90
        5
 70
     0
 43
0.0
 10
173.387343
 20
111.685831
 42
0.241932
 10
173.762586
 20
110.955711
 42
0.083453
 10
175.79636
 20
109.961241
 42
0.041538
 10
178.235365
 20
109.453502
 42
0.030563
 10
181.612242
 20
109.246892
 42
0.030563
  0
LWPOLYLINE
  5
AB
100
AcDbEntity
  8
0
100
AcDbPolyline
 90
        5
 70
     0
 43
0.0
 10
181.612242
 20
119.144325
 42
0.034504
 10
178.24335
 20
118.911564
 42
0.0464
 10
175.79636
 20
118.336818
 42
0.089469
 10
173.699752
 20
117.186277
 42
0.264789
 10
173.387343
 20
116.387325
 42
0.226362
  0
LWPOLYLINE
  5
B2
100
AcDbEntity
  8
0
100
AcDbPolyline
 90
        5
 70
     0
 43
0.0
 10
188.038857
 20
109.246892
 42
0.11747
 10
188.783357
 20
109.424252
 42
0.104434
 10
189.45307
 20
109.961241
 42
0.090091
 10
189.92328
 20
110.80754
 42
0.098617
 10
190.038857
 20
111.685831
 42
0.082043
  0
LWPOLYLINE
  5
B9
100
AcDbEntity
  8
0
100
AcDbPolyline
 90
        5
 70
     0
 43
0.0
 10
190.038857
 20
116.387325
 42
0.073104
 10
189.878634
 20
117.477317
 42
0.08412
 10
189.45307
 20
118.336818
 42
0.106498
 10
188.719982
 20
118.994211
 42
0.152104
 10
188.038857
 20
119.144325
 42
0.130437
  0
ARC
  5
C0
100
AcDbEntity
  8
0
100
AcDbCircle
 10
198.145758
 20
133.990475
 30
0.0
 40
27.847224
100
AcDbArc
 50
152.75789
 51
207.24211
  0
LWPOLYLINE
  5
C1
100
AcDbEntity
  8
0
100
AcDbPolyline
 90
        3
 70
     0
 43
0.0
 10
170.298534
 20
106.277662
 42
0.033315
 10
170.559586
 20
102.36411
 42
0.028037
 10
170.901464
 20
100.579445
 42
0.08777
  0
LWPOLYLINE
  5
C6
100
AcDbEntity
  8
0
100
AcDbPolyline
 90
        5
 70
     0
 43
0.0
 10
173.387343
 20
109.477212
 42
0.101675
 10
172.210575
 20
109.235416
 42
0.099754
 10
171.203225
 20
108.540085
 42
0.097151
 10
170.47592
 20
107.415552
 42
0.113359
 10
170.298534
 20
106.277662
 42
0.095388
  0
LWPOLYLINE
  5
CD
100
AcDbEntity
  8
0
100
AcDbPolyline
 90
        5
 70
     0
 43
0.0
 10
173.387343
 20
158.503738
 42
-0.101675
 10
172.210575
 20
158.745534
 42
-0.099754
 10
171.203225
 20
159.440864
 42
-0.097151
 10
170.47592
 20
160.565398
 42
-0.113359
 10
170.298534
 20
161.703288
 42
-0.095388
  0
LWPOLYLINE
  5
D4
100
AcDbEntity
  8
0
100
AcDbPolyline
 90
        5
 70
     0
 43
0.0
 10
190.038857
 20
151.593625
 42
-0.073104
 10
189.878634
 20
150.503633
 42
-0.08412
 10
189.45307
 20
149.644131
 42
-0.106498
 10
188.719982
 20
148.986738
 42
-0.152104
 10
188.038857
 20
148.836624
 42
-0.130437
  0
LWPOLYLINE
  5
DB
100
AcDbEntity
  8
0
100
AcDbPolyline
 90
        5
 70
     0
 43
0.0
 10
188.038857
 20
158.734058
 42
-0.11747
 10
188.783357
 20
158.556698
 42
-0.104434
 10
189.45307
 20
158.019709
 42
-0.090091
 10
189.92328
 20
157.17341
 42
-0.098617
 10
190.038857
 20
156.295118
 42
-0.082043
  0
LWPOLYLINE
  5
E2
100
AcDbEntity
  8
0
100
AcDbPolyline
 90
        5
 70
     0
 43
0.0
 10
181.612242
 20
148.836624
 42
-0.034504
 10
178.24335
 20
149.069385
 42
-0.0464
 10
175.79636
 20
149.644131
 42
-0.089469
 10
173.699752
 20
150.794672
 42
-0.264789
 10
173.387343
 20
151.593625
 42
-0.226362
  0
LWPOLYLINE
  5
E9
100
AcDbEntity
  8
0
100
AcDbPolyline
 90
        5
 70
     0
 43
0.0
 10
173.387343
 20
156.295118
 42
-0.241932
 10
173.762586
 20
157.025238
 42
-0.083453
 10
175.79636
 20
158.019709
 42
-0.041538
 10
178.235365
 20
158.527448
 42
-0.030563
 10
181.612242
 20
158.734058
 42
-0.030563
  0
LINE
  5
F0
100
AcDbEntity
  8
0
100
AcDbLine
 10
173.387343
 20
156.295118
 30
0.0
 11
173.387343
 21
151.593625
 31
0.0
  0
LINE
  5
F1
100
AcDbEntity
  8
0
100
AcDbLine
 10
181.612242
 20
158.734058
 30
0.0
 11
188.038857
 21
158.734058
 31
0.0
  0
LINE
  5
F2
100
AcDbEntity
  8
0
100
AcDbLine
 10
181.612242
 20
148.836624
 30
0.0
 11
188.038857
 21
148.836624
 31
0.0
  0
LWPOLYLINE
  5
F3
100
AcDbEntity
  8
0
100
AcDbPolyline
 90
        3
 70
     0
 43
0.0
 10
170.298534
 20
161.703288
 42
-0.033315
 10
170.559586
 20
165.616839
 42
-0.028037
 10
170.901464
 20
167.401504
 42
-0.08777
  0
LINE
  5
F8
100
AcDbEntity
  8
0
100
AcDbLine
 10
167.059267
 20
113.990475
 30
0.0
 11
167.059267
 21
153.990475
 31
0.0
  0
ARC
  5
F9
100
AcDbEntity
  8
0
100
AcDbCircle
 10
265.038857
 20
133.990475
 30
0.0
 40
100.0
100
AcDbArc
 50
191.536959
 51
198.553005
  0
LWPOLYLINE
  5
FA
100
AcDbEntity
  8
0
100
AcDbPolyline
 90
        5
 70
     0
 43
0.0
 10
170.273395
 20
236.975196
 42
0.034534
 10
170.534162
 20
233.204188
 42
0.046436
 10
171.178087
 20
230.465
 42
0.089509
 10
172.409568
 20
228.222714
 42
0.226251
 10
173.362204
 20
227.768388
 42
0.226251
  0
LWPOLYLINE
  5
101
100
AcDbEntity
  8
0
100
AcDbPolyline
 90
        5
 70
     0
 43
0.0
 10
173.362204
 20
249.847028
 42
0.267552
 10
172.482521
 20
249.340012
 42
0.072519
 10
171.178087
 20
246.076956
 42
0.034124
 10
170.536181
 20
242.275795
 42
0.024773
 10
170.273395
 20
236.975196
 42
0.024773
  0
ARC
  5
108
100
AcDbEntity
  8
0
100
AcDbCircle
 10
265.013718
 20
220.975196
 30
0.0
 40
100.0
100
AcDbArc
 50
161.446995
 51
168.463041
  0
ARC
  5
109
100
AcDbEntity
  8
0
100
AcDbCircle
 10
181.587104
 20
248.975196
 30
0.0
 40
12.0
100
AcDbArc
 50
136.473547
 51
161.446995
  0
LINE
  5
10A
100
AcDbEntity
  8
0
100
AcDbLine
 10
181.587104
 20
258.118053
 30
0.0
 11
188.013718
 21
258.118053
 31
0.0
  0
LINE
  5
10B
100
AcDbEntity
  8
0
100
AcDbLine
 10
181.587104
 20
252.403767
 30
0.0
 11
188.013718
 21
252.403767
 31
0.0
  0
LINE
  5
10C
100
AcDbEntity
  8
0
100
AcDbLine
 10
173.362204
 20
256.893563
 30
0.0
 11
173.362204
 21
254.179154
 31
0.0
  0
LWPOLYLINE
  5
10D
100
AcDbEntity
  8
0
100
AcDbPolyline
 90
        5
 70
     0
 43
0.0
 10
173.362204
 20
254.179154
 42
0.279558
 10
173.661638
 20
253.685461
 42
0.067052
 10
175.771222
 20
252.923766
 42
0.030865
 10
178.19638
 20
252.555048
 42
0.022297
 10
181.587104
 20
252.403767
 42
0.022297
  0
LWPOLYLINE
  5
114
100
AcDbEntity
  8
0
100
AcDbPolyline
 90
        5
 70
     0
 43
0.0
 10
181.587104
 20
258.118053
 42
0.015398
 10
178.18799
 20
258.013347
 42
0.021554
 10
175.771222
 20
257.759408
 42
0.049353
 10
173.520352
 20
257.193253
 42
0.387973
 10
173.362204
 20
256.893563
 42
0.316406
  0
LWPOLYLINE
  5
11B
100
AcDbEntity
  8
0
100
AcDbPolyline
 90
        5
 70
     0
 43
0.0
 10
190.013718
 20
256.893563
 42
0.149809
 10
189.881047
 20
257.326428
 42
0.107058
 10
189.427932
 20
257.759408
 42
0.075395
 10
188.743664
 20
258.047801
 42
0.076356
 10
188.013718
 20
258.118053
 42
0.062171
  0
LWPOLYLINE
  5
122
100
AcDbEntity
  8
0
100
AcDbPolyline
 90
        5
 70
     0
 43
0.0
 10
188.013718
 20
252.403767
 42
0.088316
 10
188.789679
 20
252.541904
 42
0.093678
 10
189.427932
 20
252.923766
 42
0.102415
 10
189.865378
 20
253.510439
 42
0.109582
 10
190.013718
 20
254.179154
 42
0.109582
  0
LWPOLYLINE
  5
129
100
AcDbEntity
  8
0
100
AcDbPolyline
 90
        4
 70
     0
 43
0.0
 10
181.587104
 20
258.118053
 42
0.014049
 10
177.859378
 20
258.01329
 42
0.019699
 10
175.21139
 20
257.759408
 42
0.042543
 10
172.886426
 20
257.239469
 42
0.399805
  0
LWPOLYLINE
  5
12F
100
AcDbEntity
  8
0
100
AcDbPolyline
 90
        5
 70
     0
 43
0.0
 10
173.362204
 20
192.103364
 42
-0.267552
 10
172.482521
 20
192.610379
 42
-0.072519
 10
171.178087
 20
195.873436
 42
-0.034124
 10
170.536181
 20
199.674597
 42
-0.024773
 10
170.273395
 20
204.975196
 42
-0.024773
  0
LWPOLYLINE
  5
136
100
AcDbEntity
  8
0
100
AcDbPolyline
 90
        5
 70
     0
 43
0.0
 10
170.273395
 20
204.975196
 42
-0.034534
 10
170.534162
 20
208.746204
 42
-0.046436
 10
171.178087
 20
211.485392
 42
-0.089509
 10
172.409568
 20
213.727677
 42
-0.226251
 10
173.362204
 20
214.182003
 42
-0.226251
  0
LINE
  5
13D
100
AcDbEntity
  8
0
100
AcDbLine
 10
181.587104
 20
226.689481
 30
0.0
 11
188.013718
 21
226.689481
 31
0.0
  0
LWPOLYLINE
  5
13E
100
AcDbEntity
  8
0
100
AcDbPolyline
 90
        5
 70
     0
 43
0.0
 10
181.587104
 20
226.689481
 42
0.037503
 10
178.224857
 20
226.436936
 42
0.04999
 10
175.771222
 20
225.810838
 42
0.093325
 10
173.692591
 20
224.576547
 42
0.251224
 10
173.362204
 20
223.689604
 42
0.215453
  0
LWPOLYLINE
  5
145
100
AcDbEntity
  8
0
100
AcDbPolyline
 90
        5
 70
     0
 43
0.0
 10
190.013718
 20
223.689604
 42
0.067462
 10
189.851937
 20
224.883209
 42
0.079815
 10
189.427932
 20
225.810838
 42
0.107118
 10
188.685571
 20
226.52975
 42
0.162671
 10
188.013718
 20
226.689481
 42
0.139884
  0
LWPOLYLINE
  5
14C
100
AcDbEntity
  8
0
100
AcDbPolyline
 90
        5
 70
     0
 43
0.0
 10
190.013718
 20
218.260787
 42
-0.067462
 10
189.851937
 20
217.067182
 42
-0.079815
 10
189.427932
 20
216.139554
 42
-0.107118
 10
188.685571
 20
215.420641
 42
-0.162671
 10
188.013718
 20
215.26091
 42
-0.139884
  0
LWPOLYLINE
  5
153
100
AcDbEntity
  8
0
100
AcDbPolyline
 90
        5
 70
     0
 43
0.0
 10
181.587104
 20
215.26091
 42
-0.037503
 10
178.224857
 20
215.513455
 42
-0.04999
 10
175.771222
 20
216.139554
 42
-0.093325
 10
173.692591
 20
217.373844
 42
-0.251224
 10
173.362204
 20
218.260787
 42
-0.215453
  0
LINE
  5
15A
100
AcDbEntity
  8
0
100
AcDbLine
 10
173.362204
 20
218.260787
 30
0.0
 11
173.362204
 21
223.689604
 31
0.0
  0
LWPOLYLINE
  5
15B
100
AcDbEntity
  8
0
100
AcDbPolyline
 90
        4
 70
     0
 43
0.0
 10
181.587104
 20
183.832339
 42
-0.014049
 10
177.859378
 20
183.937101
 42
-0.019699
 10
175.21139
 20
184.190983
 42
-0.042543
 10
172.886426
 20
184.710923
 42
-0.399805
  0
LWPOLYLINE
  5
161
100
AcDbEntity
  8
0
100
AcDbPolyline
 90
        5
 70
     0
 43
0.0
 10
188.013718
 20
189.546624
 42
-0.088316
 10
188.789679
 20
189.408487
 42
-0.093678
 10
189.427932
 20
189.026625
 42
-0.102415
 10
189.865378
 20
188.439953
 42
-0.109582
 10
190.013718
 20
187.771237
 42
-0.109582
  0
LWPOLYLINE
  5
168
100
AcDbEntity
  8
0
100
AcDbPolyline
 90
        5
 70
     0
 43
0.0
 10
190.013718
 20
185.056828
 42
-0.149809
 10
189.881047
 20
184.623963
 42
-0.107058
 10
189.427932
 20
184.190983
 42
-0.075395
 10
188.743664
 20
183.902591
 42
-0.076356
 10
188.013718
 20
183.832339
 42
-0.062171
  0
LWPOLYLINE
  5
16F
100
AcDbEntity
  8
0
100
AcDbPolyline
 90
        5
 70
     0
 43
0.0
 10
181.587104
 20
183.832339
 42
-0.015398
 10
178.18799
 20
183.937045
 42
-0.021554
 10
175.771222
 20
184.190983
 42
-0.049353
 10
173.520352
 20
184.757138
 42
-0.387973
 10
173.362204
 20
185.056828
 42
-0.316406
  0
LWPOLYLINE
  5
176
100
AcDbEntity
  8
0
100
AcDbPolyline
 90
        5
 70
     0
 43
0.0
 10
173.362204
 20
187.771237
 42
-0.279558
 10
173.661638
 20
188.264931
 42
-0.067052
 10
175.771222
 20
189.026625
 42
-0.030865
 10
178.19638
 20
189.395343
 42
-0.022297
 10
181.587104
 20
189.546624
 42
-0.022297
  0
LINE
  5
17D
100
AcDbEntity
  8
0
100
AcDbLine
 10
173.362204
 20
185.056828
 30
0.0
 11
173.362204
 21
187.771237
 31
0.0
  0
LINE
  5
17E
100
AcDbEntity
  8
0
100
AcDbLine
 10
181.587104
 20
215.26091
 30
0.0
 11
188.013718
 21
215.26091
 31
0.0
  0
LINE
  5
17F
100
AcDbEntity
  8
0
100
AcDbLine
 10
181.587104
 20
189.546624
 30
0.0
 11
188.013718
 21
189.546624
 31
0.0
  0
LINE
  5
180
100
AcDbEntity
  8
0
100
AcDbLine
 10
181.587104
 20
183.832339
 30
0.0
 11
188.013718
 21
183.832339
 31
0.0
  0
ARC
  5
181
100
AcDbEntity
  8
0
100
AcDbCircle
 10
181.587104
 20
192.975196
 30
0.0
 40
12.0
100
AcDbArc
 50
198.553005
 51
223.526453
  0
ARC
  5
182
100
AcDbEntity
  8
0
100
AcDbCircle
 10
265.013718
 20
220.975196
 30
0.0
 40
100.0
100
AcDbArc
 50
191.536959
 51
198.553005
  0
LINE
  5
183
100
AcDbEntity
  8
0
100
AcDbLine
 10
167.034129
 20
240.975196
 30
0.0
 11
167.034129
 21
200.975196
 31
0.0
  0
LINE
  5
184
100
AcDbEntity
  8
0
100
AcDbLine
 10
190.013718
 20
185.056828
 30
0.0
 11
190.013718
 21
256.893563
 31
0.0
  0
LINE
  5
185
100
AcDbEntity
  8
0
100
AcDbLine
 10
214.513718
 20
208.475196
 30
0.0
 11
214.513718
 21
233.475196
 31
0.0
  0
LINE
  5
186
100
AcDbEntity
  8
0
100
AcDbLine
 10
190.013718
 20
205.475196
 30
0.0
 11
192.013718
 21
205.475196
 31
0.0
  0
LINE
  5
187
100
AcDbEntity
  8
0
100
AcDbLine
 10
190.013718
 20
236.475196
 30
0.0
 11
192.013718
 21
236.475196
 31
0.0
  0
LINE
  5
188
100
AcDbEntity
  8
0
100
AcDbLine
 10
192.013718
 20
205.475196
 30
0.0
 11
192.013718
 21
236.475196
 31
0.0
  0
LINE
  5
189
100
AcDbEntity
  8
1
100
AcDbLine
 10
160.013718
 20
220.975196
 30
0.0
 11
220.013718
 21
220.975196
 31
0.0
  0
LINE
  5
18A
100
AcDbEntity
  8
0
100
AcDbLine
 10
192.013718
 20
208.475196
 30
0.0
 11
214.513718
 21
208.475196
 31
0.0
  0
LINE
  5
18B
100
AcDbEntity
  8
0
100
AcDbLine
 10
192.013718
 20
233.475196
 30
0.0
 11
214.513718
 21
233.475196
 31
0.0
  0
LINE
  5
18C
100
AcDbEntity
  8
0
100
AcDbLine
 10
215.013718
 20
208.975196
 30
0.0
 11
214.513718
 21
208.475196
 31
0.0
  0
LINE
  5
18D
100
AcDbEntity
  8
0
100
AcDbLine
 10
215.013718
 20
232.975196
 30
0.0
 11
214.513718
 21
233.475196
 31
0.0
  0
LINE
  5
18E
100
AcDbEntity
  8
0
100
AcDbLine
 10
215.013718
 20
208.975196
 30
0.0
 11
215.013718
 21
232.975196
 31
0.0
  0
CIRCLE
  5
18F
100
AcDbEntity
  8
0
100
AcDbCircle
 10
65.615207
 20
133.97739
 30
0.0
 40
20.0
  0
CIRCLE
  5
190
100
AcDbEntity
  8
0
100
AcDbCircle
 10
65.615207
 20
133.97739
 30
0.0
 40
17.5
  0
CIRCLE
  5
191
100
AcDbEntity
  8
0
100
AcDbCircle
 10
65.615207
 20
133.97739
 30
0.0
 40
16.7
  0
LINE
  5
192
100
AcDbEntity
  8
0
100
AcDbLine
 10
167.06022
 20
151.397489
 30
0.0
 11
166.955543
 21
151.397489
 31
0.0
  0
LINE
  5
193
100
AcDbEntity
  8
0
100
AcDbLine
 10
167.058318
 20
116.401671
 30
0.0
 11
166.95935
 21
116.401671
 31
0.0
  0
LINE
  5
194
100
AcDbEntity
  8
0
100
AcDbLine
 10
166.607089
 20
116.849754
 30
0.0
 11
166.607089
 21
150.967158
 31
0.0
  0
LINE
  5
195
100
AcDbEntity
  8
0
100
AcDbLine
 10
166.6072
 20
150.965934
 30
0.0
 11
166.6072
 21
151.030029
 31
0.0
  0
ARC
  5
196
100
AcDbEntity
  8
0
100
AcDbCircle
 10
166.998024
 20
151.007233
 30
0.0
 40
0.391609
100
AcDbArc
 50
96.168724
 51
176.369299
  0
LINE
  5
197
100
AcDbEntity
  8
0
100
AcDbLine
 10
166.607645
 20
116.851646
 30
0.0
 11
166.607645
 21
116.765963
 31
0.0
  0
ARC
  5
198
100
AcDbEntity
  8
0
100
AcDbCircle
 10
166.94647
 20
116.740517
 30
0.0
 40
0.339604
100
AcDbArc
 50
176.117068
 51
272.35016
  0
ARC
  5
199
100
AcDbEntity
  8
0
100
AcDbCircle
 10
265.038857
 20
133.990475
 30
0.0
 40
99.0
100
AcDbArc
 50
173.892216
 51
186.164394
  0
LINE
  5
19A
100
AcDbEntity
  8
0
100
AcDbLine
 10
167.036155
 20
238.739296
 30
0.0
 11
166.937405
 21
238.739296
 31
0.0
  0
LINE
  5
19B
100
AcDbEntity
  8
0
100
AcDbLine
 10
167.032203
 20
203.72517
 30
0.0
 11
166.929998
 21
203.72517
 31
0.0
  0
LINE
  5
19C
100
AcDbEntity
  8
0
100
AcDbLine
 10
166.505745
 20
204.146437
 30
0.0
 11
166.505745
 21
238.361944
 31
0.0
  0
ARC
  5
19D
100
AcDbEntity
  8
0
100
AcDbCircle
 10
167.02731
 20
238.199591
 30
0.0
 40
0.546548
100
AcDbArc
 50
99.538529
 51
162.837172
  0
ARC
  5
19E
100
AcDbEntity
  8
0
100
AcDbCircle
 10
166.963023
 20
204.183246
 30
0.0
 40
0.45951
100
AcDbArc
 50
184.842963
 51
265.936415
  0
ARC
  5
19F
100
AcDbEntity
  8
0
100
AcDbCircle
 10
265.013718
 20
220.975196
 30
0.0
 40
99.0
100
AcDbArc
 50
174.416434
 51
185.706119
  0
LINE
  5
1AE
100
AcDbEntity
  8
2
100
AcDbLine
 10
215.0
 20
230.0
 30
0.0
 11
214.0
 21
228.0
 31
0.0
  0
LINE
  5
1AF
100
AcDbEntity
  8
2
100
AcDbLine
 10
214.0
 20
228.0
 30
0.0
 11
183.0
 21
228.0
 31
0.0
  0
LINE
  5
1B0
100
AcDbEntity
  8
2
100
AcDbLine
 10
183.0
 20
228.0
 30
0.0
 11
180.0
 21
221.0
 31
0.0
  0
LINE
  5
1B1
100
AcDbEntity
  8
2
100
AcDbLine
 10
180.0
 20
221.0
 30
0.0
 11
183.0
 21
214.0
 31
0.0
  0
LINE
  5
1B2
100
AcDbEntity
  8
2
100
AcDbLine
 10
183.0
 20
214.0
 30
0.0
 11
214.0
 21
214.0
 31
0.0
  0
LINE
  5
1B3
100
AcDbEntity
  8
2
100
AcDbLine
 10
214.0
 20
214.0
 30
0.0
 11
215.0
 21
213.0
 31
0.0
  0
LINE
  5
1B4
100
AcDbEntity
  8
2
100
AcDbLine
 10
214.0
 20
229.0
 30
0.0
 11
191.0
 21
229.0
 31
0.0
  0
LINE
  5
1B5
100
AcDbEntity
  8
2
100
AcDbLine
 10
191.0
 20
229.0
 30
0.0
 11
190.5
 21
228.0
 31
0.0
  0
LINE
  5
1B6
100
AcDbEntity
  8
2
100
AcDbLine
 10
214.0
 20
213.0
 30
0.0
 11
191.0
 21
213.0
 31
0.0
  0
LINE
  5
1B7
100
AcDbEntity
  8
2
100
AcDbLine
 10
191.0
 20
213.0
 30
0.0
 11
190.5
 21
214.0
 31
0.0
  0
LINE
  5
1B8
100
AcDbEntity
  8
2
100
AcDbLine
 10
215.0
 20
143.0
 30
0.0
 11
214.0
 21
141.0
 31
0.0
  0
LINE
  5
1B9
100
AcDbEntity
  8
2
100
AcDbLine
 10
214.0
 20
141.0
 30
0.0
 11
183.0
 21
141.0
 31
0.0
  0
LINE
  5
1BA
100
AcDbEntity
  8
2
100
AcDbLine
 10
183.0
 20
141.0
 30
0.0
 11
180.0
 21
134.0
 31
0.0
  0
LINE
  5
1BB
100
AcDbEntity
  8
2
100
AcDbLine
 10
180.0
 20
134.0
 30
0.0
 11
183.0
 21
127.0
 31
0.0
  0
LINE
  5
1BC
100
AcDbEntity
  8
2
100
AcDbLine
 10
183.0
 20
127.0
 30
0.0
 11
214.0
 21
127.0
 31
0.0
  0
LINE
  5
1BD
100
AcDbEntity
  8
2
100
AcDbLine
 10
214.0
 20
127.0
 30
0.0
 11
215.0
 21
125.0
 31
0.0
  0
LINE
  5
1BE
100
AcDbEntity
  8
2
100
AcDbLine
 10
214.0
 20
142.0
 30
0.0
 11
191.0
 21
142.0
 31
0.0
  0
LINE
  5
1BF
100
AcDbEntity
  8
2
100
AcDbLine
 10
191.0
 20
142.0
 30
0.0
 11
190.5
 21
141.0
 31
0.0
  0
LINE
  5
1C0
100
AcDbEntity
  8
2
100
AcDbLine
 10
214.0
 20
126.0
 30
0.0
 11
191.0
 21
126.0
 31
0.0
  0
LINE
  5
1C1
100
AcDbEntity
  8
2
100
AcDbLine
 10
191.0
 20
126.0
 30
0.0
 11
190.5
 21
127.0
 31
0.0
  0
LINE
  5
1C2
100
AcDbEntity
  8
2
100
AcDbLine
 10
214.0
 20
141.0
 30
0.0
 11
214.0
 21
127.0
 31
0.0
  0
LINE
  5
1C3
100
AcDbEntity
  8
2
100
AcDbLine
 10
190.5
 20
141.0
 30
0.0
 11
190.5
 21
127.0
 31
0.0
  0
LINE
  5
1C4
100
AcDbEntity
  8
2
100
AcDbLine
 10
183.0
 20
141.0
 30
0.0
 11
183.0
 21
127.0
 31
0.0
  0
LINE
  5
1C5
100
AcDbEntity
  8
2
100
AcDbLine
 10
214.0
 20
228.0
 30
0.0
 11
214.0
 21
214.0
 31
0.0
  0
LINE
  5
1C6
100
AcDbEntity
  8
2
100
AcDbLine
 10
190.5
 20
228.0
 30
0.0
 11
190.5
 21
214.0
 31
0.0
  0
LINE
  5
1C7
100
AcDbEntity
  8
2
100
AcDbLine
 10
183.0
 20
228.0
 30
0.0
 11
183.0
 21
214.0
 31
0.0
  0
LINE
  5
1C8
100
AcDbEntity
  8
2
100
AcDbLine
 10
183.0
 20
42.013698
 30
0.0
 11
214.0
 21
42.013698
 31
0.0
  0
LINE
  5
1C9
100
AcDbEntity
  8
2
100
AcDbLine
 10
214.0
 20
56.013698
 30
0.0
 11
183.0
 21
56.013698
 31
0.0
  0
LINE
  5
1CA
100
AcDbEntity
  8
0
100
AcDbLine
 10
181.587104
 20
80.417465
 30
0.0
 11
188.013718
 21
80.417465
 31
0.0
  0
LINE
  5
1CB
100
AcDbEntity
  8
0
100
AcDbLine
 10
181.587104
 20
86.131751
 30
0.0
 11
188.013718
 21
86.131751
 31
0.0
  0
LINE
  5
1CC
100
AcDbEntity
  8
0
100
AcDbLine
 10
181.587104
 20
54.703179
 30
0.0
 11
188.013718
 21
54.703179
 31
0.0
  0
LINE
  5
1CD
100
AcDbEntity
  8
0
100
AcDbLine
 10
181.587104
 20
43.274608
 30
0.0
 11
188.013718
 21
43.274608
 31
0.0
  0
LINE
  5
1CE
100
AcDbEntity
  8
0
100
AcDbLine
 10
181.587104
 20
11.846036
 30
0.0
 11
188.013718
 21
11.846036
 31
0.0
  0
LINE
  5
1CF
100
AcDbEntity
  8
0
100
AcDbLine
 10
181.587104
 20
17.560322
 30
0.0
 11
188.013718
 21
17.560322
 31
0.0
  0
LINE
  5
1D0
100
AcDbEntity
  8
1
100
AcDbLine
 10
160.013718
 20
48.988893
 30
0.0
 11
220.013718
 21
48.988893
 31
0.0
  0
LINE
  5
1D1
100
AcDbEntity
  8
2
100
AcDbLine
 10
183.0
 20
56.013698
 30
0.0
 11
183.0
 21
42.013698
 31
0.0
  0
LINE
  5
1D2
100
AcDbEntity
  8
2
100
AcDbLine
 10
180.0
 20
49.013698
 30
0.0
 11
183.0
 21
42.013698
 31
0.0
  0
ARC
  5
1D3
100
AcDbEntity
  8
0
100
AcDbCircle
 10
265.013718
 20
48.988893
 30
0.0
 40
99.0
100
AcDbArc
 50
174.416434
 51
185.706119
  0
LINE
  5
1D4
100
AcDbEntity
  8
0
100
AcDbLine
 10
166.505745
 20
32.160135
 30
0.0
 11
166.505745
 21
66.375642
 31
0.0
  0
LINE
  5
1D5
100
AcDbEntity
  8
0
100
AcDbLine
 10
167.034129
 20
68.988893
 30
0.0
 11
167.034129
 21
28.988893
 31
0.0
  0
LINE
  5
1D6
100
AcDbEntity
  8
0
100
AcDbLine
 10
173.362204
 20
46.274485
 30
0.0
 11
173.362204
 21
51.703302
 31
0.0
  0
LWPOLYLINE
  5
1D7
100
AcDbEntity
  8
0
100
AcDbPolyline
 90
        5
 70
     0
 43
0.0
 10
173.362204
 20
20.117061
 42
-0.267552
 10
172.482521
 20
20.624077
 42
-0.072519
 10
171.178087
 20
23.887134
 42
-0.034124
 10
170.536181
 20
27.688295
 42
-0.024773
 10
170.273395
 20
32.988893
 42
-0.024773
  0
ARC
  5
1DE
100
AcDbEntity
  8
0
100
AcDbCircle
 10
265.013718
 20
48.988893
 30
0.0
 40
100.0
100
AcDbArc
 50
191.536959
 51
198.553005
  0
ARC
  5
1DF
100
AcDbEntity
  8
0
100
AcDbCircle
 10
181.587104
 20
20.988893
 30
0.0
 40
12.0
100
AcDbArc
 50
198.553005
 51
223.526453
  0
LINE
  5
1E0
100
AcDbEntity
  8
0
100
AcDbLine
 10
173.362204
 20
13.070526
 30
0.0
 11
173.362204
 21
15.784935
 31
0.0
  0
LWPOLYLINE
  5
1E1
100
AcDbEntity
  8
0
100
AcDbPolyline
 90
        4
 70
     0
 43
0.0
 10
181.587104
 20
11.846036
 42
-0.014049
 10
177.859378
 20
11.950799
 42
-0.019699
 10
175.21139
 20
12.204681
 42
-0.042543
 10
172.886426
 20
12.724621
 42
-0.399805
  0
LWPOLYLINE
  5
1E7
100
AcDbEntity
  8
0
100
AcDbPolyline
 90
        5
 70
     0
 43
0.0
 10
181.587104
 20
11.846036
 42
-0.015398
 10
178.18799
 20
11.950742
 42
-0.021554
 10
175.771222
 20
12.204681
 42
-0.049353
 10
173.520352
 20
12.770836
 42
-0.387973
 10
173.362204
 20
13.070526
 42
-0.316406
  0
LWPOLYLINE
  5
1EE
100
AcDbEntity
  8
0
100
AcDbPolyline
 90
        5
 70
     0
 43
0.0
 10
173.362204
 20
15.784935
 42
-0.279558
 10
173.661638
 20
16.278628
 42
-0.067052
 10
175.771222
 20
17.040323
 42
-0.030865
 10
178.19638
 20
17.409041
 42
-0.022297
 10
181.587104
 20
17.560322
 42
-0.022297
  0
LWPOLYLINE
  5
1F5
100
AcDbEntity
  8
0
100
AcDbPolyline
 90
        5
 70
     0
 43
0.0
 10
170.273395
 20
32.988893
 42
-0.034534
 10
170.534162
 20
36.759902
 42
-0.046436
 10
171.178087
 20
39.499089
 42
-0.089509
 10
172.409568
 20
41.741375
 42
-0.226251
 10
173.362204
 20
42.195701
 42
-0.226251
  0
LINE
  5
1FC
100
AcDbEntity
  8
0
100
AcDbLine
 10
167.032203
 20
31.738868
 30
0.0
 11
166.929998
 21
31.738868
 31
0.0
  0
ARC
  5
1FD
100
AcDbEntity
  8
0
100
AcDbCircle
 10
166.963023
 20
32.196943
 30
0.0
 40
0.45951
100
AcDbArc
 50
184.842963
 51
265.936415
  0
LWPOLYLINE
  5
1FE
100
AcDbEntity
  8
0
100
AcDbPolyline
 90
        5
 70
     0
 43
0.0
 10
181.587104
 20
43.274608
 42
-0.037503
 10
178.224857
 20
43.527153
 42
-0.04999
 10
175.771222
 20
44.153251
 42
-0.093325
 10
173.692591
 20
45.387542
 42
-0.251224
 10
173.362204
 20
46.274485
 42
-0.215453
  0
LWPOLYLINE
  5
205
100
AcDbEntity
  8
0
100
AcDbPolyline
 90
        5
 70
     0
 43
0.0
 10
173.362204
 20
77.860726
 42
0.267552
 10
172.482521
 20
77.35371
 42
0.072519
 10
171.178087
 20
74.090653
 42
0.034124
 10
170.536181
 20
70.289492
 42
0.024773
 10
170.273395
 20
64.988893
 42
0.024773
  0
LWPOLYLINE
  5
20C
100
AcDbEntity
  8
0
100
AcDbPolyline
 90
        5
 70
     0
 43
0.0
 10
170.273395
 20
64.988893
 42
0.034534
 10
170.534162
 20
61.217885
 42
0.046436
 10
171.178087
 20
58.478697
 42
0.089509
 10
172.409568
 20
56.236412
 42
0.226251
 10
173.362204
 20
55.782086
 42
0.226251
  0
LINE
  5
213
100
AcDbEntity
  8
0
100
AcDbLine
 10
167.036155
 20
66.752994
 30
0.0
 11
166.937405
 21
66.752994
 31
0.0
  0
ARC
  5
214
100
AcDbEntity
  8
0
100
AcDbCircle
 10
167.02731
 20
66.213289
 30
0.0
 40
0.546548
100
AcDbArc
 50
99.538529
 51
162.837172
  0
LINE
  5
215
100
AcDbEntity
  8
2
100
AcDbLine
 10
183.0
 20
56.013698
 30
0.0
 11
180.0
 21
49.013698
 31
0.0
  0
LWPOLYLINE
  5
216
100
AcDbEntity
  8
0
100
AcDbPolyline
 90
        5
 70
     0
 43
0.0
 10
181.587104
 20
54.703179
 42
0.037503
 10
178.224857
 20
54.450634
 42
0.04999
 10
175.771222
 20
53.824536
 42
0.093325
 10
173.692591
 20
52.590245
 42
0.251224
 10
173.362204
 20
51.703302
 42
0.215453
  0
ARC
  5
21D
100
AcDbEntity
  8
0
100
AcDbCircle
 10
181.587104
 20
76.988893
 30
0.0
 40
12.0
100
AcDbArc
 50
136.473547
 51
161.446995
  0
ARC
  5
21E
100
AcDbEntity
  8
0
100
AcDbCircle
 10
265.013718
 20
48.988893
 30
0.0
 40
100.0
100
AcDbArc
 50
161.446995
 51
168.463041
  0
LWPOLYLINE
  5
21F
100
AcDbEntity
  8
0
100
AcDbPolyline
 90
        4
 70
     0
 43
0.0
 10
181.587104
 20
86.131751
 42
0.014049
 10
177.859378
 20
86.026988
 42
0.019699
 10
175.21139
 20
85.773106
 42
0.042543
 10
172.886426
 20
85.253166
 42
0.399805
  0
LWPOLYLINE
  5
225
100
AcDbEntity
  8
0
100
AcDbPolyline
 90
        5
 70
     0
 43
0.0
 10
181.587104
 20
86.131751
 42
0.015398
 10
178.18799
 20
86.027044
 42
0.021554
 10
175.771222
 20
85.773106
 42
0.049353
 10
173.520352
 20
85.206951
 42
0.387973
 10
173.362204
 20
84.907261
 42
0.316406
  0
LWPOLYLINE
  5
22C
100
AcDbEntity
  8
0
100
AcDbPolyline
 90
        5
 70
     0
 43
0.0
 10
173.362204
 20
82.192852
 42
0.279558
 10
173.661638
 20
81.699158
 42
0.067052
 10
175.771222
 20
80.937464
 42
0.030865
 10
178.19638
 20
80.568746
 42
0.022297
 10
181.587104
 20
80.417465
 42
0.022297
  0
LINE
  5
233
100
AcDbEntity
  8
0
100
AcDbLine
 10
173.362204
 20
84.907261
 30
0.0
 11
173.362204
 21
82.192852
 31
0.0
  0
LINE
  5
234
100
AcDbEntity
  8
2
100
AcDbLine
 10
190.5
 20
56.013698
 30
0.0
 11
190.5
 21
42.013698
 31
0.0
  0
LINE
  5
235
100
AcDbEntity
  8
2
100
AcDbLine
 10
214.0
 20
56.013698
 30
0.0
 11
214.0
 21
42.013698
 31
0.0
  0
LINE
  5
236
100
AcDbEntity
  8
0
100
AcDbLine
 10
215.013718
 20
36.988893
 30
0.0
 11
215.013718
 21
60.988893
 31
0.0
  0
LINE
  5
237
100
AcDbEntity
  8
0
100
AcDbLine
 10
214.513718
 20
36.488893
 30
0.0
 11
214.513718
 21
61.488893
 31
0.0
  0
LINE
  5
238
100
AcDbEntity
  8
0
100
AcDbLine
 10
192.013718
 20
33.488893
 30
0.0
 11
192.013718
 21
64.488893
 31
0.0
  0
LINE
  5
239
100
AcDbEntity
  8
0
100
AcDbLine
 10
190.013718
 20
13.070526
 30
0.0
 11
190.013718
 21
84.907261
 31
0.0
  0
LWPOLYLINE
  5
23A
100
AcDbEntity
  8
0
100
AcDbPolyline
 90
        5
 70
     0
 43
0.0
 10
190.013718
 20
13.070526
 42
-0.149809
 10
189.881047
 20
12.637661
 42
-0.107058
 10
189.427932
 20
12.204681
 42
-0.075395
 10
188.743664
 20
11.916289
 42
-0.076356
 10
188.013718
 20
11.846036
 42
-0.062171
  0
LWPOLYLINE
  5
241
100
AcDbEntity
  8
0
100
AcDbPolyline
 90
        5
 70
     0
 43
0.0
 10
188.013718
 20
17.560322
 42
-0.088316
 10
188.789679
 20
17.422185
 42
-0.093678
 10
189.427932
 20
17.040323
 42
-0.102415
 10
189.865378
 20
16.45365
 42
-0.109582
 10
190.013718
 20
15.784935
 42
-0.109582
  0
LINE
  5
248
100
AcDbEntity
  8
2
100
AcDbLine
 10
214.0
 20
41.013698
 30
0.0
 11
191.0
 21
41.013698
 31
0.0
  0
LINE
  5
249
100
AcDbEntity
  8
0
100
AcDbLine
 10
192.013718
 20
36.488893
 30
0.0
 11
214.513718
 21
36.488893
 31
0.0
  0
LINE
  5
24A
100
AcDbEntity
  8
0
100
AcDbLine
 10
190.013718
 20
33.488893
 30
0.0
 11
192.013718
 21
33.488893
 31
0.0
  0
LINE
  5
24B
100
AcDbEntity
  8
2
100
AcDbLine
 10
191.0
 20
41.013698
 30
0.0
 11
190.5
 21
42.013698
 31
0.0
  0
LWPOLYLINE
  5
24C
100
AcDbEntity
  8
0
100
AcDbPolyline
 90
        5
 70
     0
 43
0.0
 10
190.013718
 20
46.274485
 42
-0.067462
 10
189.851937
 20
45.08088
 42
-0.079815
 10
189.427932
 20
44.153251
 42
-0.107118
 10
188.685571
 20
43.434339
 42
-0.162671
 10
188.013718
 20
43.274608
 42
-0.139884
  0
LINE
  5
253
100
AcDbEntity
  8
0
100
AcDbLine
 10
215.013718
 20
36.988893
 30
0.0
 11
214.513718
 21
36.488893
 31
0.0
  0
LINE
  5
254
100
AcDbEntity
  8
2
100
AcDbLine
 10
214.0
 20
42.013698
 30
0.0
 11
215.0
 21
41.013698
 31
0.0
  0
LINE
  5
255
100
AcDbEntity
  8
2
100
AcDbLine
 10
214.0
 20
57.013698
 30
0.0
 11
191.0
 21
57.013698
 31
0.0
  0
LINE
  5
256
100
AcDbEntity
  8
0
100
AcDbLine
 10
192.013718
 20
61.488893
 30
0.0
 11
214.513718
 21
61.488893
 31
0.0
  0
LWPOLYLINE
  5
257
100
AcDbEntity
  8
0
100
AcDbPolyline
 90
        5
 70
     0
 43
0.0
 10
190.013718
 20
51.703302
 42
0.067462
 10
189.851937
 20
52.896907
 42
0.079815
 10
189.427932
 20
53.824536
 42
0.107118
 10
188.685571
 20
54.543448
 42
0.162671
 10
188.013718
 20
54.703179
 42
0.139884
  0
LINE
  5
25E
100
AcDbEntity
  8
2
100
AcDbLine
 10
191.0
 20
57.013698
 30
0.0
 11
190.5
 21
56.013698
 31
0.0
  0
LINE
  5
25F
100
AcDbEntity
  8
0
100
AcDbLine
 10
190.013718
 20
64.488893
 30
0.0
 11
192.013718
 21
64.488893
 31
0.0
  0
LINE
  5
260
100
AcDbEntity
  8
2
100
AcDbLine
 10
215.0
 20
58.013698
 30
0.0
 11
214.0
 21
56.013698
 31
0.0
  0
LINE
  5
261
100
AcDbEntity
  8
0
100
AcDbLine
 10
215.013718
 20
60.988893
 30
0.0
 11
214.513718
 21
61.488893
 31
0.0
  0
LWPOLYLINE
  5
262
100
AcDbEntity
  8
0
100
AcDbPolyline
 90
        5
 70
     0
 43
0.0
 10
188.013718
 20
80.417465
 42
0.088316
 10
188.789679
 20
80.555602
 42
0.093678
 10
189.427932
 20
80.937464
 42
0.102415
 10
189.865378
 20
81.524137
 42
0.109582
 10
190.013718
 20
82.192852
 42
0.109582
  0
LWPOLYLINE
  5
269
100
AcDbEntity
  8
0
100
AcDbPolyline
 90
        5
 70
     0
 43
0.0
 10
190.013718
 20
84.907261
 42
0.149809
 10
189.881047
 20
85.340126
 42
0.107058
 10
189.427932
 20
85.773106
 42
0.075395
 10
188.743664
 20
86.061498
 42
0.076356
 10
188.013718
 20
86.131751
 42
0.062171
  0
ENDSEC
  0
SECTION
  2
OBJECTS
  0
DICTIONARY
  5
282
100
AcDbDictionary
  3
ACAD_GROUP
350
283
  3
ACAD_MLINESTYLE
350
290
  3
ACDBVARIABLEDICTIONARY
350
2A5
  0
DICTIONARY
  5
283
102
{ACAD_REACTORS
330
282
102
}
100
AcDbDictionary
  0
DICTIONARY
  5
290
102
{ACAD_REACTORS
330
282
102
}
100
AcDbDictionary
  3
STANDARD
350
291
  0
DICTIONARY
  5
2A5
102
{ACAD_REACTORS
330
282
102
}
100
AcDbDictionary
  3
DIMADEC
350
2A6
  0
MLINESTYLE
  5
291
102
{ACAD_REACTORS
330
290
102
}
100
AcDbMlineStyle
  2
STANDARD
 70
     0
  3

 62
   256
 51
90.0
 52
90.0
 71
     2
 49
0.5
 62
   256
  6
BYLAYER
 49
-0.5
 62
   256
  6
BYLAYER
  0
DICTIONARYVAR
  5
2A6
102
{ACAD_REACTORS
330
2A5
102
}
100
DictionaryVariables
280
     0
  1
0
  0
ENDSEC
  0
EOF
