  0
SECTION
  2
HEADER
  9
$ACADVER
  1
AC1014
  9
$ACADMAINTVER
 70
     0
  9
$DWGCODEPAGE
  3
ANSI_932
  9
$INSBASE
 10
0.0
 20
0.0
 30
0.0
  9
$EXTMIN
 10
0.0
 20
0.0
 30
0.0
  9
$EXTMAX
 10
375.0
 20
270.0
 30
0.0
  9
$LIMMIN
 10
0.0
 20
0.0
  9
$LIMMAX
 10
375.0
 20
270.0
  9
$ORTHOMODE
 70
     0
  9
$REGENMODE
 70
     1
  9
$FILLMODE
 70
     1
  9
$QTEXTMODE
 70
     0
  9
$MIRRTEXT
 70
     1
  9
$DRAGMODE
 70
     1
  9
$LTSCALE
 40
10.0
  9
$OSMODE
 70
     0
  9
$ATTMODE
 70
     1
  9
$TEXTSIZE
 40
6.0
  9
$TRACEWID
 40
0.05
  9
$TEXTSTYLE
  7
BIGFONT
  9
$CLAYER
  8
0
  9
$CELTYPE
  6
BYLAYER
  9
$CECOLOR
 62
   256
  9
$CELTSCALE
 40
1.0
  9
$DELOBJ
 70
     1
  9
$DISPSILH
 70
     0
  9
$DIMSCALE
 40
1.0
  9
$DIMASZ
 40
3.0
  9
$DIMEXO
 40
2.0
  9
$DIMDLI
 40
0.38
  9
$DIMRND
 40
0.0
  9
$DIMDLE
 40
0.0
  9
$DIMEXE
 40
2.0
  9
$DIMTP
 40
0.0
  9
$DIMTM
 40
0.0
  9
$DIMTXT
 40
3.2
  9
$DIMCEN
 40
0.0
  9
$DIMTSZ
 40
0.0
  9
$DIMTOL
 70
     0
  9
$DIMLIM
 70
     0
  9
$DIMTIH
 70
     0
  9
$DIMTOH
 70
     0
  9
$DIMSE1
 70
     0
  9
$DIMSE2
 70
     0
  9
$DIMTAD
 70
     1
  9
$DIMZIN
 70
     0
  9
$DIMBLK
  1

  9
$DIMASO
 70
     0
  9
$DIMSHO
 70
     0
  9
$DIMPOST
  1

  9
$DIMAPOST
  1

  9
$DIMALT
 70
     0
  9
$DIMALTD
 70
     2
  9
$DIMALTF
 40
25.4
  9
$DIMLFAC
 40
1.0
  9
$DIMTOFL
 70
     0
  9
$DIMTVP
 40
1.6
  9
$DIMTIX
 70
     1
  9
$DIMSOXD
 70
     0
  9
$DIMSAH
 70
     0
  9
$DIMBLK1
  1

  9
$DIMBLK2
  1

  9
$DIMSTYLE
  2
STANDARD
  9
$DIMCLRD
 70
     0
  9
$DIMCLRE
 70
     0
  9
$DIMCLRT
 70
     0
  9
$DIMTFAC
 40
1.0
  9
$DIMGAP
 40
0.09
  9
$DIMJUST
 70
     0
  9
$DIMSD1
 70
     0
  9
$DIMSD2
 70
     0
  9
$DIMTOLJ
 70
     1
  9
$DIMTZIN
 70
     0
  9
$DIMALTZ
 70
     0
  9
$DIMALTTZ
 70
     0
  9
$DIMFIT
 70
     5
  9
$DIMUPT
 70
     0
  9
$DIMUNIT
 70
     2
  9
$DIMDEC
 70
     4
  9
$DIMTDEC
 70
     4
  9
$DIMALTU
 70
     2
  9
$DIMALTTD
 70
     2
  9
$DIMTXSTY
  7
BIGFONT
  9
$DIMAUNIT
 70
     0
  9
$LUNITS
 70
     2
  9
$LUPREC
 70
     4
  9
$SKETCHINC
 40
0.1
  9
$FILLETRAD
 40
0.0
  9
$AUNITS
 70
     0
  9
$AUPREC
 70
     0
  9
$MENU
  1
ACAD
  9
$ELEVATION
 40
0.0
  9
$PELEVATION
 40
0.0
  9
$THICKNESS
 40
0.0
  9
$LIMCHECK
 70
     0
  9
$BLIPMODE
 70
     0
  9
$CHAMFERA
 40
0.0
  9
$CHAMFERB
 40
0.0
  9
$CHAMFERC
 40
0.0
  9
$CHAMFERD
 40
0.0
  9
$SKPOLY
 70
     0
  9
$TDCREATE
 40
2450683.626747685
  9
$TDUPDATE
 40
2450683.626747685
  9
$TDINDWG
 40
0.0000000000
  9
$TDUSRTIMER
 40
0.0000000000
  9
$USRTIMER
 70
     1
  9
$ANGBASE
 50
0.0
  9
$ANGDIR
 70
     0
  9
$PDMODE
 70
     0
  9
$PDSIZE
 40
0.0
  9
$PLINEWID
 40
0.0
  9
$COORDS
 70
     2
  9
$SPLFRAME
 70
     0
  9
$SPLINETYPE
 70
     6
  9
$SPLINESEGS
 70
     8
  9
$ATTDIA
 70
     0
  9
$ATTREQ
 70
     1
  9
$HANDLING
 70
     1
  9
$HANDSEED
  5
2AF
  9
$SURFTAB1
 70
     6
  9
$SURFTAB2
 70
     6
  9
$SURFTYPE
 70
     6
  9
$SURFU
 70
     6
  9
$SURFV
 70
     6
  9
$UCSNAME
  2

  9
$UCSORG
 10
0.0
 20
0.0
 30
0.0
  9
$UCSXDIR
 10
1.0
 20
0.0
 30
0.0
  9
$UCSYDIR
 10
0.0
 20
1.0
 30
0.0
  9
$PUCSNAME
  2

  9
$PUCSORG
 10
0.0
 20
0.0
 30
0.0
  9
$PUCSXDIR
 10
1.0
 20
0.0
 30
0.0
  9
$PUCSYDIR
 10
0.0
 20
1.0
 30
0.0
  9
$USERI1
 70
     0
  9
$USERI2
 70
     0
  9
$USERI3
 70
     0
  9
$USERI4
 70
     0
  9
$USERI5
 70
     0
  9
$USERR1
 40
0.0
  9
$USERR2
 40
0.0
  9
$USERR3
 40
0.0
  9
$USERR4
 40
0.0
  9
$USERR5
 40
0.0
  9
$WORLDVIEW
 70
     1
  9
$SHADEDGE
 70
     3
  9
$SHADEDIF
 70
    70
  9
$TILEMODE
 70
     1
  9
$MAXACTVP
 70
    16
  9
$PINSBASE
 10
0.0
 20
0.0
 30
0.0
  9
$PLIMCHECK
 70
     0
  9
$PEXTMIN
 10
1.000000E+20
 20
1.000000E+20
 30
1.000000E+20
  9
$PEXTMAX
 10
-1.000000E+20
 20
-1.000000E+20
 30
-1.000000E+20
  9
$PLIMMIN
 10
0.0
 20
0.0
  9
$PLIMMAX
 10
12.0
 20
9.0
  9
$UNITMODE
 70
     0
  9
$VISRETAIN
 70
     0
  9
$PLINEGEN
 70
   510
  9
$PSLTSCALE
 70
     0
  9
$TREEDEPTH
 70
  3020
  9
$PICKSTYLE
 70
     1
  9
$CMLSTYLE
  2
STANDARD
  9
$CMLJUST
 70
     0
  9
$CMLSCALE
 40
1.0
  9
$PROXYGRAPHICS
 70
     1
  9
$MEASUREMENT
 70
     0
  0
ENDSEC
  0
SECTION
  2
CLASSES
  0
CLASS
  1
DICTIONARYVAR
  2
AcDbDictionaryVar
  3
"AutoCAD"
 90
        0
280
     0
281
     0
  0
CLASS
  1
LWPOLYLINE
  2
AcDbPolyline
  3
"AutoCAD"
 90
        0
280
     0
281
     1
  0
ENDSEC
  0
SECTION
  2
TABLES
  0
TABLE
  2
VPORT
  5
282
100
AcDbSymbolTable
 70
     3
  0
VPORT
  5
2AE
100
AcDbSymbolTableRecord
100
AcDbViewportTableRecord
  2
*ACTIVE
 70
     0
 10
0.0
 20
0.0
 11
1.0
 21
1.0
 12
229.111675
 22
159.665908
 13
0.0
 23
0.0
 14
0.5
 24
0.5
 15
1.0
 25
1.0
 16
0.0
 26
0.0
 36
1.0
 17
0.0
 27
0.0
 37
0.0
 40
638.663633
 41
1.434944
 42
50.0
 43
0.0
 44
0.0
 50
0.0
 51
0.0
 71
     0
 72
   500
 73
     1
 74
     1
 75
     0
 76
     0
 77
     0
 78
     0
  0
ENDTAB
  0
TABLE
  2
LTYPE
  5
27F
100
AcDbSymbolTable
 70
     4
  0
LTYPE
  5
28B
100
AcDbSymbolTableRecord
100
AcDbLinetypeTableRecord
  2
BYBLOCK
 70
     0
  3

 72
    65
 73
     0
 40
0.0
  0
LTYPE
  5
28C
100
AcDbSymbolTableRecord
100
AcDbLinetypeTableRecord
  2
BYLAYER
 70
     0
  3

 72
    65
 73
     0
 40
0.0
  0
LTYPE
  5
28D
100
AcDbSymbolTableRecord
100
AcDbLinetypeTableRecord
  2
CONTINUOUS
 70
     0
  3
実線
 72
    65
 73
     0
 40
0.0
  0
LTYPE
  5
29A
100
AcDbSymbolTableRecord
100
AcDbLinetypeTableRecord
  2
CENTER
 70
     0
  3
____ _ ____ _ ____ _ ____ _ ____ _ ____ _ ____
 72
    65
 73
     4
 40
2.0
 49
1.25
 74
     0
 49
-0.25
 74
     0
 49
0.25
 74
     0
 49
-0.25
 74
     0
  0
LTYPE
  5
29B
100
AcDbSymbolTableRecord
100
AcDbLinetypeTableRecord
  2
HIDDEN
 70
     0
  3
_ _ _ _ _ _ _ _ _ _ _ _ _ _ _ _ _ _ _ _ _ _ _
 72
    65
 73
     2
 40
0.375
 49
0.25
 74
     0
 49
-0.125
 74
     0
  0
LTYPE
  5
29C
100
AcDbSymbolTableRecord
100
AcDbLinetypeTableRecord
  2
TENSEN1
 70
     0
  3

 72
    65
 73
     2
 40
0.4
 49
0.3
 74
     0
 49
-0.1
 74
     0
  0
ENDTAB
  0
TABLE
  2
LAYER
  5
27C
100
AcDbSymbolTable
 70
     5
  0
LAYER
  5
288
100
AcDbSymbolTableRecord
100
AcDbLayerTableRecord
  2
0
 70
     0
 62
     7
  6
CONTINUOUS
  0
LAYER
  5
2A1
100
AcDbSymbolTableRecord
100
AcDbLayerTableRecord
  2
1
 70
     0
 62
     1
  6
CENTER
  0
LAYER
  5
2A2
100
AcDbSymbolTableRecord
100
AcDbLayerTableRecord
  2
10
 70
     0
 62
     7
  6
CONTINUOUS
  0
LAYER
  5
2A3
100
AcDbSymbolTableRecord
100
AcDbLayerTableRecord
  2
11
 70
     0
 62
     3
  6
CONTINUOUS
  0
LAYER
  5
2A4
100
AcDbSymbolTableRecord
100
AcDbLayerTableRecord
  2
2
 70
     0
 62
     2
  6
TENSEN1
  0
ENDTAB
  0
TABLE
  2
STYLE
  5
27D
100
AcDbSymbolTable
 70
     4
  0
STYLE
  5
289
100
AcDbSymbolTableRecord
100
AcDbTextStyleTableRecord
  2
STANDARD
 70
     0
 40
0.0
 41
1.0
 50
0.0
 71
     0
 42
0.2
  3
TXT
  4
BIGFONT
  0
STYLE
  5
297
100
AcDbSymbolTableRecord
100
AcDbTextStyleTableRecord
  2
K70
 70
     0
 40
0.0
 41
0.7
 50
0.0
 71
     0
 42
0.2
  3
TXT
  4
BIGFONT
  0
STYLE
  5
298
100
AcDbSymbolTableRecord
100
AcDbTextStyleTableRecord
  2
07500
 70
     0
 40
0.0
 41
0.75
 50
0.0
 71
     0
 42
0.2
  3
TXT
  4
BIGFONT
  0
STYLE
  5
299
100
AcDbSymbolTableRecord
100
AcDbTextStyleTableRecord
  2
BIGFONT
 70
     0
 40
6.0
 41
0.9
 50
0.0
 71
     0
 42
6.0
  3

  4
bigfont
  0
ENDTAB
  0
TABLE
  2
VIEW
  5
280
100
AcDbSymbolTable
 70
     1
  0
VIEW
  5
29D
100
AcDbSymbolTableRecord
100
AcDbViewTableRecord
  2
ALL
 70
     0
 40
179.538466
 10
135.0
 20
89.769233
 41
0.0
 11
0.0
 21
0.0
 31
1.0
 12
0.0
 22
0.0
 32
0.0
 42
0.0
 43
0.0
 44
0.0
 50
0.0
 71
     0
  0
ENDTAB
  0
TABLE
  2
UCS
  5
281
100
AcDbSymbolTable
 70
     0
  0
ENDTAB
  0
TABLE
  2
APPID
  5
283
100
AcDbSymbolTable
 70
     1
  0
APPID
  5
28A
100
AcDbSymbolTableRecord
100
AcDbRegAppTableRecord
  2
ACAD
 70
     0
  0
ENDTAB
  0
TABLE
  2
DIMSTYLE
  5
284
100
AcDbSymbolTable
 70
     1
  0
DIMSTYLE
105
2A0
100
AcDbSymbolTableRecord
100
AcDbDimStyleTableRecord
  2
STANDARD
 70
     0
  3

  4

  5

  6

  7

 40
1.0
 41
0.18
 42
0.0625
 43
0.38
 44
0.18
 45
0.0
 46
0.0
 47
0.0
 48
0.0
140
0.18
141
0.09
142
0.0
143
25.4
144
1.0
145
0.0
146
1.0
147
0.09
 71
     0
 72
     0
 73
     1
 74
     1
 75
     0
 76
     0
 77
     0
 78
     0
170
     0
171
     2
172
     0
173
     0
174
     0
175
     0
176
     0
177
     0
178
     0
270
     2
271
     4
272
     4
273
     2
274
     2
340
299
275
     0
280
     0
281
     0
282
     0
283
     1
284
     0
285
     0
286
     0
287
     5
288
     0
  0
ENDTAB
  0
TABLE
  2
BLOCK_RECORD
  5
27B
100
AcDbSymbolTable
 70
     1
  0
BLOCK_RECORD
  5
291
100
AcDbSymbolTableRecord
100
AcDbBlockTableRecord
  2
*MODEL_SPACE
  0
BLOCK_RECORD
  5
28E
100
AcDbSymbolTableRecord
100
AcDbBlockTableRecord
  2
*PAPER_SPACE
  0
BLOCK_RECORD
  5
296
100
AcDbSymbolTableRecord
100
AcDbBlockTableRecord
  2
QQ
  0
ENDTAB
  0
ENDSEC
  0
SECTION
  2
BLOCKS
  0
BLOCK
  5
2A7
100
AcDbEntity
  8
0
100
AcDbBlockBegin
  2
*MODEL_SPACE
 70
     0
 10
0.0
 20
0.0
 30
0.0
  3
*MODEL_SPACE
  1

  0
ENDBLK
  5
2A8
100
AcDbEntity
  8
0
100
AcDbBlockEnd
  0
BLOCK
  5
2A5
100
AcDbEntity
 67
     1
  8
0
100
AcDbBlockBegin
  2
*PAPER_SPACE
 70
     0
 10
0.0
 20
0.0
 30
0.0
  3
*PAPER_SPACE
  1

  0
ENDBLK
  5
2A6
100
AcDbEntity
 67
     1
  8
0
100
AcDbBlockEnd
  0
BLOCK
  5
2E
100
AcDbEntity
  8
0
100
AcDbBlockBegin
  2
QQ
 70
     0
 10
270.0
 20
0.0
 30
0.0
  3
QQ
  1

  0
LINE
  5
2F
100
AcDbEntity
  8
11
100
AcDbLine
 10
173.0
 20
36.0
 30
0.0
 11
270.0
 21
36.0
 31
0.0
  0
TEXT
  5
30
100
AcDbEntity
  8
11
100
AcDbText
 10
175.0
 20
32.5
 30
0.0
 40
2.5
  1
部品名称
100
AcDbText
  0
LINE
  5
31
100
AcDbEntity
  8
11
100
AcDbLine
 10
173.0
 20
36.0
 30
0.0
 11
173.0
 21
0.0
 31
0.0
  0
LINE
  5
32
100
AcDbEntity
  8
11
100
AcDbLine
 10
173.0
 20
24.0
 30
0.0
 11
270.0
 21
24.0
 31
0.0
  0
TEXT
  5
33
100
AcDbEntity
  8
11
100
AcDbText
 10
175.0
 20
20.5
 30
0.0
 40
2.5
  1
品番
100
AcDbText
  0
LINE
  5
34
100
AcDbEntity
  8
11
100
AcDbLine
 10
173.0
 20
12.0
 30
0.0
 11
270.0
 21
12.0
 31
0.0
  0
TEXT
  5
35
100
AcDbEntity
  8
11
100
AcDbText
 10
175.0
 20
8.5
 30
0.0
 40
2.5
  1
尺度
100
AcDbText
  0
TEXT
  5
36
100
AcDbEntity
  8
11
100
AcDbText
 10
200.0
 20
8.5
 30
0.0
 40
2.5
  1
図番
100
AcDbText
  0
LINE
  5
37
100
AcDbEntity
  8
11
100
AcDbLine
 10
198.0
 20
0.0
 30
0.0
 11
198.0
 21
12.0
 31
0.0
  0
ENDBLK
  5
38
100
AcDbEntity
  8
0
100
AcDbBlockEnd
  0
ENDSEC
  0
SECTION
  2
ENTITIES
  0
ARC
  5
39
100
AcDbEntity
  8
0
100
AcDbCircle
 10
184.845056
 20
151.541668
 30
0.0
 40
10.0
100
AcDbArc
 50
90.0
 51
162.11287
  0
ARC
  5
3A
100
AcDbEntity
  8
0
100
AcDbCircle
 10
251.461496
 20
130.041668
 30
0.0
 40
80.0
100
AcDbArc
 50
162.11287
 51
168.463041
  0
LINE
  5
3B
100
AcDbEntity
  8
1
100
AcDbLine
 10
166.461496
 20
130.041668
 30
0.0
 11
216.461496
 21
130.041668
 31
0.0
  0
ARC
  5
3C
100
AcDbEntity
  8
0
100
AcDbCircle
 10
187.961496
 20
159.041668
 30
0.0
 40
2.5
100
AcDbArc
 50
0.0
 51
90.0
  0
ARC
  5
3D
100
AcDbEntity
  8
0
100
AcDbCircle
 10
187.961496
 20
101.041668
 30
0.0
 40
2.5
100
AcDbArc
 50
270.0
 51
360.0
  0
ARC
  5
3E
100
AcDbEntity
  8
0
100
AcDbCircle
 10
184.845056
 20
108.541668
 30
0.0
 40
10.0
100
AcDbArc
 50
197.88713
 51
270.0
  0
LINE
  5
3F
100
AcDbEntity
  8
0
100
AcDbLine
 10
192.461496
 20
140.541668
 30
0.0
 11
210.961496
 21
140.541668
 31
0.0
  0
LINE
  5
40
100
AcDbEntity
  8
0
100
AcDbLine
 10
192.461496
 20
119.541668
 30
0.0
 11
210.961496
 21
119.541668
 31
0.0
  0
LINE
  5
41
100
AcDbEntity
  8
0
100
AcDbLine
 10
211.461496
 20
140.041668
 30
0.0
 11
210.961496
 21
140.541668
 31
0.0
  0
LINE
  5
42
100
AcDbEntity
  8
0
100
AcDbLine
 10
211.461496
 20
120.041668
 30
0.0
 11
210.961496
 21
119.541668
 31
0.0
  0
LINE
  5
43
100
AcDbEntity
  8
0
100
AcDbLine
 10
190.461496
 20
143.041668
 30
0.0
 11
192.461496
 21
143.041668
 31
0.0
  0
LINE
  5
44
100
AcDbEntity
  8
0
100
AcDbLine
 10
190.461496
 20
117.041668
 30
0.0
 11
192.461496
 21
117.041668
 31
0.0
  0
LINE
  5
45
100
AcDbEntity
  8
0
100
AcDbLine
 10
184.845056
 20
161.541668
 30
0.0
 11
187.961496
 21
161.541668
 31
0.0
  0
LINE
  5
46
100
AcDbEntity
  8
0
100
AcDbLine
 10
184.845056
 20
98.541668
 30
0.0
 11
187.961496
 21
98.541668
 31
0.0
  0
LINE
  5
47
100
AcDbEntity
  8
0
100
AcDbLine
 10
211.461496
 20
140.041668
 30
0.0
 11
211.461496
 21
120.041668
 31
0.0
  0
LINE
  5
48
100
AcDbEntity
  8
0
100
AcDbLine
 10
192.461496
 20
143.041668
 30
0.0
 11
192.461496
 21
117.041668
 31
0.0
  0
LINE
  5
49
100
AcDbEntity
  8
0
100
AcDbLine
 10
190.461496
 20
159.041668
 30
0.0
 11
190.461496
 21
101.041665
 31
0.0
  0
ARC
  5
4A
100
AcDbEntity
  8
0
100
AcDbCircle
 10
73.364322
 20
130.0
 30
0.0
 40
31.5
100
AcDbArc
 50
25.945698
 51
34.054302
  0
ARC
  5
4B
100
AcDbEntity
  8
0
100
AcDbCircle
 10
121.364322
 20
130.0
 30
0.0
 40
22.0
100
AcDbArc
 50
153.527117
 51
206.472883
  0
ARC
  5
4C
100
AcDbEntity
  8
0
100
AcDbCircle
 10
97.642968
 20
141.813016
 30
0.0
 40
4.5
100
AcDbArc
 50
333.527117
 51
25.945698
  0
ARC
  5
4D
100
AcDbEntity
  8
0
100
AcDbCircle
 10
97.642968
 20
118.186984
 30
0.0
 40
4.5
100
AcDbArc
 50
334.054302
 51
26.472883
  0
ARC
  5
4E
100
AcDbEntity
  8
0
100
AcDbCircle
 10
73.364322
 20
130.0
 30
0.0
 40
31.5
100
AcDbArc
 50
325.945698
 51
334.054302
  0
ARC
  5
4F
100
AcDbEntity
  8
0
100
AcDbCircle
 10
97.364322
 20
88.430781
 30
0.0
 40
22.0
100
AcDbArc
 50
93.527117
 51
146.472883
  0
ARC
  5
50
100
AcDbEntity
  8
0
100
AcDbCircle
 10
95.734018
 20
114.880584
 30
0.0
 40
4.5
100
AcDbArc
 50
273.527117
 51
325.945698
  0
ARC
  5
51
100
AcDbEntity
  8
0
100
AcDbCircle
 10
75.273273
 20
103.067568
 30
0.0
 40
4.5
100
AcDbArc
 50
274.054302
 51
326.472883
  0
ARC
  5
52
100
AcDbEntity
  8
0
100
AcDbCircle
 10
73.364322
 20
130.0
 30
0.0
 40
31.5
100
AcDbArc
 50
265.945698
 51
274.054302
  0
ARC
  5
53
100
AcDbEntity
  8
0
100
AcDbCircle
 10
49.364322
 20
88.430781
 30
0.0
 40
22.0
100
AcDbArc
 50
33.527117
 51
86.472883
  0
ARC
  5
54
100
AcDbEntity
  8
0
100
AcDbCircle
 10
71.455372
 20
103.067568
 30
0.0
 40
4.5
100
AcDbArc
 50
213.527117
 51
265.945698
  0
ARC
  5
55
100
AcDbEntity
  8
0
100
AcDbCircle
 10
50.994627
 20
114.880584
 30
0.0
 40
4.5
100
AcDbArc
 50
214.054302
 51
266.472883
  0
ARC
  5
56
100
AcDbEntity
  8
0
100
AcDbCircle
 10
73.364322
 20
130.0
 30
0.0
 40
31.5
100
AcDbArc
 50
205.945698
 51
214.054302
  0
ARC
  5
57
100
AcDbEntity
  8
0
100
AcDbCircle
 10
25.364322
 20
130.0
 30
0.0
 40
22.0
100
AcDbArc
 50
333.527117
 51
26.472883
  0
ARC
  5
58
100
AcDbEntity
  8
0
100
AcDbCircle
 10
49.085677
 20
118.186984
 30
0.0
 40
4.5
100
AcDbArc
 50
153.527117
 51
205.945698
  0
ARC
  5
59
100
AcDbEntity
  8
0
100
AcDbCircle
 10
49.085677
 20
141.813016
 30
0.0
 40
4.5
100
AcDbArc
 50
154.054302
 51
206.472883
  0
ARC
  5
5A
100
AcDbEntity
  8
0
100
AcDbCircle
 10
73.364322
 20
130.0
 30
0.0
 40
31.5
100
AcDbArc
 50
145.945698
 51
154.054302
  0
ARC
  5
5B
100
AcDbEntity
  8
0
100
AcDbCircle
 10
49.364322
 20
171.569219
 30
0.0
 40
22.0
100
AcDbArc
 50
273.527117
 51
326.472883
  0
ARC
  5
5C
100
AcDbEntity
  8
0
100
AcDbCircle
 10
50.994627
 20
145.119416
 30
0.0
 40
4.5
100
AcDbArc
 50
93.527117
 51
145.945698
  0
ARC
  5
5D
100
AcDbEntity
  8
0
100
AcDbCircle
 10
71.455372
 20
156.932432
 30
0.0
 40
4.5
100
AcDbArc
 50
94.054302
 51
146.472883
  0
ARC
  5
5E
100
AcDbEntity
  8
0
100
AcDbCircle
 10
95.734018
 20
145.119416
 30
0.0
 40
4.5
100
AcDbArc
 50
34.054302
 51
86.472883
  0
ARC
  5
5F
100
AcDbEntity
  8
0
100
AcDbCircle
 10
75.273273
 20
156.932432
 30
0.0
 40
4.5
100
AcDbArc
 50
33.527117
 51
85.945698
  0
ARC
  5
60
100
AcDbEntity
  8
0
100
AcDbCircle
 10
97.364322
 20
171.569219
 30
0.0
 40
22.0
100
AcDbArc
 50
213.527117
 51
266.472883
  0
ARC
  5
61
100
AcDbEntity
  8
0
100
AcDbCircle
 10
73.364322
 20
130.0
 30
0.0
 40
31.5
100
AcDbArc
 50
85.945698
 51
94.054302
  0
LINE
  5
62
100
AcDbEntity
  8
1
100
AcDbLine
 10
73.364322
 20
166.5
 30
0.0
 11
73.364322
 21
93.5
 31
0.0
  0
LINE
  5
63
100
AcDbEntity
  8
1
100
AcDbLine
 10
36.864322
 20
130.0
 30
0.0
 11
109.864322
 21
130.0
 31
0.0
  0
LINE
  5
98
100
AcDbEntity
  8
0
100
AcDbLine
 10
210.961496
 20
140.541668
 30
0.0
 11
210.961496
 21
119.541668
 31
0.0
  0
LINE
  5
A1
100
AcDbEntity
  8
0
100
AcDbLine
 10
184.845056
 20
110.46207
 30
0.0
 11
187.961496
 21
110.46207
 31
0.0
  0
LINE
  5
A2
100
AcDbEntity
  8
0
100
AcDbLine
 10
184.845056
 20
118.461699
 30
0.0
 11
187.961496
 21
118.461699
 31
0.0
  0
LINE
  5
A3
100
AcDbEntity
  8
0
100
AcDbLine
 10
177.92409
 20
112.40235
 30
0.0
 11
177.92409
 21
116.259816
 31
0.0
  0
LWPOLYLINE
  5
A4
100
AcDbEntity
  8
0
100
AcDbPolyline
 90
        5
 70
     0
 43
0.0
 10
177.92409
 20
112.40235
 42
0.248907
 10
178.228226
 20
111.829257
 42
0.080591
 10
179.951194
 20
111.030365
 42
0.039452
 10
182.000932
 20
110.626653
 42
0.02891
 10
184.845056
 20
110.46207
 42
0.02891
  0
LWPOLYLINE
  5
AB
100
AcDbEntity
  8
0
100
AcDbPolyline
 90
        5
 70
     0
 43
0.0
 10
184.845056
 20
118.461699
 42
0.032768
 10
182.007201
 20
118.275516
 42
0.044278
 10
179.951194
 20
117.816782
 42
0.086955
 10
178.177575
 20
116.890044
 42
0.273218
 10
177.92409
 20
116.259816
 42
0.233043
  0
LWPOLYLINE
  5
B2
100
AcDbEntity
  8
0
100
AcDbPolyline
 90
        5
 70
     0
 43
0.0
 10
190.461496
 20
116.259816
 42
0.110345
 10
190.276416
 20
117.088245
 42
0.102637
 10
189.729263
 20
117.816782
 42
0.093335
 10
188.932255
 20
118.290152
 42
0.087678
 10
187.961496
 20
118.461699
 42
0.087678
  0
LWPOLYLINE
  5
B9
100
AcDbEntity
  8
0
100
AcDbPolyline
 90
        5
 70
     0
 43
0.0
 10
187.961496
 20
110.46207
 42
0.077917
 10
188.944252
 20
110.616154
 42
0.087463
 10
189.729263
 20
111.030365
 42
0.105526
 10
190.323318
 20
111.73491
 42
0.144035
 10
190.461496
 20
112.40235
 42
0.123179
  0
ARC
  5
C0
100
AcDbEntity
  8
0
100
AcDbCircle
 10
200.85238
 20
130.041668
 30
0.0
 40
24.93761
100
AcDbArc
 50
156.842331
 51
203.157669
  0
LWPOLYLINE
  5
C1
100
AcDbEntity
  8
0
100
AcDbPolyline
 90
        5
 70
     0
 43
0.0
 10
177.92409
 20
110.430776
 42
0.135748
 10
177.197214
 20
110.229727
 42
0.106932
 10
176.503287
 20
109.579696
 42
0.08169
 10
176.030652
 20
108.580883
 42
0.085027
 10
175.914771
 20
107.525008
 42
0.069853
  0
LWPOLYLINE
  5
C8
100
AcDbEntity
  8
0
100
AcDbPolyline
 90
        3
 70
     0
 43
0.0
 10
175.914771
 20
107.525008
 42
0.030014
 10
176.085062
 20
104.690697
 42
0.02773
 10
176.332712
 20
103.293812
 42
0.082525
  0
LWPOLYLINE
  5
CD
100
AcDbEntity
  8
0
100
AcDbPolyline
 90
        5
 70
     0
 43
0.0
 10
187.961496
 20
149.621266
 42
-0.077917
 10
188.944252
 20
149.467183
 42
-0.087463
 10
189.729263
 20
149.052972
 42
-0.105526
 10
190.323318
 20
148.348427
 42
-0.144035
 10
190.461496
 20
147.680987
 42
-0.123179
  0
LWPOLYLINE
  5
D4
100
AcDbEntity
  8
0
100
AcDbPolyline
 90
        5
 70
     0
 43
0.0
 10
190.461496
 20
143.823521
 42
-0.110345
 10
190.276416
 20
142.995092
 42
-0.102637
 10
189.729263
 20
142.266555
 42
-0.093335
 10
188.932255
 20
141.793184
 42
-0.087678
 10
187.961496
 20
141.621638
 42
-0.087678
  0
LWPOLYLINE
  5
DB
100
AcDbEntity
  8
0
100
AcDbPolyline
 90
        5
 70
     0
 43
0.0
 10
184.845056
 20
141.621638
 42
-0.032768
 10
182.007201
 20
141.80782
 42
-0.044278
 10
179.951194
 20
142.266555
 42
-0.086955
 10
178.177575
 20
143.193292
 42
-0.273218
 10
177.92409
 20
143.823521
 42
-0.233043
  0
LWPOLYLINE
  5
E2
100
AcDbEntity
  8
0
100
AcDbPolyline
 90
        5
 70
     0
 43
0.0
 10
177.92409
 20
147.680987
 42
-0.248907
 10
178.228226
 20
148.254079
 42
-0.080591
 10
179.951194
 20
149.052972
 42
-0.039452
 10
182.000932
 20
149.456684
 42
-0.02891
 10
184.845056
 20
149.621266
 42
-0.02891
  0
LINE
  5
E9
100
AcDbEntity
  8
0
100
AcDbLine
 10
177.92409
 20
147.680987
 30
0.0
 11
177.92409
 21
143.823521
 31
0.0
  0
LINE
  5
EA
100
AcDbEntity
  8
0
100
AcDbLine
 10
184.845056
 20
141.621638
 30
0.0
 11
187.961496
 21
141.621638
 31
0.0
  0
LINE
  5
EB
100
AcDbEntity
  8
0
100
AcDbLine
 10
184.845056
 20
149.621266
 30
0.0
 11
187.961496
 21
149.621266
 31
0.0
  0
LWPOLYLINE
  5
EC
100
AcDbEntity
  8
0
100
AcDbPolyline
 90
        5
 70
     0
 43
0.0
 10
177.92409
 20
149.65256
 42
-0.135748
 10
177.197214
 20
149.853609
 42
-0.106932
 10
176.503287
 20
150.50364
 42
-0.08169
 10
176.030652
 20
151.502453
 42
-0.085027
 10
175.914771
 20
152.558329
 42
-0.069853
  0
LWPOLYLINE
  5
F3
100
AcDbEntity
  8
0
100
AcDbPolyline
 90
        3
 70
     0
 43
0.0
 10
175.914771
 20
152.558329
 42
-0.030014
 10
176.085062
 20
155.39264
 42
-0.02773
 10
176.332712
 20
156.789525
 42
-0.082525
  0
LINE
  5
F8
100
AcDbEntity
  8
0
100
AcDbLine
 10
173.077824
 20
114.041668
 30
0.0
 11
173.077824
 21
146.041668
 31
0.0
  0
ARC
  5
F9
100
AcDbEntity
  8
0
100
AcDbCircle
 10
251.461496
 20
130.041668
 30
0.0
 40
80.0
100
AcDbArc
 50
191.536959
 51
197.88713
  0
LWPOLYLINE
  5
FA
100
AcDbEntity
  8
0
100
AcDbPolyline
 90
        5
 70
     0
 43
0.0
 10
175.883732
 20
228.996222
 42
0.028236
 10
176.054258
 20
225.978922
 42
0.038594
 10
176.472248
 20
223.806242
 42
0.079365
 10
177.337801
 20
221.896871
 42
0.29744
 10
177.893051
 20
221.656483
 42
0.251826
  0
ARC
  5
101
100
AcDbEntity
  8
0
100
AcDbCircle
 10
251.430457
 20
215.996222
 30
0.0
 40
80.0
100
AcDbArc
 50
162.11287
 51
168.463041
  0
LWPOLYLINE
  5
102
100
AcDbEntity
  8
0
100
AcDbPolyline
 90
        5
 70
     0
 43
0.0
 10
177.893051
 20
238.642761
 42
0.28346
 10
177.338666
 20
238.301009
 42
0.065237
 10
176.472248
 20
235.817355
 42
0.029832
 10
176.055025
 20
232.974299
 42
0.02152
 10
175.883732
 20
228.996222
 42
0.02152
  0
ARC
  5
109
100
AcDbEntity
  8
0
100
AcDbCircle
 10
184.814017
 20
237.496222
 30
0.0
 40
10.0
100
AcDbArc
 50
134.739052
 51
162.11287
  0
LINE
  5
10A
100
AcDbEntity
  8
0
100
AcDbLine
 10
184.814017
 20
245.290493
 30
0.0
 11
187.930457
 21
245.290493
 31
0.0
  0
LINE
  5
10B
100
AcDbEntity
  8
0
100
AcDbLine
 10
184.814017
 20
240.671905
 30
0.0
 11
187.930457
 21
240.671905
 31
0.0
  0
LINE
  5
10C
100
AcDbEntity
  8
0
100
AcDbLine
 10
177.893051
 20
242.094199
 30
0.0
 11
177.893051
 21
244.321309
 31
0.0
  0
LWPOLYLINE
  5
10D
100
AcDbEntity
  8
0
100
AcDbPolyline
 90
        5
 70
     0
 43
0.0
 10
177.893051
 20
242.094199
 42
0.284916
 10
178.135709
 20
241.702927
 42
0.064556
 10
179.920155
 20
241.088485
 42
0.02945
 10
182.269396
 20
240.748315
 42
0.027457
 10
184.814017
 20
240.671905
 42
0.021233
  0
LWPOLYLINE
  5
114
100
AcDbEntity
  8
0
100
AcDbPolyline
 90
        5
 70
     0
 43
0.0
 10
184.814017
 20
245.290493
 42
0.014486
 10
181.953036
 20
245.207587
 42
0.020301
 10
179.920155
 20
245.006625
 42
0.046755
 10
178.070417
 20
244.568499
 42
0.321646
 10
177.893051
 20
244.321309
 42
0.321646
  0
LWPOLYLINE
  5
11B
100
AcDbEntity
  8
0
100
AcDbPolyline
 90
        5
 70
     0
 43
0.0
 10
190.430457
 20
244.321309
 42
0.207525
 10
190.296212
 20
244.630821
 42
0.095912
 10
189.698224
 20
245.006625
 42
0.052702
 10
188.849277
 20
245.236584
 42
0.050351
 10
187.930457
 20
245.290493
 42
0.039826
  0
LWPOLYLINE
  5
122
100
AcDbEntity
  8
0
100
AcDbPolyline
 90
        5
 70
     0
 43
0.0
 10
187.930457
 20
240.671905
 42
0.057922
 10
188.935098
 20
240.788679
 42
0.071577
 10
189.698224
 20
241.088485
 42
0.106456
 10
190.304236
 20
241.630122
 42
0.183912
 10
190.430457
 20
242.094199
 42
0.158641
  0
LWPOLYLINE
  5
129
100
AcDbEntity
  8
0
100
AcDbPolyline
 90
        4
 70
     0
 43
0.0
 10
184.814017
 20
245.290493
 42
0.013719
 10
181.792098
 20
245.207563
 42
0.019244
 10
179.645933
 20
245.006625
 42
0.041271
 10
177.775227
 20
244.599421
 42
0.402779
  0
LWPOLYLINE
  5
12F
100
AcDbEntity
  8
0
100
AcDbPolyline
 90
        5
 70
     0
 43
0.0
 10
177.893051
 20
193.349682
 42
-0.28346
 10
177.338666
 20
193.691434
 42
-0.065237
 10
176.472248
 20
196.175088
 42
-0.029832
 10
176.055025
 20
199.018145
 42
-0.02152
 10
175.883732
 20
202.996222
 42
-0.02152
  0
LWPOLYLINE
  5
136
100
AcDbEntity
  8
0
100
AcDbPolyline
 90
        5
 70
     0
 43
0.0
 10
175.883732
 20
202.996222
 42
-0.028236
 10
176.054258
 20
206.013521
 42
-0.038594
 10
176.472248
 20
208.186201
 42
-0.079365
 10
177.337801
 20
210.095572
 42
-0.29744
 10
177.893051
 20
210.335961
 42
-0.251826
  0
LWPOLYLINE
  5
13D
100
AcDbEntity
  8
0
100
AcDbPolyline
 90
        4
 70
     0
 43
0.0
 10
184.814017
 20
186.701951
 42
-0.013719
 10
181.792098
 20
186.784881
 42
-0.019244
 10
179.645933
 20
186.985818
 42
-0.041271
 10
177.775227
 20
187.393023
 42
-0.402779
  0
LWPOLYLINE
  5
143
100
AcDbEntity
  8
0
100
AcDbPolyline
 90
        5
 70
     0
 43
0.0
 10
187.930457
 20
191.320538
 42
-0.057922
 10
188.935098
 20
191.203764
 42
-0.071577
 10
189.698224
 20
190.903958
 42
-0.106456
 10
190.304236
 20
190.362321
 42
-0.183912
 10
190.430457
 20
189.898244
 42
-0.158641
  0
LWPOLYLINE
  5
14A
100
AcDbEntity
  8
0
100
AcDbPolyline
 90
        5
 70
     0
 43
0.0
 10
190.430457
 20
187.671135
 42
-0.207525
 10
190.296212
 20
187.361622
 42
-0.095912
 10
189.698224
 20
186.985818
 42
-0.052702
 10
188.849277
 20
186.755859
 42
-0.050351
 10
187.930457
 20
186.701951
 42
-0.039826
  0
LWPOLYLINE
  5
151
100
AcDbEntity
  8
0
100
AcDbPolyline
 90
        5
 70
     0
 43
0.0
 10
184.814017
 20
186.701951
 42
-0.014486
 10
181.953036
 20
186.784857
 42
-0.020301
 10
179.920155
 20
186.985818
 42
-0.046755
 10
178.070417
 20
187.423944
 42
-0.321646
 10
177.893051
 20
187.671135
 42
-0.321646
  0
LWPOLYLINE
  5
158
100
AcDbEntity
  8
0
100
AcDbPolyline
 90
        5
 70
     0
 43
0.0
 10
177.893051
 20
189.898244
 42
-0.284916
 10
178.135709
 20
190.289516
 42
-0.064556
 10
179.920155
 20
190.903958
 42
-0.02945
 10
182.269396
 20
191.244129
 42
-0.027457
 10
184.814017
 20
191.320538
 42
-0.021233
  0
LWPOLYLINE
  5
15F
100
AcDbEntity
  8
0
100
AcDbPolyline
 90
        5
 70
     0
 43
0.0
 10
190.430457
 20
218.223331
 42
0.102516
 10
190.241893
 20
219.133346
 42
0.100068
 10
189.698224
 20
219.914361
 42
0.096791
 10
188.89231
 20
220.431195
 42
0.094594
 10
187.930457
 20
220.614809
 42
0.094594
  0
LINE
  5
166
100
AcDbEntity
  8
0
100
AcDbLine
 10
184.814017
 20
220.614809
 30
0.0
 11
187.930457
 21
220.614809
 31
0.0
  0
LWPOLYLINE
  5
167
100
AcDbEntity
  8
0
100
AcDbPolyline
 90
        5
 70
     0
 43
0.0
 10
184.814017
 20
220.614809
 42
0.035556
 10
181.981126
 20
220.413104
 42
0.04767
 10
179.920155
 20
219.914361
 42
0.090889
 10
178.161392
 20
218.92138
 42
0.259896
 10
177.893051
 20
218.223331
 42
0.222449
  0
LWPOLYLINE
  5
16E
100
AcDbEntity
  8
0
100
AcDbPolyline
 90
        5
 70
     0
 43
0.0
 10
184.814017
 20
211.377634
 42
-0.035556
 10
181.981126
 20
211.579339
 42
-0.04767
 10
179.920155
 20
212.078082
 42
-0.090889
 10
178.161392
 20
213.071064
 42
-0.259896
 10
177.893051
 20
213.769113
 42
-0.222449
  0
LWPOLYLINE
  5
175
100
AcDbEntity
  8
0
100
AcDbPolyline
 90
        5
 70
     0
 43
0.0
 10
190.430457
 20
213.769113
 42
-0.102516
 10
190.241893
 20
212.859097
 42
-0.100068
 10
189.698224
 20
212.078082
 42
-0.096791
 10
188.89231
 20
211.561249
 42
-0.094594
 10
187.930457
 20
211.377634
 42
-0.094594
  0
LINE
  5
17C
100
AcDbEntity
  8
0
100
AcDbLine
 10
177.893051
 20
213.769113
 30
0.0
 11
177.893051
 21
218.223331
 31
0.0
  0
LINE
  5
17D
100
AcDbEntity
  8
0
100
AcDbLine
 10
177.893051
 20
189.898244
 30
0.0
 11
177.893051
 21
187.671135
 31
0.0
  0
LINE
  5
17E
100
AcDbEntity
  8
0
100
AcDbLine
 10
184.814017
 20
211.377634
 30
0.0
 11
187.930457
 21
211.377634
 31
0.0
  0
LINE
  5
17F
100
AcDbEntity
  8
0
100
AcDbLine
 10
184.814017
 20
191.320538
 30
0.0
 11
187.930457
 21
191.320538
 31
0.0
  0
LINE
  5
180
100
AcDbEntity
  8
0
100
AcDbLine
 10
184.814017
 20
186.701951
 30
0.0
 11
187.930457
 21
186.701951
 31
0.0
  0
LINE
  5
181
100
AcDbEntity
  8
0
100
AcDbLine
 10
190.430457
 20
187.671135
 30
0.0
 11
190.430457
 21
244.321309
 31
0.0
  0
ARC
  5
182
100
AcDbEntity
  8
0
100
AcDbCircle
 10
184.814017
 20
194.496222
 30
0.0
 40
10.0
100
AcDbArc
 50
197.88713
 51
225.260948
  0
LINE
  5
183
100
AcDbEntity
  8
0
100
AcDbLine
 10
173.046785
 20
231.996222
 30
0.0
 11
173.046785
 21
199.996222
 31
0.0
  0
ARC
  5
184
100
AcDbEntity
  8
0
100
AcDbCircle
 10
251.430457
 20
215.996222
 30
0.0
 40
80.0
100
AcDbArc
 50
191.536959
 51
197.88713
  0
LINE
  5
185
100
AcDbEntity
  8
0
100
AcDbLine
 10
210.930457
 20
205.496222
 30
0.0
 11
210.930457
 21
226.496222
 31
0.0
  0
LINE
  5
186
100
AcDbEntity
  8
0
100
AcDbLine
 10
192.430457
 20
202.996222
 30
0.0
 11
192.430457
 21
228.996222
 31
0.0
  0
LINE
  5
187
100
AcDbEntity
  8
0
100
AcDbLine
 10
211.430457
 20
205.996222
 30
0.0
 11
211.430457
 21
225.996222
 31
0.0
  0
LINE
  5
188
100
AcDbEntity
  8
0
100
AcDbLine
 10
190.430457
 20
228.996222
 30
0.0
 11
192.430457
 21
228.996222
 31
0.0
  0
LINE
  5
189
100
AcDbEntity
  8
0
100
AcDbLine
 10
190.430457
 20
202.996222
 30
0.0
 11
192.430457
 21
202.996222
 31
0.0
  0
LINE
  5
18A
100
AcDbEntity
  8
0
100
AcDbLine
 10
211.430457
 20
225.996222
 30
0.0
 11
210.930457
 21
226.496222
 31
0.0
  0
LINE
  5
18B
100
AcDbEntity
  8
0
100
AcDbLine
 10
211.430457
 20
205.996222
 30
0.0
 11
210.930457
 21
205.496222
 31
0.0
  0
LINE
  5
18C
100
AcDbEntity
  8
0
100
AcDbLine
 10
192.430457
 20
226.496222
 30
0.0
 11
210.930457
 21
226.496222
 31
0.0
  0
LINE
  5
18D
100
AcDbEntity
  8
0
100
AcDbLine
 10
192.430457
 20
205.496222
 30
0.0
 11
210.930457
 21
205.496222
 31
0.0
  0
LINE
  5
18E
100
AcDbEntity
  8
1
100
AcDbLine
 10
166.430457
 20
215.996222
 30
0.0
 11
216.430457
 21
215.996222
 31
0.0
  0
CIRCLE
  5
18F
100
AcDbEntity
  8
0
100
AcDbCircle
 10
73.366214
 20
129.977766
 30
0.0
 40
15.6
  0
CIRCLE
  5
190
100
AcDbEntity
  8
0
100
AcDbCircle
 10
73.366214
 20
129.977766
 30
0.0
 40
14.0
  0
CIRCLE
  5
191
100
AcDbEntity
  8
0
100
AcDbCircle
 10
73.366214
 20
129.977766
 30
0.0
 40
13.1
  0
LINE
  5
192
100
AcDbEntity
  8
0
100
AcDbLine
 10
173.078496
 20
144.059955
 30
0.0
 11
172.825698
 21
144.059955
 31
0.0
  0
LINE
  5
193
100
AcDbEntity
  8
0
100
AcDbLine
 10
172.825698
 20
144.059955
 30
0.0
 11
172.825698
 21
143.608818
 31
0.0
  0
LINE
  5
194
100
AcDbEntity
  8
0
100
AcDbLine
 10
173.064062
 20
116.068481
 30
0.0
 11
172.816906
 21
116.068481
 31
0.0
  0
ARC
  5
195
100
AcDbEntity
  8
0
100
AcDbCircle
 10
172.930857
 20
143.534256
 30
0.0
 40
0.53669
100
AcDbArc
 50
101.348336
 51
172.086422
  0
LINE
  5
196
100
AcDbEntity
  8
0
100
AcDbLine
 10
172.398935
 20
143.606073
 30
0.0
 11
172.398935
 21
116.534996
 31
0.0
  0
LINE
  5
197
100
AcDbEntity
  8
0
100
AcDbLine
 10
172.398912
 20
143.606184
 30
0.0
 11
172.39925
 21
143.608203
 31
0.0
  0
LINE
  5
198
100
AcDbEntity
  8
0
100
AcDbLine
 10
173.060615
 20
116.067843
 30
0.0
 11
173.077535
 21
116.067843
 31
0.0
  0
ARC
  5
199
100
AcDbEntity
  8
0
100
AcDbCircle
 10
172.97355
 20
116.628141
 30
0.0
 40
0.581603
100
AcDbArc
 50
189.045949
 51
254.444125
  0
LINE
  5
19A
100
AcDbEntity
  8
0
100
AcDbLine
 10
173.047362
 20
229.802576
 30
0.0
 11
172.790948
 21
229.802576
 31
0.0
  0
LINE
  5
19B
100
AcDbEntity
  8
0
100
AcDbLine
 10
173.043922
 20
201.802784
 30
0.0
 11
172.788844
 21
201.802784
 31
0.0
  0
LINE
  5
19C
100
AcDbEntity
  8
0
100
AcDbLine
 10
172.324633
 20
229.373095
 30
0.0
 11
172.324633
 21
202.255612
 31
0.0
  0
ARC
  5
19D
100
AcDbEntity
  8
0
100
AcDbCircle
 10
172.906156
 20
229.208158
 30
0.0
 40
0.604971
100
AcDbArc
 50
100.936862
 51
164.165635
  0
ARC
  5
19E
100
AcDbEntity
  8
0
100
AcDbCircle
 10
172.931576
 20
202.412434
 30
0.0
 40
0.625593
100
AcDbArc
 50
194.310351
 51
256.898206
  0
LINE
  5
1B0
100
AcDbEntity
  8
2
100
AcDbLine
 10
211.5
 20
137.0
 30
0.0
 11
210.5
 21
136.0
 31
0.0
  0
LINE
  5
1B1
100
AcDbEntity
  8
2
100
AcDbLine
 10
210.5
 20
136.0
 30
0.0
 11
188.5
 21
136.0
 31
0.0
  0
LINE
  5
1B2
100
AcDbEntity
  8
2
100
AcDbLine
 10
188.5
 20
136.0
 30
0.0
 11
188.0
 21
135.5
 31
0.0
  0
LINE
  5
1B3
100
AcDbEntity
  8
2
100
AcDbLine
 10
188.0
 20
135.5
 30
0.0
 11
184.0
 21
135.5
 31
0.0
  0
LINE
  5
1B4
100
AcDbEntity
  8
2
100
AcDbLine
 10
184.0
 20
135.5
 30
0.0
 11
181.0
 21
130.0
 31
0.0
  0
LINE
  5
1B5
100
AcDbEntity
  8
2
100
AcDbLine
 10
181.0
 20
130.0
 30
0.0
 11
184.0
 21
124.5
 31
0.0
  0
LINE
  5
1B6
100
AcDbEntity
  8
2
100
AcDbLine
 10
184.0
 20
124.5
 30
0.0
 11
188.0
 21
124.5
 31
0.0
  0
LINE
  5
1B7
100
AcDbEntity
  8
2
100
AcDbLine
 10
188.0
 20
124.5
 30
0.0
 11
188.5
 21
124.0
 31
0.0
  0
LINE
  5
1B8
100
AcDbEntity
  8
2
100
AcDbLine
 10
188.5
 20
124.0
 30
0.0
 11
210.5
 21
124.0
 31
0.0
  0
LINE
  5
1B9
100
AcDbEntity
  8
2
100
AcDbLine
 10
210.5
 20
124.0
 30
0.0
 11
211.5
 21
123.0
 31
0.0
  0
LINE
  5
1BA
100
AcDbEntity
  8
2
100
AcDbLine
 10
210.5
 20
136.0
 30
0.0
 11
210.5
 21
124.0
 31
0.0
  0
LINE
  5
1BB
100
AcDbEntity
  8
2
100
AcDbLine
 10
188.5
 20
136.0
 30
0.0
 11
188.5
 21
124.0
 31
0.0
  0
LINE
  5
1BC
100
AcDbEntity
  8
2
100
AcDbLine
 10
188.0
 20
135.5
 30
0.0
 11
188.0
 21
124.5
 31
0.0
  0
LINE
  5
1BD
100
AcDbEntity
  8
2
100
AcDbLine
 10
184.0
 20
135.5
 30
0.0
 11
184.0
 21
124.5
 31
0.0
  0
LINE
  5
1BE
100
AcDbEntity
  8
2
100
AcDbLine
 10
211.5
 20
223.0
 30
0.0
 11
210.5
 21
222.0
 31
0.0
  0
LINE
  5
1BF
100
AcDbEntity
  8
2
100
AcDbLine
 10
210.5
 20
222.0
 30
0.0
 11
188.5
 21
222.0
 31
0.0
  0
LINE
  5
1C0
100
AcDbEntity
  8
2
100
AcDbLine
 10
211.5
 20
209.0
 30
0.0
 11
210.5
 21
210.0
 31
0.0
  0
LINE
  5
1C1
100
AcDbEntity
  8
2
100
AcDbLine
 10
210.5
 20
210.0
 30
0.0
 11
188.5
 21
210.0
 31
0.0
  0
LINE
  5
1C2
100
AcDbEntity
  8
2
100
AcDbLine
 10
188.5
 20
210.0
 30
0.0
 11
188.0
 21
210.5
 31
0.0
  0
LINE
  5
1C3
100
AcDbEntity
  8
2
100
AcDbLine
 10
188.0
 20
221.5
 30
0.0
 11
188.5
 21
222.0
 31
0.0
  0
LINE
  5
1C4
100
AcDbEntity
  8
2
100
AcDbLine
 10
210.5
 20
222.0
 30
0.0
 11
210.5
 21
210.0
 31
0.0
  0
LINE
  5
1C5
100
AcDbEntity
  8
2
100
AcDbLine
 10
188.5
 20
222.0
 30
0.0
 11
188.5
 21
210.0
 31
0.0
  0
LINE
  5
1C6
100
AcDbEntity
  8
2
100
AcDbLine
 10
188.0
 20
221.5
 30
0.0
 11
188.0
 21
210.5
 31
0.0
  0
LINE
  5
1C7
100
AcDbEntity
  8
2
100
AcDbLine
 10
188.0
 20
221.5
 30
0.0
 11
184.0
 21
221.5
 31
0.0
  0
LINE
  5
1C8
100
AcDbEntity
  8
2
100
AcDbLine
 10
184.0
 20
221.5
 30
0.0
 11
181.0
 21
216.0
 31
0.0
  0
LINE
  5
1C9
100
AcDbEntity
  8
2
100
AcDbLine
 10
181.0
 20
216.0
 30
0.0
 11
184.0
 21
210.5
 31
0.0
  0
LINE
  5
1CA
100
AcDbEntity
  8
2
100
AcDbLine
 10
184.0
 20
210.5
 30
0.0
 11
188.0
 21
210.5
 31
0.0
  0
LINE
  5
1CB
100
AcDbEntity
  8
2
100
AcDbLine
 10
184.0
 20
210.5
 30
0.0
 11
184.0
 21
221.5
 31
0.0
  0
LINE
  5
1CC
100
AcDbEntity
  8
2
100
AcDbLine
 10
184.0
 20
33.0
 30
0.0
 11
188.0
 21
33.0
 31
0.0
  0
LINE
  5
1CD
100
AcDbEntity
  8
2
100
AcDbLine
 10
188.0
 20
44.0
 30
0.0
 11
184.0
 21
44.0
 31
0.0
  0
LINE
  5
1CE
100
AcDbEntity
  8
0
100
AcDbLine
 10
184.814017
 20
67.790493
 30
0.0
 11
187.930457
 21
67.790493
 31
0.0
  0
LINE
  5
1CF
100
AcDbEntity
  8
0
100
AcDbLine
 10
184.814017
 20
63.171905
 30
0.0
 11
187.930457
 21
63.171905
 31
0.0
  0
LINE
  5
1D0
100
AcDbEntity
  8
0
100
AcDbLine
 10
184.814017
 20
43.114809
 30
0.0
 11
187.930457
 21
43.114809
 31
0.0
  0
LINE
  5
1D1
100
AcDbEntity
  8
0
100
AcDbLine
 10
184.814017
 20
33.877634
 30
0.0
 11
187.930457
 21
33.877634
 31
0.0
  0
LINE
  5
1D2
100
AcDbEntity
  8
0
100
AcDbLine
 10
184.814017
 20
13.820538
 30
0.0
 11
187.930457
 21
13.820538
 31
0.0
  0
LINE
  5
1D3
100
AcDbEntity
  8
0
100
AcDbLine
 10
184.814017
 20
9.201951
 30
0.0
 11
187.930457
 21
9.201951
 31
0.0
  0
LINE
  5
1D4
100
AcDbEntity
  8
1
100
AcDbLine
 10
166.430457
 20
38.496222
 30
0.0
 11
216.430457
 21
38.496222
 31
0.0
  0
LINE
  5
1D5
100
AcDbEntity
  8
2
100
AcDbLine
 10
184.0
 20
33.0
 30
0.0
 11
184.0
 21
44.0
 31
0.0
  0
LINE
  5
1D6
100
AcDbEntity
  8
2
100
AcDbLine
 10
184.0
 20
44.0
 30
0.0
 11
181.0
 21
38.5
 31
0.0
  0
LWPOLYLINE
  5
1D7
100
AcDbEntity
  8
0
100
AcDbPolyline
 90
        5
 70
     0
 43
0.0
 10
184.814017
 20
43.114809
 42
0.035556
 10
181.981126
 20
42.913104
 42
0.04767
 10
179.920155
 20
42.414361
 42
0.090889
 10
178.161392
 20
41.42138
 42
0.259896
 10
177.893051
 20
40.723331
 42
0.222449
  0
LINE
  5
1DE
100
AcDbEntity
  8
0
100
AcDbLine
 10
172.324633
 20
51.873095
 30
0.0
 11
172.324633
 21
24.755612
 31
0.0
  0
LINE
  5
1DF
100
AcDbEntity
  8
0
100
AcDbLine
 10
173.046785
 20
54.496222
 30
0.0
 11
173.046785
 21
22.496222
 31
0.0
  0
LWPOLYLINE
  5
1E0
100
AcDbEntity
  8
0
100
AcDbPolyline
 90
        5
 70
     0
 43
0.0
 10
177.893051
 20
15.849682
 42
-0.28346
 10
177.338666
 20
16.191434
 42
-0.065237
 10
176.472248
 20
18.675088
 42
-0.029832
 10
176.055025
 20
21.518145
 42
-0.02152
 10
175.883732
 20
25.496222
 42
-0.02152
  0
ARC
  5
1E7
100
AcDbEntity
  8
0
100
AcDbCircle
 10
251.430457
 20
38.496222
 30
0.0
 40
80.0
100
AcDbArc
 50
191.536959
 51
197.88713
  0
ARC
  5
1E8
100
AcDbEntity
  8
0
100
AcDbCircle
 10
184.814017
 20
16.996222
 30
0.0
 40
10.0
100
AcDbArc
 50
197.88713
 51
225.260948
  0
LINE
  5
1E9
100
AcDbEntity
  8
0
100
AcDbLine
 10
177.893051
 20
12.398244
 30
0.0
 11
177.893051
 21
10.171135
 31
0.0
  0
LWPOLYLINE
  5
1EA
100
AcDbEntity
  8
0
100
AcDbPolyline
 90
        4
 70
     0
 43
0.0
 10
184.814017
 20
9.201951
 42
-0.013719
 10
181.792098
 20
9.284881
 42
-0.019244
 10
179.645933
 20
9.485818
 42
-0.041271
 10
177.775227
 20
9.893023
 42
-0.402779
  0
LWPOLYLINE
  5
1F0
100
AcDbEntity
  8
0
100
AcDbPolyline
 90
        5
 70
     0
 43
0.0
 10
184.814017
 20
9.201951
 42
-0.014486
 10
181.953036
 20
9.284857
 42
-0.020301
 10
179.920155
 20
9.485818
 42
-0.046755
 10
178.070417
 20
9.923944
 42
-0.321646
 10
177.893051
 20
10.171135
 42
-0.321646
  0
LWPOLYLINE
  5
1F7
100
AcDbEntity
  8
0
100
AcDbPolyline
 90
        5
 70
     0
 43
0.0
 10
177.893051
 20
12.398244
 42
-0.284916
 10
178.135709
 20
12.789516
 42
-0.064556
 10
179.920155
 20
13.403958
 42
-0.02945
 10
182.269396
 20
13.744129
 42
-0.027457
 10
184.814017
 20
13.820538
 42
-0.021233
  0
LINE
  5
1FE
100
AcDbEntity
  8
0
100
AcDbLine
 10
173.043922
 20
24.302784
 30
0.0
 11
172.788844
 21
24.302784
 31
0.0
  0
ARC
  5
1FF
100
AcDbEntity
  8
0
100
AcDbCircle
 10
172.931576
 20
24.912434
 30
0.0
 40
0.625593
100
AcDbArc
 50
194.310351
 51
256.898206
  0
LWPOLYLINE
  5
200
100
AcDbEntity
  8
0
100
AcDbPolyline
 90
        5
 70
     0
 43
0.0
 10
175.883732
 20
25.496222
 42
-0.028236
 10
176.054258
 20
28.513521
 42
-0.038594
 10
176.472248
 20
30.686201
 42
-0.079365
 10
177.337801
 20
32.595572
 42
-0.29744
 10
177.893051
 20
32.835961
 42
-0.251826
  0
LWPOLYLINE
  5
207
100
AcDbEntity
  8
0
100
AcDbPolyline
 90
        5
 70
     0
 43
0.0
 10
184.814017
 20
33.877634
 42
-0.035556
 10
181.981126
 20
34.079339
 42
-0.04767
 10
179.920155
 20
34.578082
 42
-0.090889
 10
178.161392
 20
35.571064
 42
-0.259896
 10
177.893051
 20
36.269113
 42
-0.222449
  0
LINE
  5
20E
100
AcDbEntity
  8
0
100
AcDbLine
 10
177.893051
 20
36.269113
 30
0.0
 11
177.893051
 21
40.723331
 31
0.0
  0
LINE
  5
20F
100
AcDbEntity
  8
2
100
AcDbLine
 10
181.0
 20
38.5
 30
0.0
 11
184.0
 21
33.0
 31
0.0
  0
ARC
  5
210
100
AcDbEntity
  8
0
100
AcDbCircle
 10
251.430457
 20
38.496222
 30
0.0
 40
80.0
100
AcDbArc
 50
162.11287
 51
168.463041
  0
LINE
  5
211
100
AcDbEntity
  8
0
100
AcDbLine
 10
173.047362
 20
52.302576
 30
0.0
 11
172.790948
 21
52.302576
 31
0.0
  0
ARC
  5
212
100
AcDbEntity
  8
0
100
AcDbCircle
 10
172.906156
 20
51.708158
 30
0.0
 40
0.604971
100
AcDbArc
 50
100.936862
 51
164.165635
  0
LWPOLYLINE
  5
213
100
AcDbEntity
  8
0
100
AcDbPolyline
 90
        5
 70
     0
 43
0.0
 10
177.893051
 20
61.142761
 42
0.28346
 10
177.338666
 20
60.801009
 42
0.065237
 10
176.472248
 20
58.317355
 42
0.029832
 10
176.055025
 20
55.474299
 42
0.02152
 10
175.883732
 20
51.496222
 42
0.02152
  0
LWPOLYLINE
  5
21A
100
AcDbEntity
  8
0
100
AcDbPolyline
 90
        5
 70
     0
 43
0.0
 10
175.883732
 20
51.496222
 42
0.028236
 10
176.054258
 20
48.478922
 42
0.038594
 10
176.472248
 20
46.306242
 42
0.079365
 10
177.337801
 20
44.396871
 42
0.29744
 10
177.893051
 20
44.156483
 42
0.251826
  0
LWPOLYLINE
  5
221
100
AcDbEntity
  8
0
100
AcDbPolyline
 90
        5
 70
     0
 43
0.0
 10
184.814017
 20
67.790493
 42
0.014486
 10
181.953036
 20
67.707587
 42
0.020301
 10
179.920155
 20
67.506625
 42
0.046755
 10
178.070417
 20
67.068499
 42
0.321646
 10
177.893051
 20
66.821309
 42
0.321646
  0
LWPOLYLINE
  5
228
100
AcDbEntity
  8
0
100
AcDbPolyline
 90
        4
 70
     0
 43
0.0
 10
184.814017
 20
67.790493
 42
0.013719
 10
181.792098
 20
67.707563
 42
0.019244
 10
179.645933
 20
67.506625
 42
0.041271
 10
177.775227
 20
67.099421
 42
0.402779
  0
LWPOLYLINE
  5
22E
100
AcDbEntity
  8
0
100
AcDbPolyline
 90
        5
 70
     0
 43
0.0
 10
177.893051
 20
64.594199
 42
0.284916
 10
178.135709
 20
64.202927
 42
0.064556
 10
179.920155
 20
63.588485
 42
0.02945
 10
182.269396
 20
63.248315
 42
0.027457
 10
184.814017
 20
63.171905
 42
0.021233
  0
ARC
  5
235
100
AcDbEntity
  8
0
100
AcDbCircle
 10
184.814017
 20
59.996222
 30
0.0
 40
10.0
100
AcDbArc
 50
134.739052
 51
162.11287
  0
LINE
  5
236
100
AcDbEntity
  8
0
100
AcDbLine
 10
177.893051
 20
64.594199
 30
0.0
 11
177.893051
 21
66.821309
 31
0.0
  0
LINE
  5
237
100
AcDbEntity
  8
2
100
AcDbLine
 10
188.0
 20
44.0
 30
0.0
 11
188.0
 21
33.0
 31
0.0
  0
LINE
  5
238
100
AcDbEntity
  8
2
100
AcDbLine
 10
188.5
 20
44.5
 30
0.0
 11
188.5
 21
32.5
 31
0.0
  0
LINE
  5
239
100
AcDbEntity
  8
2
100
AcDbLine
 10
210.5
 20
44.5
 30
0.0
 11
210.5
 21
32.5
 31
0.0
  0
LWPOLYLINE
  5
23A
100
AcDbEntity
  8
0
100
AcDbPolyline
 90
        5
 70
     0
 43
0.0
 10
190.430457
 20
40.723331
 42
0.102516
 10
190.241893
 20
41.633346
 42
0.100068
 10
189.698224
 20
42.414361
 42
0.096791
 10
188.89231
 20
42.931195
 42
0.094594
 10
187.930457
 20
43.114809
 42
0.094594
  0
LINE
  5
241
100
AcDbEntity
  8
0
100
AcDbLine
 10
210.930457
 20
27.996222
 30
0.0
 11
210.930457
 21
48.996222
 31
0.0
  0
LINE
  5
242
100
AcDbEntity
  8
0
100
AcDbLine
 10
211.430457
 20
28.496222
 30
0.0
 11
211.430457
 21
48.496222
 31
0.0
  0
LINE
  5
243
100
AcDbEntity
  8
0
100
AcDbLine
 10
190.430457
 20
10.171135
 30
0.0
 11
190.430457
 21
66.821309
 31
0.0
  0
LINE
  5
244
100
AcDbEntity
  8
0
100
AcDbLine
 10
192.430457
 20
25.496222
 30
0.0
 11
192.430457
 21
51.496222
 31
0.0
  0
LWPOLYLINE
  5
245
100
AcDbEntity
  8
0
100
AcDbPolyline
 90
        5
 70
     0
 43
0.0
 10
190.430457
 20
10.171135
 42
-0.207525
 10
190.296212
 20
9.861622
 42
-0.095912
 10
189.698224
 20
9.485818
 42
-0.052702
 10
188.849277
 20
9.255859
 42
-0.050351
 10
187.930457
 20
9.201951
 42
-0.039826
  0
LWPOLYLINE
  5
24C
100
AcDbEntity
  8
0
100
AcDbPolyline
 90
        5
 70
     0
 43
0.0
 10
187.930457
 20
13.820538
 42
-0.057922
 10
188.935098
 20
13.703764
 42
-0.071577
 10
189.698224
 20
13.403958
 42
-0.106456
 10
190.304236
 20
12.862321
 42
-0.183912
 10
190.430457
 20
12.398244
 42
-0.158641
  0
LINE
  5
253
100
AcDbEntity
  8
2
100
AcDbLine
 10
210.5
 20
32.5
 30
0.0
 11
188.5
 21
32.5
 31
0.0
  0
LINE
  5
254
100
AcDbEntity
  8
0
100
AcDbLine
 10
192.430457
 20
27.996222
 30
0.0
 11
210.930457
 21
27.996222
 31
0.0
  0
LINE
  5
255
100
AcDbEntity
  8
0
100
AcDbLine
 10
190.430457
 20
25.496222
 30
0.0
 11
192.430457
 21
25.496222
 31
0.0
  0
LINE
  5
256
100
AcDbEntity
  8
2
100
AcDbLine
 10
188.5
 20
32.5
 30
0.0
 11
188.0
 21
33.0
 31
0.0
  0
LWPOLYLINE
  5
257
100
AcDbEntity
  8
0
100
AcDbPolyline
 90
        5
 70
     0
 43
0.0
 10
190.430457
 20
36.269113
 42
-0.102516
 10
190.241893
 20
35.359097
 42
-0.100068
 10
189.698224
 20
34.578082
 42
-0.096791
 10
188.89231
 20
34.061249
 42
-0.094594
 10
187.930457
 20
33.877634
 42
-0.094594
  0
LINE
  5
25E
100
AcDbEntity
  8
0
100
AcDbLine
 10
211.430457
 20
28.496222
 30
0.0
 11
210.930457
 21
27.996222
 31
0.0
  0
LINE
  5
25F
100
AcDbEntity
  8
2
100
AcDbLine
 10
211.5
 20
31.5
 30
0.0
 11
210.5
 21
32.5
 31
0.0
  0
LINE
  5
260
100
AcDbEntity
  8
2
100
AcDbLine
 10
210.5
 20
44.5
 30
0.0
 11
188.5
 21
44.5
 31
0.0
  0
LINE
  5
261
100
AcDbEntity
  8
0
100
AcDbLine
 10
192.430457
 20
48.996222
 30
0.0
 11
210.930457
 21
48.996222
 31
0.0
  0
LINE
  5
262
100
AcDbEntity
  8
2
100
AcDbLine
 10
188.0
 20
44.0
 30
0.0
 11
188.5
 21
44.5
 31
0.0
  0
LINE
  5
263
100
AcDbEntity
  8
0
100
AcDbLine
 10
190.430457
 20
51.496222
 30
0.0
 11
192.430457
 21
51.496222
 31
0.0
  0
LINE
  5
264
100
AcDbEntity
  8
2
100
AcDbLine
 10
211.5
 20
45.5
 30
0.0
 11
210.5
 21
44.5
 31
0.0
  0
LINE
  5
265
100
AcDbEntity
  8
0
100
AcDbLine
 10
211.430457
 20
48.496222
 30
0.0
 11
210.930457
 21
48.996222
 31
0.0
  0
LWPOLYLINE
  5
266
100
AcDbEntity
  8
0
100
AcDbPolyline
 90
        5
 70
     0
 43
0.0
 10
190.430457
 20
66.821309
 42
0.207525
 10
190.296212
 20
67.130821
 42
0.095912
 10
189.698224
 20
67.506625
 42
0.052702
 10
188.849277
 20
67.736584
 42
0.050351
 10
187.930457
 20
67.790493
 42
0.039826
  0
LWPOLYLINE
  5
26D
100
AcDbEntity
  8
0
100
AcDbPolyline
 90
        5
 70
     0
 43
0.0
 10
187.930457
 20
63.171905
 42
0.057922
 10
188.935098
 20
63.288679
 42
0.071577
 10
189.698224
 20
63.588485
 42
0.106456
 10
190.304236
 20
64.130122
 42
0.183912
 10
190.430457
 20
64.594199
 42
0.158641
  0
ENDSEC
  0
SECTION
  2
OBJECTS
  0
DICTIONARY
  5
286
100
AcDbDictionary
  3
ACAD_GROUP
350
287
  3
ACAD_MLINESTYLE
350
294
  3
ACDBVARIABLEDICTIONARY
350
2A9
  0
DICTIONARY
  5
287
102
{ACAD_REACTORS
330
286
102
}
100
AcDbDictionary
  0
DICTIONARY
  5
294
102
{ACAD_REACTORS
330
286
102
}
100
AcDbDictionary
  3
STANDARD
350
295
  0
DICTIONARY
  5
2A9
102
{ACAD_REACTORS
330
286
102
}
100
AcDbDictionary
  3
DIMADEC
350
2AA
  0
MLINESTYLE
  5
295
102
{ACAD_REACTORS
330
294
102
}
100
AcDbMlineStyle
  2
STANDARD
 70
     0
  3

 62
   256
 51
90.0
 52
90.0
 71
     2
 49
0.5
 62
   256
  6
BYLAYER
 49
-0.5
 62
   256
  6
BYLAYER
  0
DICTIONARYVAR
  5
2AA
102
{ACAD_REACTORS
330
2A9
102
}
100
DictionaryVariables
280
     0
  1
0
  0
ENDSEC
  0
EOF
