  0
SECTION
  2
HEADER
  9
$ACADVER
  1
AC1014
  9
$ACADMAINTVER
 70
     0
  9
$DWGCODEPAGE
  3
ANSI_932
  9
$INSBASE
 10
0.0
 20
0.0
 30
0.0
  9
$EXTMIN
 10
0.0
 20
0.0
 30
0.0
  9
$EXTMAX
 10
375.0
 20
270.0
 30
0.0
  9
$LIMMIN
 10
0.0
 20
0.0
  9
$LIMMAX
 10
375.0
 20
270.0
  9
$ORTHOMODE
 70
     0
  9
$REGENMODE
 70
     1
  9
$FILLMODE
 70
     1
  9
$QTEXTMODE
 70
     0
  9
$MIRRTEXT
 70
     1
  9
$DRAGMODE
 70
     1
  9
$LTSCALE
 40
10.0
  9
$OSMODE
 70
     0
  9
$ATTMODE
 70
     1
  9
$TEXTSIZE
 40
6.0
  9
$TRACEWID
 40
0.05
  9
$TEXTSTYLE
  7
BIGFONT
  9
$CLAYER
  8
0
  9
$CELTYPE
  6
BYLAYER
  9
$CECOLOR
 62
   256
  9
$CELTSCALE
 40
1.0
  9
$DELOBJ
 70
     1
  9
$DISPSILH
 70
     0
  9
$DIMSCALE
 40
1.0
  9
$DIMASZ
 40
3.0
  9
$DIMEXO
 40
2.0
  9
$DIMDLI
 40
0.38
  9
$DIMRND
 40
0.0
  9
$DIMDLE
 40
0.0
  9
$DIMEXE
 40
2.0
  9
$DIMTP
 40
0.0
  9
$DIMTM
 40
0.0
  9
$DIMTXT
 40
3.2
  9
$DIMCEN
 40
0.0
  9
$DIMTSZ
 40
0.0
  9
$DIMTOL
 70
     0
  9
$DIMLIM
 70
     0
  9
$DIMTIH
 70
     0
  9
$DIMTOH
 70
     0
  9
$DIMSE1
 70
     0
  9
$DIMSE2
 70
     0
  9
$DIMTAD
 70
     1
  9
$DIMZIN
 70
     0
  9
$DIMBLK
  1

  9
$DIMASO
 70
     0
  9
$DIMSHO
 70
     0
  9
$DIMPOST
  1

  9
$DIMAPOST
  1

  9
$DIMALT
 70
     0
  9
$DIMALTD
 70
     2
  9
$DIMALTF
 40
25.4
  9
$DIMLFAC
 40
1.0
  9
$DIMTOFL
 70
     0
  9
$DIMTVP
 40
1.6
  9
$DIMTIX
 70
     1
  9
$DIMSOXD
 70
     0
  9
$DIMSAH
 70
     0
  9
$DIMBLK1
  1

  9
$DIMBLK2
  1

  9
$DIMSTYLE
  2
STANDARD
  9
$DIMCLRD
 70
     0
  9
$DIMCLRE
 70
     0
  9
$DIMCLRT
 70
     0
  9
$DIMTFAC
 40
1.0
  9
$DIMGAP
 40
0.09
  9
$DIMJUST
 70
     0
  9
$DIMSD1
 70
     0
  9
$DIMSD2
 70
     0
  9
$DIMTOLJ
 70
     1
  9
$DIMTZIN
 70
     0
  9
$DIMALTZ
 70
     0
  9
$DIMALTTZ
 70
     0
  9
$DIMFIT
 70
     5
  9
$DIMUPT
 70
     0
  9
$DIMUNIT
 70
     2
  9
$DIMDEC
 70
     1
  9
$DIMTDEC
 70
     1
  9
$DIMALTU
 70
     2
  9
$DIMALTTD
 70
     2
  9
$DIMTXSTY
  7
BIGFONT
  9
$DIMAUNIT
 70
     0
  9
$LUNITS
 70
     2
  9
$LUPREC
 70
     1
  9
$SKETCHINC
 40
0.1
  9
$FILLETRAD
 40
0.0
  9
$AUNITS
 70
     0
  9
$AUPREC
 70
     0
  9
$MENU
  1
ACAD
  9
$ELEVATION
 40
0.0
  9
$PELEVATION
 40
0.0
  9
$THICKNESS
 40
0.0
  9
$LIMCHECK
 70
     0
  9
$BLIPMODE
 70
     0
  9
$CHAMFERA
 40
0.0
  9
$CHAMFERB
 40
0.0
  9
$CHAMFERC
 40
0.0
  9
$CHAMFERD
 40
0.0
  9
$SKPOLY
 70
     0
  9
$TDCREATE
 40
2450683.625543981
  9
$TDUPDATE
 40
2450683.625543981
  9
$TDINDWG
 40
0.0000000000
  9
$TDUSRTIMER
 40
0.0000000000
  9
$USRTIMER
 70
     1
  9
$ANGBASE
 50
0.0
  9
$ANGDIR
 70
     0
  9
$PDMODE
 70
     0
  9
$PDSIZE
 40
0.0
  9
$PLINEWID
 40
0.0
  9
$COORDS
 70
     2
  9
$SPLFRAME
 70
     0
  9
$SPLINETYPE
 70
     6
  9
$SPLINESEGS
 70
     8
  9
$ATTDIA
 70
     0
  9
$ATTREQ
 70
     1
  9
$HANDLING
 70
     1
  9
$HANDSEED
  5
284
  9
$SURFTAB1
 70
     6
  9
$SURFTAB2
 70
     6
  9
$SURFTYPE
 70
     6
  9
$SURFU
 70
     6
  9
$SURFV
 70
     6
  9
$UCSNAME
  2

  9
$UCSORG
 10
0.0
 20
0.0
 30
0.0
  9
$UCSXDIR
 10
1.0
 20
0.0
 30
0.0
  9
$UCSYDIR
 10
0.0
 20
1.0
 30
0.0
  9
$PUCSNAME
  2

  9
$PUCSORG
 10
0.0
 20
0.0
 30
0.0
  9
$PUCSXDIR
 10
1.0
 20
0.0
 30
0.0
  9
$PUCSYDIR
 10
0.0
 20
1.0
 30
0.0
  9
$USERI1
 70
     0
  9
$USERI2
 70
     0
  9
$USERI3
 70
     0
  9
$USERI4
 70
     0
  9
$USERI5
 70
     0
  9
$USERR1
 40
0.0
  9
$USERR2
 40
0.0
  9
$USERR3
 40
0.0
  9
$USERR4
 40
0.0
  9
$USERR5
 40
0.0
  9
$WORLDVIEW
 70
     1
  9
$SHADEDGE
 70
     3
  9
$SHADEDIF
 70
    70
  9
$TILEMODE
 70
     1
  9
$MAXACTVP
 70
    16
  9
$PINSBASE
 10
0.0
 20
0.0
 30
0.0
  9
$PLIMCHECK
 70
     0
  9
$PEXTMIN
 10
1.000000E+20
 20
1.000000E+20
 30
1.000000E+20
  9
$PEXTMAX
 10
-1.000000E+20
 20
-1.000000E+20
 30
-1.000000E+20
  9
$PLIMMIN
 10
0.0
 20
0.0
  9
$PLIMMAX
 10
12.0
 20
9.0
  9
$UNITMODE
 70
     0
  9
$VISRETAIN
 70
     0
  9
$PLINEGEN
 70
   490
  9
$PSLTSCALE
 70
     0
  9
$TREEDEPTH
 70
  3020
  9
$PICKSTYLE
 70
     1
  9
$CMLSTYLE
  2
STANDARD
  9
$CMLJUST
 70
     0
  9
$CMLSCALE
 40
1.0
  9
$PROXYGRAPHICS
 70
     1
  9
$MEASUREMENT
 70
     0
  0
ENDSEC
  0
SECTION
  2
CLASSES
  0
CLASS
  1
DICTIONARYVAR
  2
AcDbDictionaryVar
  3
"AutoCAD"
 90
        0
280
     0
281
     0
  0
CLASS
  1
LWPOLYLINE
  2
AcDbPolyline
  3
"AutoCAD"
 90
        0
280
     0
281
     1
  0
ENDSEC
  0
SECTION
  2
TABLES
  0
TABLE
  2
VPORT
  5
257
100
AcDbSymbolTable
 70
     3
  0
VPORT
  5
283
100
AcDbSymbolTableRecord
100
AcDbViewportTableRecord
  2
*ACTIVE
 70
     0
 10
0.0
 20
0.0
 11
1.0
 21
1.0
 12
229.111675
 22
159.665908
 13
0.0
 23
0.0
 14
0.4
 24
0.4
 15
0.8
 25
0.8
 16
0.0
 26
0.0
 36
1.0
 17
0.0
 27
0.0
 37
0.0
 40
638.663633
 41
1.434944
 42
50.0
 43
0.0
 44
0.0
 50
0.0
 51
0.0
 71
     0
 72
   500
 73
     1
 74
     1
 75
     0
 76
     0
 77
     0
 78
     2
  0
ENDTAB
  0
TABLE
  2
LTYPE
  5
254
100
AcDbSymbolTable
 70
     4
  0
LTYPE
  5
260
100
AcDbSymbolTableRecord
100
AcDbLinetypeTableRecord
  2
BYBLOCK
 70
     0
  3

 72
    65
 73
     0
 40
0.0
  0
LTYPE
  5
261
100
AcDbSymbolTableRecord
100
AcDbLinetypeTableRecord
  2
BYLAYER
 70
     0
  3

 72
    65
 73
     0
 40
0.0
  0
LTYPE
  5
262
100
AcDbSymbolTableRecord
100
AcDbLinetypeTableRecord
  2
CONTINUOUS
 70
     0
  3
実線
 72
    65
 73
     0
 40
0.0
  0
LTYPE
  5
26F
100
AcDbSymbolTableRecord
100
AcDbLinetypeTableRecord
  2
CENTER
 70
     0
  3
____ _ ____ _ ____ _ ____ _ ____ _ ____ _ ____
 72
    65
 73
     4
 40
2.0
 49
1.25
 74
     0
 49
-0.25
 74
     0
 49
0.25
 74
     0
 49
-0.25
 74
     0
  0
LTYPE
  5
270
100
AcDbSymbolTableRecord
100
AcDbLinetypeTableRecord
  2
HIDDEN
 70
     0
  3
_ _ _ _ _ _ _ _ _ _ _ _ _ _ _ _ _ _ _ _ _ _ _
 72
    65
 73
     2
 40
0.375
 49
0.25
 74
     0
 49
-0.125
 74
     0
  0
LTYPE
  5
271
100
AcDbSymbolTableRecord
100
AcDbLinetypeTableRecord
  2
TENSEN1
 70
     0
  3

 72
    65
 73
     2
 40
0.4
 49
0.3
 74
     0
 49
-0.1
 74
     0
  0
ENDTAB
  0
TABLE
  2
LAYER
  5
251
100
AcDbSymbolTable
 70
     5
  0
LAYER
  5
25D
100
AcDbSymbolTableRecord
100
AcDbLayerTableRecord
  2
0
 70
     0
 62
     7
  6
CONTINUOUS
  0
LAYER
  5
276
100
AcDbSymbolTableRecord
100
AcDbLayerTableRecord
  2
1
 70
     0
 62
     1
  6
CENTER
  0
LAYER
  5
277
100
AcDbSymbolTableRecord
100
AcDbLayerTableRecord
  2
10
 70
     0
 62
     7
  6
CONTINUOUS
  0
LAYER
  5
278
100
AcDbSymbolTableRecord
100
AcDbLayerTableRecord
  2
11
 70
     0
 62
     3
  6
CONTINUOUS
  0
LAYER
  5
279
100
AcDbSymbolTableRecord
100
AcDbLayerTableRecord
  2
2
 70
     0
 62
     2
  6
TENSEN1
  0
ENDTAB
  0
TABLE
  2
STYLE
  5
252
100
AcDbSymbolTable
 70
     4
  0
STYLE
  5
25E
100
AcDbSymbolTableRecord
100
AcDbTextStyleTableRecord
  2
STANDARD
 70
     0
 40
0.0
 41
1.0
 50
0.0
 71
     0
 42
0.2
  3
TXT
  4
BIGFONT
  0
STYLE
  5
26C
100
AcDbSymbolTableRecord
100
AcDbTextStyleTableRecord
  2
K70
 70
     0
 40
0.0
 41
0.7
 50
0.0
 71
     0
 42
0.2
  3
TXT
  4
BIGFONT
  0
STYLE
  5
26D
100
AcDbSymbolTableRecord
100
AcDbTextStyleTableRecord
  2
07500
 70
     0
 40
0.0
 41
0.75
 50
0.0
 71
     0
 42
6.0
  3
TXT
  4
BIGFONT
  0
STYLE
  5
26E
100
AcDbSymbolTableRecord
100
AcDbTextStyleTableRecord
  2
BIGFONT
 70
     0
 40
6.0
 41
0.9
 50
0.0
 71
     0
 42
6.0
  3

  4
bigfont
  0
ENDTAB
  0
TABLE
  2
VIEW
  5
255
100
AcDbSymbolTable
 70
     1
  0
VIEW
  5
272
100
AcDbSymbolTableRecord
100
AcDbViewTableRecord
  2
ALL
 70
     0
 40
270.0
 10
220.991597
 20
135.0
 41
0.0
 11
0.0
 21
0.0
 31
1.0
 12
0.0
 22
0.0
 32
0.0
 42
0.0
 43
0.0
 44
0.0
 50
0.0
 71
     0
  0
ENDTAB
  0
TABLE
  2
UCS
  5
256
100
AcDbSymbolTable
 70
     0
  0
ENDTAB
  0
TABLE
  2
APPID
  5
258
100
AcDbSymbolTable
 70
     1
  0
APPID
  5
25F
100
AcDbSymbolTableRecord
100
AcDbRegAppTableRecord
  2
ACAD
 70
     0
  0
ENDTAB
  0
TABLE
  2
DIMSTYLE
  5
259
100
AcDbSymbolTable
 70
     1
  0
DIMSTYLE
105
275
100
AcDbSymbolTableRecord
100
AcDbDimStyleTableRecord
  2
STANDARD
 70
     0
  3

  4

  5

  6

  7

 40
1.0
 41
0.18
 42
0.0625
 43
0.38
 44
0.18
 45
0.0
 46
0.0
 47
0.0
 48
0.0
140
0.18
141
0.09
142
0.0
143
25.4
144
1.0
145
0.0
146
1.0
147
0.09
 71
     0
 72
     0
 73
     1
 74
     1
 75
     0
 76
     0
 77
     0
 78
     0
170
     0
171
     2
172
     0
173
     0
174
     0
175
     0
176
     0
177
     0
178
     0
270
     2
271
     1
272
     1
273
     2
274
     2
340
26E
275
     0
280
     0
281
     0
282
     0
283
     1
284
     0
285
     0
286
     0
287
     5
288
     0
  0
ENDTAB
  0
TABLE
  2
BLOCK_RECORD
  5
250
100
AcDbSymbolTable
 70
     1
  0
BLOCK_RECORD
  5
266
100
AcDbSymbolTableRecord
100
AcDbBlockTableRecord
  2
*MODEL_SPACE
  0
BLOCK_RECORD
  5
263
100
AcDbSymbolTableRecord
100
AcDbBlockTableRecord
  2
*PAPER_SPACE
  0
BLOCK_RECORD
  5
26B
100
AcDbSymbolTableRecord
100
AcDbBlockTableRecord
  2
QQ
  0
ENDTAB
  0
ENDSEC
  0
SECTION
  2
BLOCKS
  0
BLOCK
  5
27C
100
AcDbEntity
  8
0
100
AcDbBlockBegin
  2
*MODEL_SPACE
 70
     0
 10
0.0
 20
0.0
 30
0.0
  3
*MODEL_SPACE
  1

  0
ENDBLK
  5
27D
100
AcDbEntity
  8
0
100
AcDbBlockEnd
  0
BLOCK
  5
27A
100
AcDbEntity
 67
     1
  8
0
100
AcDbBlockBegin
  2
*PAPER_SPACE
 70
     0
 10
0.0
 20
0.0
 30
0.0
  3
*PAPER_SPACE
  1

  0
ENDBLK
  5
27B
100
AcDbEntity
 67
     1
  8
0
100
AcDbBlockEnd
  0
BLOCK
  5
2E
100
AcDbEntity
  8
0
100
AcDbBlockBegin
  2
QQ
 70
     0
 10
270.0
 20
0.0
 30
0.0
  3
QQ
  1

  0
LINE
  5
2F
100
AcDbEntity
  8
11
100
AcDbLine
 10
173.0
 20
36.0
 30
0.0
 11
270.0
 21
36.0
 31
0.0
  0
TEXT
  5
30
100
AcDbEntity
  8
11
100
AcDbText
 10
175.0
 20
32.5
 30
0.0
 40
2.5
  1
部品名称
100
AcDbText
  0
LINE
  5
31
100
AcDbEntity
  8
11
100
AcDbLine
 10
173.0
 20
36.0
 30
0.0
 11
173.0
 21
0.0
 31
0.0
  0
LINE
  5
32
100
AcDbEntity
  8
11
100
AcDbLine
 10
173.0
 20
24.0
 30
0.0
 11
270.0
 21
24.0
 31
0.0
  0
TEXT
  5
33
100
AcDbEntity
  8
11
100
AcDbText
 10
175.0
 20
20.5
 30
0.0
 40
2.5
  1
品番
100
AcDbText
  0
LINE
  5
34
100
AcDbEntity
  8
11
100
AcDbLine
 10
173.0
 20
12.0
 30
0.0
 11
270.0
 21
12.0
 31
0.0
  0
TEXT
  5
35
100
AcDbEntity
  8
11
100
AcDbText
 10
175.0
 20
8.5
 30
0.0
 40
2.5
  1
尺度
100
AcDbText
  0
TEXT
  5
36
100
AcDbEntity
  8
11
100
AcDbText
 10
200.0
 20
8.5
 30
0.0
 40
2.5
  1
図番
100
AcDbText
  0
LINE
  5
37
100
AcDbEntity
  8
11
100
AcDbLine
 10
198.0
 20
0.0
 30
0.0
 11
198.0
 21
12.0
 31
0.0
  0
ENDBLK
  5
38
100
AcDbEntity
  8
0
100
AcDbBlockEnd
  0
ENDSEC
  0
SECTION
  2
ENTITIES
  0
ARC
  5
39
100
AcDbEntity
  8
0
100
AcDbCircle
 10
170.923041
 20
153.637613
 30
0.0
 40
8.0
100
AcDbArc
 50
90.0
 51
164.086039
  0
ARC
  5
3A
100
AcDbEntity
  8
0
100
AcDbCircle
 10
230.546861
 20
136.637613
 30
0.0
 40
70.0
100
AcDbArc
 50
164.086039
 51
169.713439
  0
ARC
  5
3B
100
AcDbEntity
  8
0
100
AcDbCircle
 10
170.923041
 20
119.637613
 30
0.0
 40
8.0
100
AcDbArc
 50
195.913961
 51
270.0
  0
ARC
  5
3C
100
AcDbEntity
  8
0
100
AcDbCircle
 10
173.546861
 20
159.637613
 30
0.0
 40
2.0
100
AcDbArc
 50
0.0
 51
90.0
  0
ARC
  5
3D
100
AcDbEntity
  8
0
100
AcDbCircle
 10
173.546861
 20
113.637613
 30
0.0
 40
2.0
100
AcDbArc
 50
270.0
 51
0.0
  0
LINE
  5
3E
100
AcDbEntity
  8
0
100
AcDbLine
 10
175.546861
 20
147.637613
 30
0.0
 11
177.546861
 21
147.637613
 31
0.0
  0
LINE
  5
3F
100
AcDbEntity
  8
0
100
AcDbLine
 10
175.546861
 20
125.637613
 30
0.0
 11
177.546861
 21
125.637613
 31
0.0
  0
LINE
  5
40
100
AcDbEntity
  8
0
100
AcDbLine
 10
177.546861
 20
147.637613
 30
0.0
 11
177.546861
 21
125.637613
 31
0.0
  0
LINE
  5
41
100
AcDbEntity
  8
0
100
AcDbLine
 10
175.546861
 20
159.637613
 30
0.0
 11
175.546861
 21
113.63761
 31
0.0
  0
LINE
  5
42
100
AcDbEntity
  8
0
100
AcDbLine
 10
170.923041
 20
161.637613
 30
0.0
 11
173.546861
 21
161.637613
 31
0.0
  0
LINE
  5
43
100
AcDbEntity
  8
0
100
AcDbLine
 10
170.923041
 20
111.637613
 30
0.0
 11
173.546861
 21
111.637613
 31
0.0
  0
ARC
  5
44
100
AcDbEntity
  8
0
100
AcDbCircle
 10
75.0
 20
136.637613
 30
0.0
 40
25.0
100
AcDbArc
 50
266.130499
 51
273.869501
  0
ARC
  5
45
100
AcDbEntity
  8
0
100
AcDbCircle
 10
54.5
 20
101.130572
 30
0.0
 40
20.0
100
AcDbArc
 50
37.333598
 51
82.666402
  0
ARC
  5
46
100
AcDbEntity
  8
0
100
AcDbCircle
 10
57.56351
 20
124.934246
 30
0.0
 40
4.0
100
AcDbArc
 50
213.869501
 51
262.666402
  0
ARC
  5
47
100
AcDbEntity
  8
0
100
AcDbCircle
 10
73.582832
 20
115.685486
 30
0.0
 40
4.0
100
AcDbArc
 50
217.333598
 51
266.130499
  0
ARC
  5
48
100
AcDbEntity
  8
0
100
AcDbCircle
 10
75.0
 20
136.637613
 30
0.0
 40
25.0
100
AcDbArc
 50
206.130499
 51
213.869501
  0
ARC
  5
49
100
AcDbEntity
  8
0
100
AcDbCircle
 10
34.0
 20
136.637613
 30
0.0
 40
20.0
100
AcDbArc
 50
337.333598
 51
22.666402
  0
ARC
  5
4A
100
AcDbEntity
  8
0
100
AcDbCircle
 10
56.146341
 20
145.886373
 30
0.0
 40
4.0
100
AcDbArc
 50
153.869501
 51
202.666402
  0
ARC
  5
4B
100
AcDbEntity
  8
0
100
AcDbCircle
 10
56.146341
 20
127.388853
 30
0.0
 40
4.0
100
AcDbArc
 50
157.333598
 51
206.130499
  0
ARC
  5
4C
100
AcDbEntity
  8
0
100
AcDbCircle
 10
75.0
 20
136.637613
 30
0.0
 40
25.0
100
AcDbArc
 50
146.130499
 51
153.869501
  0
ARC
  5
4D
100
AcDbEntity
  8
0
100
AcDbCircle
 10
54.5
 20
172.144655
 30
0.0
 40
20.0
100
AcDbArc
 50
277.333598
 51
322.666402
  0
ARC
  5
4E
100
AcDbEntity
  8
0
100
AcDbCircle
 10
73.582832
 20
157.58974
 30
0.0
 40
4.0
100
AcDbArc
 50
93.869501
 51
142.666402
  0
ARC
  5
4F
100
AcDbEntity
  8
0
100
AcDbCircle
 10
57.56351
 20
148.34098
 30
0.0
 40
4.0
100
AcDbArc
 50
97.333598
 51
146.130499
  0
ARC
  5
50
100
AcDbEntity
  8
0
100
AcDbCircle
 10
75.0
 20
136.637613
 30
0.0
 40
25.0
100
AcDbArc
 50
86.130499
 51
93.869501
  0
ARC
  5
51
100
AcDbEntity
  8
0
100
AcDbCircle
 10
95.5
 20
172.144655
 30
0.0
 40
20.0
100
AcDbArc
 50
217.333598
 51
262.666402
  0
ARC
  5
52
100
AcDbEntity
  8
0
100
AcDbCircle
 10
92.43649
 20
148.34098
 30
0.0
 40
4.0
100
AcDbArc
 50
33.869501
 51
82.666402
  0
ARC
  5
53
100
AcDbEntity
  8
0
100
AcDbCircle
 10
76.417168
 20
157.58974
 30
0.0
 40
4.0
100
AcDbArc
 50
37.333598
 51
86.130499
  0
ARC
  5
54
100
AcDbEntity
  8
0
100
AcDbCircle
 10
75.0
 20
136.637613
 30
0.0
 40
25.0
100
AcDbArc
 50
26.130499
 51
33.869501
  0
ARC
  5
55
100
AcDbEntity
  8
0
100
AcDbCircle
 10
116.0
 20
136.637613
 30
0.0
 40
20.0
100
AcDbArc
 50
157.333598
 51
202.666402
  0
ARC
  5
56
100
AcDbEntity
  8
0
100
AcDbCircle
 10
93.853659
 20
127.388853
 30
0.0
 40
4.0
100
AcDbArc
 50
333.869501
 51
22.666402
  0
ARC
  5
57
100
AcDbEntity
  8
0
100
AcDbCircle
 10
93.853659
 20
145.886373
 30
0.0
 40
4.0
100
AcDbArc
 50
337.333598
 51
26.130499
  0
ARC
  5
58
100
AcDbEntity
  8
0
100
AcDbCircle
 10
92.43649
 20
124.934246
 30
0.0
 40
4.0
100
AcDbArc
 50
277.333598
 51
326.130499
  0
ARC
  5
59
100
AcDbEntity
  8
0
100
AcDbCircle
 10
76.417168
 20
115.685486
 30
0.0
 40
4.0
100
AcDbArc
 50
273.869501
 51
322.666402
  0
ARC
  5
5A
100
AcDbEntity
  8
0
100
AcDbCircle
 10
95.5
 20
101.130572
 30
0.0
 40
20.0
100
AcDbArc
 50
97.333598
 51
142.666402
  0
ARC
  5
5B
100
AcDbEntity
  8
0
100
AcDbCircle
 10
75.0
 20
136.637613
 30
0.0
 40
25.0
100
AcDbArc
 50
326.130499
 51
333.869501
  0
LINE
  5
5C
100
AcDbEntity
  8
1
100
AcDbLine
 10
75.0
 20
166.637613
 30
0.0
 11
75.0
 21
106.637613
 31
0.0
  0
LINE
  5
5D
100
AcDbEntity
  8
1
100
AcDbLine
 10
105.0
 20
136.637613
 30
0.0
 11
45.0
 21
136.637613
 31
0.0
  0
LINE
  5
5E
100
AcDbEntity
  8
1
100
AcDbLine
 10
155.546861
 20
136.637613
 30
0.0
 11
197.546861
 21
136.637613
 31
0.0
  0
LINE
  5
5F
100
AcDbEntity
  8
0
100
AcDbLine
 10
177.546861
 20
145.137613
 30
0.0
 11
192.346861
 21
145.137613
 31
0.0
  0
LINE
  5
60
100
AcDbEntity
  8
0
100
AcDbLine
 10
177.546861
 20
128.137613
 30
0.0
 11
192.346861
 21
128.137613
 31
0.0
  0
LINE
  5
61
100
AcDbEntity
  8
0
100
AcDbLine
 10
192.546861
 20
144.937613
 30
0.0
 11
192.546861
 21
128.337613
 31
0.0
  0
LINE
  5
62
100
AcDbEntity
  8
0
100
AcDbLine
 10
192.346861
 20
145.137613
 30
0.0
 11
192.546861
 21
144.937613
 31
0.0
  0
LINE
  5
63
100
AcDbEntity
  8
0
100
AcDbLine
 10
192.546861
 20
128.337613
 30
0.0
 11
192.346861
 21
128.137613
 31
0.0
  0
LINE
  5
8C
100
AcDbEntity
  8
0
100
AcDbLine
 10
192.346861
 20
145.137613
 30
0.0
 11
192.346861
 21
128.137613
 31
0.0
  0
LINE
  5
90
100
AcDbEntity
  8
0
100
AcDbLine
 10
170.923041
 20
121.110004
 30
0.0
 11
173.546861
 21
121.110004
 31
0.0
  0
LINE
  5
91
100
AcDbEntity
  8
0
100
AcDbLine
 10
170.923041
 20
127.433212
 30
0.0
 11
173.546861
 21
127.433212
 31
0.0
  0
LINE
  5
92
100
AcDbEntity
  8
0
100
AcDbLine
 10
165.163377
 20
122.705033
 30
0.0
 11
165.163377
 21
125.627185
 31
0.0
  0
LWPOLYLINE
  5
93
100
AcDbEntity
  8
0
100
AcDbPolyline
 90
        5
 70
     0
 43
0.0
 10
170.923041
 20
127.433212
 42
0.032301
 10
168.5607
 20
127.28044
 42
0.043702
 10
166.850344
 20
126.904239
 42
0.086243
 10
165.372157
 20
126.142339
 42
0.275561
 10
165.163377
 20
125.627185
 42
0.234888
  0
LWPOLYLINE
  5
9A
100
AcDbEntity
  8
0
100
AcDbPolyline
 90
        5
 70
     0
 43
0.0
 10
165.163377
 20
122.705033
 42
0.250415
 10
165.414379
 20
122.235289
 42
0.07996
 10
166.850344
 20
121.577177
 42
0.039008
 10
168.555703
 20
121.245337
 42
0.02856
 10
170.923041
 20
121.110004
 42
0.02856
  0
LWPOLYLINE
  5
A1
100
AcDbEntity
  8
0
100
AcDbPolyline
 90
        5
 70
     0
 43
0.0
 10
173.546861
 20
121.110004
 42
0.079933
 10
174.331133
 20
121.236189
 42
0.088774
 10
174.961075
 20
121.577177
 42
0.105019
 10
175.402497
 20
122.11387
 42
0.120334
 10
175.546861
 20
122.705033
 42
0.120334
  0
LWPOLYLINE
  5
A8
100
AcDbEntity
  8
0
100
AcDbPolyline
 90
        5
 70
     0
 43
0.0
 10
175.546861
 20
125.627185
 42
0.107933
 10
175.397928
 20
126.309085
 42
0.101914
 10
174.961075
 20
126.904239
 42
0.094416
 10
174.321389
 20
127.2931
 42
0.089722
 10
173.546861
 20
127.433212
 42
0.089722
  0
ARC
  5
AF
100
AcDbEntity
  8
0
100
AcDbCircle
 10
189.9965
 20
136.637613
 30
0.0
 40
26.001663
100
AcDbArc
 50
162.757554
 51
197.242446
  0
LWPOLYLINE
  5
B0
100
AcDbEntity
  8
0
100
AcDbPolyline
 90
        5
 70
     0
 43
0.0
 10
165.163377
 20
120.966967
 42
0.184107
 10
164.774044
 20
120.818579
 42
0.102281
 10
164.337095
 20
120.230081
 42
0.061264
 10
164.092123
 20
119.471704
 42
0.047552
 10
163.994837
 20
118.45108
 42
0.047552
  0
LWPOLYLINE
  5
B7
100
AcDbEntity
  8
0
100
AcDbPolyline
 90
        3
 70
     0
 43
0.0
 10
163.994837
 20
118.45108
 42
0.023246
 10
164.094351
 20
116.311788
 42
0.022524
 10
164.24403
 20
115.234113
 42
0.069204
  0
LWPOLYLINE
  5
BC
100
AcDbEntity
  8
0
100
AcDbPolyline
 90
        5
 70
     0
 43
0.0
 10
165.163377
 20
152.30826
 42
-0.184107
 10
164.774044
 20
152.456647
 42
-0.102281
 10
164.337095
 20
153.045146
 42
-0.061264
 10
164.092123
 20
153.803522
 42
-0.047552
 10
163.994837
 20
154.824147
 42
-0.047552
  0
LWPOLYLINE
  5
C3
100
AcDbEntity
  8
0
100
AcDbPolyline
 90
        5
 70
     0
 43
0.0
 10
175.546861
 20
147.648042
 42
-0.107933
 10
175.397928
 20
146.966142
 42
-0.101914
 10
174.961075
 20
146.370987
 42
-0.094416
 10
174.321389
 20
145.982126
 42
-0.089722
 10
173.546861
 20
145.842014
 42
-0.089722
  0
LWPOLYLINE
  5
CA
100
AcDbEntity
  8
0
100
AcDbPolyline
 90
        5
 70
     0
 43
0.0
 10
173.546861
 20
152.165223
 42
-0.079933
 10
174.331133
 20
152.039037
 42
-0.088774
 10
174.961075
 20
151.698049
 42
-0.105019
 10
175.402497
 20
151.161356
 42
-0.120334
 10
175.546861
 20
150.570193
 42
-0.120334
  0
LWPOLYLINE
  5
D1
100
AcDbEntity
  8
0
100
AcDbPolyline
 90
        5
 70
     0
 43
0.0
 10
165.163377
 20
150.570193
 42
-0.250415
 10
165.414379
 20
151.039938
 42
-0.07996
 10
166.850344
 20
151.698049
 42
-0.039008
 10
168.555703
 20
152.029889
 42
-0.02856
 10
170.923041
 20
152.165223
 42
-0.02856
  0
LWPOLYLINE
  5
D8
100
AcDbEntity
  8
0
100
AcDbPolyline
 90
        5
 70
     0
 43
0.0
 10
170.923041
 20
145.842014
 42
-0.032301
 10
168.5607
 20
145.994786
 42
-0.043702
 10
166.850344
 20
146.370987
 42
-0.086243
 10
165.372157
 20
147.132887
 42
-0.275561
 10
165.163377
 20
147.648042
 42
-0.234888
  0
LINE
  5
DF
100
AcDbEntity
  8
0
100
AcDbLine
 10
165.163377
 20
150.570193
 30
0.0
 11
165.163377
 21
147.648042
 31
0.0
  0
LINE
  5
E0
100
AcDbEntity
  8
0
100
AcDbLine
 10
170.923041
 20
145.842014
 30
0.0
 11
173.546861
 21
145.842014
 31
0.0
  0
LINE
  5
E1
100
AcDbEntity
  8
0
100
AcDbLine
 10
170.923041
 20
152.165223
 30
0.0
 11
173.546861
 21
152.165223
 31
0.0
  0
LWPOLYLINE
  5
E2
100
AcDbEntity
  8
0
100
AcDbPolyline
 90
        3
 70
     0
 43
0.0
 10
163.994837
 20
154.824147
 42
-0.023246
 10
164.094351
 20
156.963439
 42
-0.022524
 10
164.24403
 20
158.041113
 42
-0.069204
  0
LINE
  5
E7
100
AcDbEntity
  8
0
100
AcDbLine
 10
161.671975
 20
124.137613
 30
0.0
 11
161.671975
 21
149.137613
 31
0.0
  0
ARC
  5
E8
100
AcDbEntity
  8
0
100
AcDbCircle
 10
230.546861
 20
136.637613
 30
0.0
 40
70.0
100
AcDbArc
 50
190.286561
 51
195.913961
  0
LWPOLYLINE
  5
E9
100
AcDbEntity
  8
0
100
AcDbPolyline
 90
        5
 70
     0
 43
0.0
 10
163.994837
 20
221.100228
 42
0.020458
 10
164.094514
 20
218.665162
 42
0.028415
 10
164.337095
 20
216.926629
 42
0.062685
 10
164.862272
 20
215.345333
 42
0.347853
 10
165.163377
 20
215.197868
 42
0.28889
  0
LWPOLYLINE
  5
F0
100
AcDbEntity
  8
0
100
AcDbPolyline
 90
        5
 70
     0
 43
0.0
 10
165.163377
 20
228.547303
 42
0.311716
 10
164.859078
 20
228.337176
 42
0.051664
 10
164.337095
 20
226.366105
 42
0.022689
 10
164.094724
 20
224.177118
 42
0.016227
 10
163.994837
 20
221.100228
 42
0.016227
  0
ARC
  5
F7
100
AcDbEntity
  8
0
100
AcDbCircle
 10
230.546861
 20
210.600228
 30
0.0
 40
70.0
100
AcDbArc
 50
164.086039
 51
169.713439
  0
ARC
  5
F8
100
AcDbEntity
  8
0
100
AcDbCircle
 10
170.923041
 20
227.600228
 30
0.0
 40
8.0
100
AcDbArc
 50
135.371275
 51
164.086039
  0
LINE
  5
F9
100
AcDbEntity
  8
0
100
AcDbLine
 10
170.92304
 20
230.193424
 30
0.0
 11
173.546861
 21
230.193424
 31
0.0
  0
LINE
  5
FA
100
AcDbEntity
  8
0
100
AcDbLine
 10
165.163377
 20
231.357954
 30
0.0
 11
165.163377
 21
233.045059
 31
0.0
  0
LWPOLYLINE
  5
FB
100
AcDbEntity
  8
0
100
AcDbPolyline
 90
        5
 70
     0
 43
0.0
 10
165.163377
 20
231.357954
 42
0.28666
 10
165.362788
 20
231.038718
 42
0.063737
 10
166.850343
 20
230.534507
 42
0.028994
 10
168.547249
 20
230.292735
 42
0.020891
 10
170.92304
 20
230.193424
 42
0.020891
  0
LWPOLYLINE
  5
102
100
AcDbEntity
  8
0
100
AcDbPolyline
 90
        5
 70
     0
 43
0.0
 10
173.546861
 20
230.193424
 42
0.059235
 10
174.349531
 20
230.288851
 42
0.072782
 10
174.961075
 20
230.534507
 42
0.106701
 10
175.445001
 20
230.976263
 42
0.180697
 10
175.546861
 20
231.357954
 42
0.155824
  0
LINE
  5
109
100
AcDbEntity
  8
0
100
AcDbLine
 10
170.92304
 20
233.84413
 30
0.0
 11
173.546861
 21
233.84413
 31
0.0
  0
LWPOLYLINE
  5
10A
100
AcDbEntity
  8
0
100
AcDbPolyline
 90
        5
 70
     0
 43
0.0
 10
175.546861
 20
233.045059
 42
0.203604
 10
175.437671
 20
233.302088
 42
0.097118
 10
174.961075
 20
233.610088
 42
0.054077
 10
174.362394
 20
233.777103
 42
0.041025
 10
173.546861
 20
233.84413
 42
0.041025
  0
LWPOLYLINE
  5
111
100
AcDbEntity
  8
0
100
AcDbPolyline
 90
        5
 70
     0
 43
0.0
 10
170.92304
 20
233.84413
 42
0.014352
 10
168.542029
 20
233.775773
 42
0.020116
 10
166.850343
 20
233.610088
 42
0.046368
 10
165.266932
 20
233.238466
 42
0.065114
 10
165.229649
 20
233.220307
 42
0.322424
  0
LWPOLYLINE
  5
118
100
AcDbEntity
  8
0
100
AcDbPolyline
 90
        2
 70
     0
 43
0.0
 10
165.182402
 20
233.172038
 42
0.209568
 10
165.163377
 20
233.045059
 42
0.322424
  0
LWPOLYLINE
  5
11C
100
AcDbEntity
  8
0
100
AcDbPolyline
 90
        5
 70
     0
 43
0.0
 10
165.163377
 20
192.653152
 42
-0.311716
 10
164.859078
 20
192.863279
 42
-0.051664
 10
164.337095
 20
194.83435
 42
-0.022689
 10
164.094724
 20
197.023337
 42
-0.016227
 10
163.994837
 20
200.100228
 42
-0.016227
  0
LWPOLYLINE
  5
123
100
AcDbEntity
  8
0
100
AcDbPolyline
 90
        5
 70
     0
 43
0.0
 10
163.994837
 20
200.100228
 42
-0.020458
 10
164.094514
 20
202.535293
 42
-0.028415
 10
164.337095
 20
204.273826
 42
-0.062685
 10
164.862272
 20
205.855122
 42
-0.347853
 10
165.163377
 20
206.002587
 42
-0.28889
  0
LINE
  5
12A
100
AcDbEntity
  8
0
100
AcDbLine
 10
170.92304
 20
214.250934
 30
0.0
 11
173.546861
 21
214.250934
 31
0.0
  0
LWPOLYLINE
  5
12B
100
AcDbEntity
  8
0
100
AcDbPolyline
 90
        5
 70
     0
 43
0.0
 10
170.92304
 20
214.250934
 42
0.035086
 10
168.564777
 20
214.085245
 42
0.047104
 10
166.850343
 20
213.675808
 42
0.090264
 10
165.450394
 20
212.895295
 42
0.224184
 10
165.163377
 20
212.287333
 42
0.224184
  0
LWPOLYLINE
  5
132
100
AcDbEntity
  8
0
100
AcDbPolyline
 90
        5
 70
     0
 43
0.0
 10
175.546861
 20
212.287333
 42
0.100142
 10
175.395187
 20
213.03704
 42
0.09916
 10
174.961075
 20
213.675808
 42
0.097802
 10
174.257052
 20
214.138302
 42
0.114985
 10
173.546861
 20
214.250934
 42
0.096863
  0
LWPOLYLINE
  5
139
100
AcDbEntity
  8
0
100
AcDbPolyline
 90
        5
 70
     0
 43
0.0
 10
175.546861
 20
208.913123
 42
-0.100142
 10
175.395187
 20
208.163415
 42
-0.09916
 10
174.961075
 20
207.524647
 42
-0.097802
 10
174.257052
 20
207.062153
 42
-0.114985
 10
173.546861
 20
206.949521
 42
-0.096863
  0
LWPOLYLINE
  5
140
100
AcDbEntity
  8
0
100
AcDbPolyline
 90
        5
 70
     0
 43
0.0
 10
170.92304
 20
206.949521
 42
-0.035086
 10
168.564777
 20
207.11521
 42
-0.047104
 10
166.850343
 20
207.524647
 42
-0.090264
 10
165.450394
 20
208.30516
 42
-0.224184
 10
165.163377
 20
208.913123
 42
-0.224184
  0
LWPOLYLINE
  5
147
100
AcDbEntity
  8
0
100
AcDbPolyline
 90
        2
 70
     0
 43
0.0
 10
165.182402
 20
188.028417
 42
-0.209568
 10
165.163377
 20
188.155396
 42
-0.322424
  0
LWPOLYLINE
  5
14B
100
AcDbEntity
  8
0
100
AcDbPolyline
 90
        5
 70
     0
 43
0.0
 10
170.92304
 20
187.356325
 42
-0.014352
 10
168.542029
 20
187.424683
 42
-0.020116
 10
166.850343
 20
187.590368
 42
-0.046368
 10
165.266932
 20
187.961989
 42
-0.065114
 10
165.229649
 20
187.980148
 42
-0.322424
  0
LWPOLYLINE
  5
152
100
AcDbEntity
  8
0
100
AcDbPolyline
 90
        5
 70
     0
 43
0.0
 10
175.546861
 20
188.155396
 42
-0.203604
 10
175.437671
 20
187.898367
 42
-0.097118
 10
174.961075
 20
187.590368
 42
-0.054077
 10
174.362394
 20
187.423352
 42
-0.041025
 10
173.546861
 20
187.356325
 42
-0.041025
  0
LINE
  5
159
100
AcDbEntity
  8
0
100
AcDbLine
 10
170.92304
 20
187.356325
 30
0.0
 11
173.546861
 21
187.356325
 31
0.0
  0
LWPOLYLINE
  5
15A
100
AcDbEntity
  8
0
100
AcDbPolyline
 90
        5
 70
     0
 43
0.0
 10
173.546861
 20
191.007031
 42
-0.059235
 10
174.349531
 20
190.911605
 42
-0.072782
 10
174.961075
 20
190.665948
 42
-0.106701
 10
175.445001
 20
190.224192
 42
-0.180697
 10
175.546861
 20
189.842501
 42
-0.155824
  0
LWPOLYLINE
  5
161
100
AcDbEntity
  8
0
100
AcDbPolyline
 90
        5
 70
     0
 43
0.0
 10
165.163377
 20
189.842501
 42
-0.28666
 10
165.362788
 20
190.161737
 42
-0.063737
 10
166.850343
 20
190.665948
 42
-0.028994
 10
168.547249
 20
190.90772
 42
-0.020891
 10
170.92304
 20
191.007031
 42
-0.020891
  0
LINE
  5
168
100
AcDbEntity
  8
0
100
AcDbLine
 10
165.163377
 20
189.842501
 30
0.0
 11
165.163377
 21
188.155396
 31
0.0
  0
LINE
  5
169
100
AcDbEntity
  8
0
100
AcDbLine
 10
165.163377
 20
212.287333
 30
0.0
 11
165.163377
 21
208.913123
 31
0.0
  0
LINE
  5
16A
100
AcDbEntity
  8
0
100
AcDbLine
 10
170.92304
 20
191.007031
 30
0.0
 11
173.546861
 21
191.007031
 31
0.0
  0
LINE
  5
16B
100
AcDbEntity
  8
0
100
AcDbLine
 10
170.92304
 20
206.949521
 30
0.0
 11
173.546861
 21
206.949521
 31
0.0
  0
ARC
  5
16C
100
AcDbEntity
  8
0
100
AcDbCircle
 10
170.923041
 20
193.600228
 30
0.0
 40
8.0
100
AcDbArc
 50
195.913961
 51
224.628725
  0
ARC
  5
16D
100
AcDbEntity
  8
0
100
AcDbCircle
 10
230.546861
 20
210.600228
 30
0.0
 40
70.0
100
AcDbArc
 50
190.286561
 51
195.913961
  0
LINE
  5
16E
100
AcDbEntity
  8
0
100
AcDbLine
 10
161.671975
 20
223.100228
 30
0.0
 11
161.671975
 21
198.100228
 31
0.0
  0
LINE
  5
16F
100
AcDbEntity
  8
0
100
AcDbLine
 10
175.546861
 20
188.155396
 30
0.0
 11
175.546861
 21
233.045059
 31
0.0
  0
LINE
  5
170
100
AcDbEntity
  8
0
100
AcDbLine
 10
192.346861
 20
202.100228
 30
0.0
 11
192.346861
 21
219.100228
 31
0.0
  0
LINE
  5
171
100
AcDbEntity
  8
0
100
AcDbLine
 10
192.546861
 20
218.900228
 30
0.0
 11
192.346861
 21
219.100228
 31
0.0
  0
LINE
  5
172
100
AcDbEntity
  8
0
100
AcDbLine
 10
192.346861
 20
202.100228
 30
0.0
 11
192.546861
 21
202.300228
 31
0.0
  0
LINE
  5
173
100
AcDbEntity
  8
0
100
AcDbLine
 10
192.546861
 20
202.300228
 30
0.0
 11
192.546861
 21
218.900228
 31
0.0
  0
LINE
  5
174
100
AcDbEntity
  8
0
100
AcDbLine
 10
177.546861
 20
219.100228
 30
0.0
 11
192.346861
 21
219.100228
 31
0.0
  0
LINE
  5
175
100
AcDbEntity
  8
0
100
AcDbLine
 10
177.546861
 20
202.100228
 30
0.0
 11
192.346861
 21
202.100228
 31
0.0
  0
LINE
  5
176
100
AcDbEntity
  8
1
100
AcDbLine
 10
155.546861
 20
210.600228
 30
0.0
 11
197.546861
 21
210.600228
 31
0.0
  0
LINE
  5
177
100
AcDbEntity
  8
0
100
AcDbLine
 10
177.546861
 20
199.600228
 30
0.0
 11
177.546861
 21
221.600228
 31
0.0
  0
LINE
  5
178
100
AcDbEntity
  8
0
100
AcDbLine
 10
175.546861
 20
221.600228
 30
0.0
 11
177.546861
 21
221.600228
 31
0.0
  0
LINE
  5
179
100
AcDbEntity
  8
0
100
AcDbLine
 10
175.546861
 20
199.600228
 30
0.0
 11
177.546861
 21
199.600228
 31
0.0
  0
CIRCLE
  5
181
100
AcDbEntity
  8
0
100
AcDbCircle
 10
75.014771
 20
136.594072
 30
0.0
 40
12.2
  0
CIRCLE
  5
182
100
AcDbEntity
  8
0
100
AcDbCircle
 10
75.014771
 20
136.594072
 30
0.0
 40
9.5
  0
CIRCLE
  5
183
100
AcDbEntity
  8
0
100
AcDbCircle
 10
75.014771
 20
136.594072
 30
0.0
 40
10.2
  0
LINE
  5
184
100
AcDbEntity
  8
2
100
AcDbLine
 10
192.060611
 20
213.263698
 30
0.0
 11
189.060611
 21
213.263698
 31
0.0
  0
LINE
  5
185
100
AcDbEntity
  8
2
100
AcDbLine
 10
189.060611
 20
213.263698
 30
0.0
 11
187.060611
 21
210.763698
 31
0.0
  0
LINE
  5
186
100
AcDbEntity
  8
2
100
AcDbLine
 10
187.060611
 20
210.763698
 30
0.0
 11
189.060611
 21
208.263698
 31
0.0
  0
LINE
  5
187
100
AcDbEntity
  8
2
100
AcDbLine
 10
189.060611
 20
208.263698
 30
0.0
 11
192.060611
 21
208.263698
 31
0.0
  0
LINE
  5
188
100
AcDbEntity
  8
2
100
AcDbLine
 10
192.060611
 20
208.263698
 30
0.0
 11
192.550051
 21
207.774258
 31
0.0
  0
LINE
  5
189
100
AcDbEntity
  8
2
100
AcDbLine
 10
192.060611
 20
213.263698
 30
0.0
 11
192.060611
 21
208.263698
 31
0.0
  0
LINE
  5
18A
100
AcDbEntity
  8
2
100
AcDbLine
 10
189.060611
 20
213.263698
 30
0.0
 11
189.060611
 21
208.263698
 31
0.0
  0
LINE
  5
18B
100
AcDbEntity
  8
2
100
AcDbLine
 10
192.060611
 20
139.0
 30
0.0
 11
189.060611
 21
139.0
 31
0.0
  0
LINE
  5
18C
100
AcDbEntity
  8
2
100
AcDbLine
 10
189.060611
 20
139.0
 30
0.0
 11
187.060611
 21
136.5
 31
0.0
  0
LINE
  5
18D
100
AcDbEntity
  8
2
100
AcDbLine
 10
187.060611
 20
136.5
 30
0.0
 11
189.060611
 21
134.0
 31
0.0
  0
LINE
  5
18E
100
AcDbEntity
  8
2
100
AcDbLine
 10
189.060611
 20
134.0
 30
0.0
 11
192.060611
 21
134.0
 31
0.0
  0
LINE
  5
18F
100
AcDbEntity
  8
2
100
AcDbLine
 10
192.060611
 20
134.0
 30
0.0
 11
192.552148
 21
133.508463
 31
0.0
  0
LINE
  5
190
100
AcDbEntity
  8
2
100
AcDbLine
 10
192.060611
 20
139.0
 30
0.0
 11
192.060611
 21
134.0
 31
0.0
  0
LINE
  5
191
100
AcDbEntity
  8
2
100
AcDbLine
 10
189.060611
 20
139.0
 30
0.0
 11
189.060611
 21
134.0
 31
0.0
  0
LINE
  5
192
100
AcDbEntity
  8
2
100
AcDbLine
 10
192.546961
 20
213.750048
 30
0.0
 11
192.060611
 21
213.263698
 31
0.0
  0
LINE
  5
193
100
AcDbEntity
  8
2
100
AcDbLine
 10
192.544424
 20
139.483813
 30
0.0
 11
192.060611
 21
139.0
 31
0.0
  0
LINE
  5
194
100
AcDbEntity
  8
0
100
AcDbLine
 10
161.671698
 20
146.808329
 30
0.0
 11
161.538782
 21
146.808329
 31
0.0
  0
ARC
  5
195
100
AcDbEntity
  8
0
100
AcDbCircle
 10
161.521021
 20
146.397517
 30
0.0
 40
0.411196
100
AcDbArc
 50
87.524475
 51
179.965931
  0
LINE
  5
196
100
AcDbEntity
  8
0
100
AcDbLine
 10
161.673919
 20
126.381628
 30
0.0
 11
161.563747
 21
126.381628
 31
0.0
  0
ARC
  5
197
100
AcDbEntity
  8
0
100
AcDbCircle
 10
161.64033
 20
126.851756
 30
0.0
 40
0.476324
100
AcDbArc
 50
190.92586
 51
260.747823
  0
LINE
  5
198
100
AcDbEntity
  8
0
100
AcDbLine
 10
161.160182
 20
126.796831
 30
0.0
 11
161.160182
 21
146.461638
 31
0.0
  0
LINE
  5
199
100
AcDbEntity
  8
0
100
AcDbLine
 10
161.674701
 20
220.802884
 30
0.0
 11
161.545704
 21
220.802884
 31
0.0
  0
ARC
  5
19A
100
AcDbEntity
  8
0
100
AcDbCircle
 10
161.575249
 20
220.384803
 30
0.0
 40
0.419124
100
AcDbArc
 50
94.042259
 51
173.629316
  0
LINE
  5
19B
100
AcDbEntity
  8
0
100
AcDbLine
 10
161.671196
 20
200.329597
 30
0.0
 11
161.577171
 21
200.329597
 31
0.0
  0
ARC
  5
19C
100
AcDbEntity
  8
0
100
AcDbCircle
 10
161.671574
 20
200.798044
 30
0.0
 40
0.477864
100
AcDbArc
 50
192.8995
 51
258.606158
  0
LINE
  5
19D
100
AcDbEntity
  8
0
100
AcDbLine
 10
161.184941
 20
220.497414
 30
0.0
 11
161.184941
 21
200.713249
 31
0.0
  0
LINE
  5
19E
100
AcDbEntity
  8
0
100
AcDbLine
 10
161.184941
 20
78.100153
 30
0.0
 11
161.184941
 21
58.315988
 31
0.0
  0
LINE
  5
19F
100
AcDbEntity
  8
2
100
AcDbLine
 10
192.060611
 20
70.866437
 30
0.0
 11
192.060611
 21
65.866437
 31
0.0
  0
LINE
  5
1A0
100
AcDbEntity
  8
2
100
AcDbLine
 10
189.060611
 20
70.866437
 30
0.0
 11
189.060611
 21
65.866437
 31
0.0
  0
LINE
  5
1A1
100
AcDbEntity
  8
2
100
AcDbLine
 10
187.060611
 20
68.366437
 30
0.0
 11
189.060611
 21
65.866437
 31
0.0
  0
LINE
  5
1A2
100
AcDbEntity
  8
0
100
AcDbLine
 10
192.346861
 20
59.702967
 30
0.0
 11
192.346861
 21
76.702967
 31
0.0
  0
LINE
  5
1A3
100
AcDbEntity
  8
0
100
AcDbLine
 10
192.546861
 20
59.902967
 30
0.0
 11
192.546861
 21
76.502967
 31
0.0
  0
LINE
  5
1A4
100
AcDbEntity
  8
0
100
AcDbLine
 10
165.163377
 20
69.890072
 30
0.0
 11
165.163377
 21
66.515862
 31
0.0
  0
LINE
  5
1A5
100
AcDbEntity
  8
0
100
AcDbLine
 10
161.671975
 20
80.702967
 30
0.0
 11
161.671975
 21
55.702967
 31
0.0
  0
LINE
  5
1A6
100
AcDbEntity
  8
0
100
AcDbLine
 10
175.546861
 20
45.758135
 30
0.0
 11
175.546861
 21
90.647798
 31
0.0
  0
LINE
  5
1A7
100
AcDbEntity
  8
0
100
AcDbLine
 10
177.546861
 20
57.202967
 30
0.0
 11
177.546861
 21
79.202967
 31
0.0
  0
LWPOLYLINE
  5
1A8
100
AcDbEntity
  8
0
100
AcDbPolyline
 90
        5
 70
     0
 43
0.0
 10
170.92304
 20
64.552261
 42
-0.035086
 10
168.564777
 20
64.71795
 42
-0.047104
 10
166.850343
 20
65.127386
 42
-0.090264
 10
165.450394
 20
65.907899
 42
-0.224184
 10
165.163377
 20
66.515862
 42
-0.224184
  0
LWPOLYLINE
  5
1AF
100
AcDbEntity
  8
0
100
AcDbPolyline
 90
        5
 70
     0
 43
0.0
 10
170.92304
 20
44.959064
 42
-0.014352
 10
168.542029
 20
45.027422
 42
-0.020116
 10
166.850343
 20
45.193107
 42
-0.046368
 10
165.266932
 20
45.564728
 42
-0.065114
 10
165.229649
 20
45.582887
 42
-0.322424
  0
LWPOLYLINE
  5
1B6
100
AcDbEntity
  8
0
100
AcDbPolyline
 90
        5
 70
     0
 43
0.0
 10
165.163377
 20
47.44524
 42
-0.28666
 10
165.362788
 20
47.764477
 42
-0.063737
 10
166.850343
 20
48.268687
 42
-0.028994
 10
168.547249
 20
48.510459
 42
-0.020891
 10
170.92304
 20
48.60977
 42
-0.020891
  0
ARC
  5
1BD
100
AcDbEntity
  8
0
100
AcDbCircle
 10
170.923041
 20
51.202967
 30
0.0
 40
8.0
100
AcDbArc
 50
195.913961
 51
224.628725
  0
LWPOLYLINE
  5
1BE
100
AcDbEntity
  8
0
100
AcDbPolyline
 90
        5
 70
     0
 43
0.0
 10
165.163377
 20
50.255891
 42
-0.311716
 10
164.859078
 20
50.466018
 42
-0.051664
 10
164.337095
 20
52.437089
 42
-0.022689
 10
164.094724
 20
54.626076
 42
-0.016227
 10
163.994837
 20
57.702967
 42
-0.016227
  0
ARC
  5
1C5
100
AcDbEntity
  8
0
100
AcDbCircle
 10
230.546861
 20
68.202967
 30
0.0
 40
70.0
100
AcDbArc
 50
190.286561
 51
195.913961
  0
LWPOLYLINE
  5
1C6
100
AcDbEntity
  8
0
100
AcDbPolyline
 90
        2
 70
     0
 43
0.0
 10
165.182402
 20
45.631156
 42
-0.209568
 10
165.163377
 20
45.758135
 42
-0.322424
  0
LINE
  5
1CA
100
AcDbEntity
  8
0
100
AcDbLine
 10
165.163377
 20
47.44524
 30
0.0
 11
165.163377
 21
45.758135
 31
0.0
  0
LWPOLYLINE
  5
1CB
100
AcDbEntity
  8
0
100
AcDbPolyline
 90
        5
 70
     0
 43
0.0
 10
163.994837
 20
57.702967
 42
-0.020458
 10
164.094514
 20
60.138032
 42
-0.028415
 10
164.337095
 20
61.876565
 42
-0.062685
 10
164.862272
 20
63.457861
 42
-0.347853
 10
165.163377
 20
63.605326
 42
-0.28889
  0
ARC
  5
1D2
100
AcDbEntity
  8
0
100
AcDbCircle
 10
161.671574
 20
58.400783
 30
0.0
 40
0.477864
100
AcDbArc
 50
192.8995
 51
258.606158
  0
LINE
  5
1D3
100
AcDbEntity
  8
0
100
AcDbLine
 10
161.671196
 20
57.932336
 30
0.0
 11
161.577171
 21
57.932336
 31
0.0
  0
LWPOLYLINE
  5
1D4
100
AcDbEntity
  8
0
100
AcDbPolyline
 90
        5
 70
     0
 43
0.0
 10
175.546861
 20
45.758135
 42
-0.203604
 10
175.437671
 20
45.501107
 42
-0.097118
 10
174.961075
 20
45.193107
 42
-0.054077
 10
174.362394
 20
45.026091
 42
-0.041025
 10
173.546861
 20
44.959064
 42
-0.041025
  0
LINE
  5
1DB
100
AcDbEntity
  8
0
100
AcDbLine
 10
170.92304
 20
44.959064
 30
0.0
 11
173.546861
 21
44.959064
 31
0.0
  0
LINE
  5
1DC
100
AcDbEntity
  8
0
100
AcDbLine
 10
177.546861
 20
59.702967
 30
0.0
 11
192.346861
 21
59.702967
 31
0.0
  0
LWPOLYLINE
  5
1DD
100
AcDbEntity
  8
0
100
AcDbPolyline
 90
        5
 70
     0
 43
0.0
 10
173.546861
 20
48.60977
 42
-0.059235
 10
174.349531
 20
48.514344
 42
-0.072782
 10
174.961075
 20
48.268687
 42
-0.106701
 10
175.445001
 20
47.826931
 42
-0.180697
 10
175.546861
 20
47.44524
 42
-0.155824
  0
LINE
  5
1E4
100
AcDbEntity
  8
0
100
AcDbLine
 10
170.92304
 20
48.60977
 30
0.0
 11
173.546861
 21
48.60977
 31
0.0
  0
LWPOLYLINE
  5
1E5
100
AcDbEntity
  8
0
100
AcDbPolyline
 90
        5
 70
     0
 43
0.0
 10
175.546861
 20
66.515862
 42
-0.100142
 10
175.395187
 20
65.766155
 42
-0.09916
 10
174.961075
 20
65.127386
 42
-0.097802
 10
174.257052
 20
64.664892
 42
-0.114985
 10
173.546861
 20
64.552261
 42
-0.096863
  0
LINE
  5
1EC
100
AcDbEntity
  8
0
100
AcDbLine
 10
170.92304
 20
64.552261
 30
0.0
 11
173.546861
 21
64.552261
 31
0.0
  0
LINE
  5
1ED
100
AcDbEntity
  8
0
100
AcDbLine
 10
175.546861
 20
57.202967
 30
0.0
 11
177.546861
 21
57.202967
 31
0.0
  0
LINE
  5
1EE
100
AcDbEntity
  8
2
100
AcDbLine
 10
189.060611
 20
65.866437
 30
0.0
 11
192.060611
 21
65.866437
 31
0.0
  0
LINE
  5
1EF
100
AcDbEntity
  8
0
100
AcDbLine
 10
192.346861
 20
59.702967
 30
0.0
 11
192.546861
 21
59.902967
 31
0.0
  0
LINE
  5
1F0
100
AcDbEntity
  8
2
100
AcDbLine
 10
192.060611
 20
65.866437
 30
0.0
 11
192.550051
 21
65.376997
 31
0.0
  0
LWPOLYLINE
  5
1F1
100
AcDbEntity
  8
0
100
AcDbPolyline
 90
        5
 70
     0
 43
0.0
 10
165.163377
 20
88.960693
 42
0.28666
 10
165.362788
 20
88.641457
 42
0.063737
 10
166.850343
 20
88.137246
 42
0.028994
 10
168.547249
 20
87.895474
 42
0.020891
 10
170.92304
 20
87.796163
 42
0.020891
  0
LWPOLYLINE
  5
1F8
100
AcDbEntity
  8
0
100
AcDbPolyline
 90
        5
 70
     0
 43
0.0
 10
170.92304
 20
91.446869
 42
0.014352
 10
168.542029
 20
91.378512
 42
0.020116
 10
166.850343
 20
91.212827
 42
0.046368
 10
165.266932
 20
90.841205
 42
0.065114
 10
165.229649
 20
90.823046
 42
0.322424
  0
LWPOLYLINE
  5
1FF
100
AcDbEntity
  8
0
100
AcDbPolyline
 90
        5
 70
     0
 43
0.0
 10
170.92304
 20
71.853673
 42
0.035086
 10
168.564777
 20
71.687984
 42
0.047104
 10
166.850343
 20
71.278547
 42
0.090264
 10
165.450394
 20
70.498035
 42
0.224184
 10
165.163377
 20
69.890072
 42
0.224184
  0
LINE
  5
206
100
AcDbEntity
  8
1
100
AcDbLine
 10
155.546861
 20
68.202967
 30
0.0
 11
197.546861
 21
68.202967
 31
0.0
  0
ARC
  5
207
100
AcDbEntity
  8
0
100
AcDbCircle
 10
170.923041
 20
85.202967
 30
0.0
 40
8.0
100
AcDbArc
 50
135.371275
 51
164.086039
  0
LWPOLYLINE
  5
208
100
AcDbEntity
  8
0
100
AcDbPolyline
 90
        5
 70
     0
 43
0.0
 10
163.994837
 20
78.702967
 42
0.020458
 10
164.094514
 20
76.267901
 42
0.028415
 10
164.337095
 20
74.529368
 42
0.062685
 10
164.862272
 20
72.948072
 42
0.347853
 10
165.163377
 20
72.800607
 42
0.28889
  0
LWPOLYLINE
  5
20F
100
AcDbEntity
  8
0
100
AcDbPolyline
 90
        5
 70
     0
 43
0.0
 10
165.163377
 20
86.150042
 42
0.311716
 10
164.859078
 20
85.939915
 42
0.051664
 10
164.337095
 20
83.968844
 42
0.022689
 10
164.094724
 20
81.779857
 42
0.016227
 10
163.994837
 20
78.702967
 42
0.016227
  0
ARC
  5
216
100
AcDbEntity
  8
0
100
AcDbCircle
 10
230.546861
 20
68.202967
 30
0.0
 40
70.0
100
AcDbArc
 50
164.086039
 51
169.713439
  0
ARC
  5
217
100
AcDbEntity
  8
0
100
AcDbCircle
 10
161.575249
 20
77.987542
 30
0.0
 40
0.419124
100
AcDbArc
 50
94.042259
 51
173.629316
  0
LINE
  5
218
100
AcDbEntity
  8
0
100
AcDbLine
 10
161.674701
 20
78.405623
 30
0.0
 11
161.545704
 21
78.405623
 31
0.0
  0
LWPOLYLINE
  5
219
100
AcDbEntity
  8
0
100
AcDbPolyline
 90
        2
 70
     0
 43
0.0
 10
165.182402
 20
90.774777
 42
0.209568
 10
165.163377
 20
90.647798
 42
0.322424
  0
LINE
  5
21D
100
AcDbEntity
  8
0
100
AcDbLine
 10
165.163377
 20
88.960693
 30
0.0
 11
165.163377
 21
90.647798
 31
0.0
  0
LINE
  5
21E
100
AcDbEntity
  8
0
100
AcDbLine
 10
177.546861
 20
76.702967
 30
0.0
 11
192.346861
 21
76.702967
 31
0.0
  0
LWPOLYLINE
  5
21F
100
AcDbEntity
  8
0
100
AcDbPolyline
 90
        5
 70
     0
 43
0.0
 10
175.546861
 20
69.890072
 42
0.100142
 10
175.395187
 20
70.639779
 42
0.09916
 10
174.961075
 20
71.278547
 42
0.097802
 10
174.257052
 20
71.741041
 42
0.114985
 10
173.546861
 20
71.853673
 42
0.096863
  0
LINE
  5
226
100
AcDbEntity
  8
0
100
AcDbLine
 10
170.92304
 20
71.853673
 30
0.0
 11
173.546861
 21
71.853673
 31
0.0
  0
LINE
  5
227
100
AcDbEntity
  8
0
100
AcDbLine
 10
175.546861
 20
79.202967
 30
0.0
 11
177.546861
 21
79.202967
 31
0.0
  0
LINE
  5
228
100
AcDbEntity
  8
2
100
AcDbLine
 10
192.060611
 20
70.866437
 30
0.0
 11
189.060611
 21
70.866437
 31
0.0
  0
LINE
  5
229
100
AcDbEntity
  8
2
100
AcDbLine
 10
189.060611
 20
70.866437
 30
0.0
 11
187.060611
 21
68.366437
 31
0.0
  0
LINE
  5
22A
100
AcDbEntity
  8
2
100
AcDbLine
 10
192.546961
 20
71.352787
 30
0.0
 11
192.060611
 21
70.866437
 31
0.0
  0
LINE
  5
22B
100
AcDbEntity
  8
0
100
AcDbLine
 10
192.546861
 20
76.502967
 30
0.0
 11
192.346861
 21
76.702967
 31
0.0
  0
LWPOLYLINE
  5
22C
100
AcDbEntity
  8
0
100
AcDbPolyline
 90
        5
 70
     0
 43
0.0
 10
175.546861
 20
90.647798
 42
0.203604
 10
175.437671
 20
90.904827
 42
0.097118
 10
174.961075
 20
91.212827
 42
0.054077
 10
174.362394
 20
91.379842
 42
0.041025
 10
173.546861
 20
91.446869
 42
0.041025
  0
LWPOLYLINE
  5
233
100
AcDbEntity
  8
0
100
AcDbPolyline
 90
        5
 70
     0
 43
0.0
 10
173.546861
 20
87.796163
 42
0.059235
 10
174.349531
 20
87.89159
 42
0.072782
 10
174.961075
 20
88.137246
 42
0.106701
 10
175.445001
 20
88.579002
 42
0.180697
 10
175.546861
 20
88.960693
 42
0.155824
  0
LINE
  5
23A
100
AcDbEntity
  8
0
100
AcDbLine
 10
170.92304
 20
87.796163
 30
0.0
 11
173.546861
 21
87.796163
 31
0.0
  0
LINE
  5
23B
100
AcDbEntity
  8
0
100
AcDbLine
 10
170.92304
 20
91.446869
 30
0.0
 11
173.546861
 21
91.446869
 31
0.0
  0
ENDSEC
  0
SECTION
  2
OBJECTS
  0
DICTIONARY
  5
25B
100
AcDbDictionary
  3
ACAD_GROUP
350
25C
  3
ACAD_MLINESTYLE
350
269
  3
ACDBVARIABLEDICTIONARY
350
27E
  0
DICTIONARY
  5
25C
102
{ACAD_REACTORS
330
25B
102
}
100
AcDbDictionary
  0
DICTIONARY
  5
269
102
{ACAD_REACTORS
330
25B
102
}
100
AcDbDictionary
  3
STANDARD
350
26A
  0
DICTIONARY
  5
27E
102
{ACAD_REACTORS
330
25B
102
}
100
AcDbDictionary
  3
DIMADEC
350
27F
  0
MLINESTYLE
  5
26A
102
{ACAD_REACTORS
330
269
102
}
100
AcDbMlineStyle
  2
STANDARD
 70
     0
  3

 62
   256
 51
90.0
 52
90.0
 71
     2
 49
0.5
 62
   256
  6
BYLAYER
 49
-0.5
 62
   256
  6
BYLAYER
  0
DICTIONARYVAR
  5
27F
102
{ACAD_REACTORS
330
27E
102
}
100
DictionaryVariables
280
     0
  1
0
  0
ENDSEC
  0
EOF
