  0
SECTION
  2
HEADER
  9
$ACADVER
  1
AC1014
  9
$ACADMAINTVER
 70
     0
  9
$DWGCODEPAGE
  3
ANSI_932
  9
$INSBASE
 10
0.0
 20
0.0
 30
0.0
  9
$EXTMIN
 10
0.0
 20
0.0
 30
0.0
  9
$EXTMAX
 10
375.0
 20
270.0
 30
0.0
  9
$LIMMIN
 10
0.0
 20
0.0
  9
$LIMMAX
 10
375.0
 20
270.0
  9
$ORTHOMODE
 70
     0
  9
$REGENMODE
 70
     1
  9
$FILLMODE
 70
     1
  9
$QTEXTMODE
 70
     0
  9
$MIRRTEXT
 70
     1
  9
$DRAGMODE
 70
     1
  9
$LTSCALE
 40
10.0
  9
$OSMODE
 70
     0
  9
$ATTMODE
 70
     1
  9
$TEXTSIZE
 40
6.0
  9
$TRACEWID
 40
0.05
  9
$TEXTSTYLE
  7
BIGFONT
  9
$CLAYER
  8
0
  9
$CELTYPE
  6
BYLAYER
  9
$CECOLOR
 62
   256
  9
$CELTSCALE
 40
1.0
  9
$DELOBJ
 70
     1
  9
$DISPSILH
 70
     0
  9
$DIMSCALE
 40
1.0
  9
$DIMASZ
 40
3.0
  9
$DIMEXO
 40
2.0
  9
$DIMDLI
 40
0.38
  9
$DIMRND
 40
0.0
  9
$DIMDLE
 40
0.0
  9
$DIMEXE
 40
2.0
  9
$DIMTP
 40
0.0
  9
$DIMTM
 40
0.0
  9
$DIMTXT
 40
3.2
  9
$DIMCEN
 40
0.0
  9
$DIMTSZ
 40
0.0
  9
$DIMTOL
 70
     0
  9
$DIMLIM
 70
     0
  9
$DIMTIH
 70
     0
  9
$DIMTOH
 70
     0
  9
$DIMSE1
 70
     0
  9
$DIMSE2
 70
     0
  9
$DIMTAD
 70
     1
  9
$DIMZIN
 70
     0
  9
$DIMBLK
  1

  9
$DIMASO
 70
     0
  9
$DIMSHO
 70
     0
  9
$DIMPOST
  1

  9
$DIMAPOST
  1

  9
$DIMALT
 70
     0
  9
$DIMALTD
 70
     2
  9
$DIMALTF
 40
25.4
  9
$DIMLFAC
 40
1.0
  9
$DIMTOFL
 70
     0
  9
$DIMTVP
 40
1.6
  9
$DIMTIX
 70
     1
  9
$DIMSOXD
 70
     0
  9
$DIMSAH
 70
     0
  9
$DIMBLK1
  1

  9
$DIMBLK2
  1

  9
$DIMSTYLE
  2
STANDARD
  9
$DIMCLRD
 70
     0
  9
$DIMCLRE
 70
     0
  9
$DIMCLRT
 70
     0
  9
$DIMTFAC
 40
1.0
  9
$DIMGAP
 40
0.09
  9
$DIMJUST
 70
     0
  9
$DIMSD1
 70
     0
  9
$DIMSD2
 70
     0
  9
$DIMTOLJ
 70
     1
  9
$DIMTZIN
 70
     0
  9
$DIMALTZ
 70
     0
  9
$DIMALTTZ
 70
     0
  9
$DIMFIT
 70
     5
  9
$DIMUPT
 70
     0
  9
$DIMUNIT
 70
     2
  9
$DIMDEC
 70
     1
  9
$DIMTDEC
 70
     1
  9
$DIMALTU
 70
     2
  9
$DIMALTTD
 70
     2
  9
$DIMTXSTY
  7
BIGFONT
  9
$DIMAUNIT
 70
     0
  9
$LUNITS
 70
     2
  9
$LUPREC
 70
     1
  9
$SKETCHINC
 40
0.1
  9
$FILLETRAD
 40
0.0
  9
$AUNITS
 70
     0
  9
$AUPREC
 70
     0
  9
$MENU
  1
ACAD
  9
$ELEVATION
 40
0.0
  9
$PELEVATION
 40
0.0
  9
$THICKNESS
 40
0.0
  9
$LIMCHECK
 70
     0
  9
$BLIPMODE
 70
     0
  9
$CHAMFERA
 40
0.0
  9
$CHAMFERB
 40
0.0
  9
$CHAMFERC
 40
0.0
  9
$CHAMFERD
 40
0.0
  9
$SKPOLY
 70
     0
  9
$TDCREATE
 40
2450683.624930555
  9
$TDUPDATE
 40
2450683.624930555
  9
$TDINDWG
 40
0.0000000000
  9
$TDUSRTIMER
 40
0.0000000000
  9
$USRTIMER
 70
     1
  9
$ANGBASE
 50
0.0
  9
$ANGDIR
 70
     0
  9
$PDMODE
 70
     0
  9
$PDSIZE
 40
0.0
  9
$PLINEWID
 40
0.0
  9
$COORDS
 70
     2
  9
$SPLFRAME
 70
     0
  9
$SPLINETYPE
 70
     6
  9
$SPLINESEGS
 70
     8
  9
$ATTDIA
 70
     0
  9
$ATTREQ
 70
     1
  9
$HANDLING
 70
     1
  9
$HANDSEED
  5
28D
  9
$SURFTAB1
 70
     6
  9
$SURFTAB2
 70
     6
  9
$SURFTYPE
 70
     6
  9
$SURFU
 70
     6
  9
$SURFV
 70
     6
  9
$UCSNAME
  2

  9
$UCSORG
 10
0.0
 20
0.0
 30
0.0
  9
$UCSXDIR
 10
1.0
 20
0.0
 30
0.0
  9
$UCSYDIR
 10
0.0
 20
1.0
 30
0.0
  9
$PUCSNAME
  2

  9
$PUCSORG
 10
0.0
 20
0.0
 30
0.0
  9
$PUCSXDIR
 10
1.0
 20
0.0
 30
0.0
  9
$PUCSYDIR
 10
0.0
 20
1.0
 30
0.0
  9
$USERI1
 70
     0
  9
$USERI2
 70
     0
  9
$USERI3
 70
     0
  9
$USERI4
 70
     0
  9
$USERI5
 70
     0
  9
$USERR1
 40
0.0
  9
$USERR2
 40
0.0
  9
$USERR3
 40
0.0
  9
$USERR4
 40
0.0
  9
$USERR5
 40
0.0
  9
$WORLDVIEW
 70
     1
  9
$SHADEDGE
 70
     3
  9
$SHADEDIF
 70
    70
  9
$TILEMODE
 70
     1
  9
$MAXACTVP
 70
    16
  9
$PINSBASE
 10
0.0
 20
0.0
 30
0.0
  9
$PLIMCHECK
 70
     0
  9
$PEXTMIN
 10
1.000000E+20
 20
1.000000E+20
 30
1.000000E+20
  9
$PEXTMAX
 10
-1.000000E+20
 20
-1.000000E+20
 30
-1.000000E+20
  9
$PLIMMIN
 10
0.0
 20
0.0
  9
$PLIMMAX
 10
12.0
 20
9.0
  9
$UNITMODE
 70
     0
  9
$VISRETAIN
 70
     0
  9
$PLINEGEN
 70
   479
  9
$PSLTSCALE
 70
     0
  9
$TREEDEPTH
 70
  3020
  9
$PICKSTYLE
 70
     1
  9
$CMLSTYLE
  2
STANDARD
  9
$CMLJUST
 70
     0
  9
$CMLSCALE
 40
1.0
  9
$PROXYGRAPHICS
 70
     1
  9
$MEASUREMENT
 70
     0
  0
ENDSEC
  0
SECTION
  2
CLASSES
  0
CLASS
  1
DICTIONARYVAR
  2
AcDbDictionaryVar
  3
"AutoCAD"
 90
        0
280
     0
281
     0
  0
CLASS
  1
LWPOLYLINE
  2
AcDbPolyline
  3
"AutoCAD"
 90
        0
280
     0
281
     1
  0
ENDSEC
  0
SECTION
  2
TABLES
  0
TABLE
  2
VPORT
  5
261
100
AcDbSymbolTable
 70
     3
  0
VPORT
  5
28C
100
AcDbSymbolTableRecord
100
AcDbViewportTableRecord
  2
*ACTIVE
 70
     0
 10
0.0
 20
0.0
 11
1.0
 21
1.0
 12
229.111675
 22
159.665908
 13
0.0
 23
0.0
 14
0.2
 24
0.2
 15
1.0
 25
1.0
 16
0.0
 26
0.0
 36
1.0
 17
0.0
 27
0.0
 37
0.0
 40
638.663633
 41
1.434944
 42
50.0
 43
0.0
 44
0.0
 50
0.0
 51
0.0
 71
     0
 72
   500
 73
     1
 74
     1
 75
     0
 76
     0
 77
     0
 78
     0
  0
ENDTAB
  0
TABLE
  2
LTYPE
  5
25E
100
AcDbSymbolTable
 70
     3
  0
LTYPE
  5
26A
100
AcDbSymbolTableRecord
100
AcDbLinetypeTableRecord
  2
BYBLOCK
 70
     0
  3

 72
    65
 73
     0
 40
0.0
  0
LTYPE
  5
26B
100
AcDbSymbolTableRecord
100
AcDbLinetypeTableRecord
  2
BYLAYER
 70
     0
  3

 72
    65
 73
     0
 40
0.0
  0
LTYPE
  5
26C
100
AcDbSymbolTableRecord
100
AcDbLinetypeTableRecord
  2
CONTINUOUS
 70
     0
  3
実線
 72
    65
 73
     0
 40
0.0
  0
LTYPE
  5
279
100
AcDbSymbolTableRecord
100
AcDbLinetypeTableRecord
  2
CENTER
 70
     0
  3
____ _ ____ _ ____ _ ____ _ ____ _ ____ _ ____
 72
    65
 73
     4
 40
2.0
 49
1.25
 74
     0
 49
-0.25
 74
     0
 49
0.25
 74
     0
 49
-0.25
 74
     0
  0
LTYPE
  5
27A
100
AcDbSymbolTableRecord
100
AcDbLinetypeTableRecord
  2
HIDDEN
 70
     0
  3
_ _ _ _ _ _ _ _ _ _ _ _ _ _ _ _ _ _ _ _ _ _ _
 72
    65
 73
     2
 40
0.375
 49
0.25
 74
     0
 49
-0.125
 74
     0
  0
ENDTAB
  0
TABLE
  2
LAYER
  5
25B
100
AcDbSymbolTable
 70
     5
  0
LAYER
  5
267
100
AcDbSymbolTableRecord
100
AcDbLayerTableRecord
  2
0
 70
     0
 62
     7
  6
CONTINUOUS
  0
LAYER
  5
27F
100
AcDbSymbolTableRecord
100
AcDbLayerTableRecord
  2
1
 70
     0
 62
     1
  6
CENTER
  0
LAYER
  5
280
100
AcDbSymbolTableRecord
100
AcDbLayerTableRecord
  2
10
 70
     0
 62
     7
  6
CONTINUOUS
  0
LAYER
  5
281
100
AcDbSymbolTableRecord
100
AcDbLayerTableRecord
  2
11
 70
     0
 62
     3
  6
CONTINUOUS
  0
LAYER
  5
282
100
AcDbSymbolTableRecord
100
AcDbLayerTableRecord
  2
2
 70
     0
 62
     2
  6
HIDDEN
  0
ENDTAB
  0
TABLE
  2
STYLE
  5
25C
100
AcDbSymbolTable
 70
     4
  0
STYLE
  5
268
100
AcDbSymbolTableRecord
100
AcDbTextStyleTableRecord
  2
STANDARD
 70
     0
 40
0.0
 41
1.0
 50
0.0
 71
     0
 42
0.2
  3
TXT
  4
BIGFONT
  0
STYLE
  5
276
100
AcDbSymbolTableRecord
100
AcDbTextStyleTableRecord
  2
K70
 70
     0
 40
0.0
 41
0.7
 50
0.0
 71
     0
 42
0.2
  3
TXT
  4
BIGFONT
  0
STYLE
  5
277
100
AcDbSymbolTableRecord
100
AcDbTextStyleTableRecord
  2
07500
 70
     0
 40
0.0
 41
0.75
 50
0.0
 71
     0
 42
6.0
  3
TXT
  4
BIGFONT
  0
STYLE
  5
278
100
AcDbSymbolTableRecord
100
AcDbTextStyleTableRecord
  2
BIGFONT
 70
     0
 40
6.0
 41
0.9
 50
0.0
 71
     0
 42
6.0
  3

  4
bigfont
  0
ENDTAB
  0
TABLE
  2
VIEW
  5
25F
100
AcDbSymbolTable
 70
     1
  0
VIEW
  5
27B
100
AcDbSymbolTableRecord
100
AcDbViewTableRecord
  2
ALL
 70
     0
 40
270.0
 10
220.991597
 20
135.0
 41
0.0
 11
0.0
 21
0.0
 31
1.0
 12
0.0
 22
0.0
 32
0.0
 42
0.0
 43
0.0
 44
0.0
 50
0.0
 71
     0
  0
ENDTAB
  0
TABLE
  2
UCS
  5
260
100
AcDbSymbolTable
 70
     0
  0
ENDTAB
  0
TABLE
  2
APPID
  5
262
100
AcDbSymbolTable
 70
     1
  0
APPID
  5
269
100
AcDbSymbolTableRecord
100
AcDbRegAppTableRecord
  2
ACAD
 70
     0
  0
ENDTAB
  0
TABLE
  2
DIMSTYLE
  5
263
100
AcDbSymbolTable
 70
     1
  0
DIMSTYLE
105
27E
100
AcDbSymbolTableRecord
100
AcDbDimStyleTableRecord
  2
STANDARD
 70
     0
  3

  4

  5

  6

  7

 40
1.0
 41
0.18
 42
0.0625
 43
0.38
 44
0.18
 45
0.0
 46
0.0
 47
0.0
 48
0.0
140
0.18
141
0.09
142
0.0
143
25.4
144
1.0
145
0.0
146
1.0
147
0.09
 71
     0
 72
     0
 73
     1
 74
     1
 75
     0
 76
     0
 77
     0
 78
     0
170
     0
171
     2
172
     0
173
     0
174
     0
175
     0
176
     0
177
     0
178
     0
270
     2
271
     1
272
     1
273
     2
274
     2
340
278
275
     0
280
     0
281
     0
282
     0
283
     1
284
     0
285
     0
286
     0
287
     5
288
     0
  0
ENDTAB
  0
TABLE
  2
BLOCK_RECORD
  5
25A
100
AcDbSymbolTable
 70
     1
  0
BLOCK_RECORD
  5
270
100
AcDbSymbolTableRecord
100
AcDbBlockTableRecord
  2
*MODEL_SPACE
  0
BLOCK_RECORD
  5
26D
100
AcDbSymbolTableRecord
100
AcDbBlockTableRecord
  2
*PAPER_SPACE
  0
BLOCK_RECORD
  5
275
100
AcDbSymbolTableRecord
100
AcDbBlockTableRecord
  2
QQ
  0
ENDTAB
  0
ENDSEC
  0
SECTION
  2
BLOCKS
  0
BLOCK
  5
285
100
AcDbEntity
  8
0
100
AcDbBlockBegin
  2
*MODEL_SPACE
 70
     0
 10
0.0
 20
0.0
 30
0.0
  3
*MODEL_SPACE
  1

  0
ENDBLK
  5
286
100
AcDbEntity
  8
0
100
AcDbBlockEnd
  0
BLOCK
  5
283
100
AcDbEntity
 67
     1
  8
0
100
AcDbBlockBegin
  2
*PAPER_SPACE
 70
     0
 10
0.0
 20
0.0
 30
0.0
  3
*PAPER_SPACE
  1

  0
ENDBLK
  5
284
100
AcDbEntity
 67
     1
  8
0
100
AcDbBlockEnd
  0
BLOCK
  5
2D
100
AcDbEntity
  8
0
100
AcDbBlockBegin
  2
QQ
 70
     0
 10
270.0
 20
0.0
 30
0.0
  3
QQ
  1

  0
LINE
  5
2E
100
AcDbEntity
  8
11
100
AcDbLine
 10
173.0
 20
36.0
 30
0.0
 11
270.0
 21
36.0
 31
0.0
  0
TEXT
  5
2F
100
AcDbEntity
  8
11
100
AcDbText
 10
175.0
 20
32.5
 30
0.0
 40
2.5
  1
部品名称
100
AcDbText
  0
LINE
  5
30
100
AcDbEntity
  8
11
100
AcDbLine
 10
173.0
 20
36.0
 30
0.0
 11
173.0
 21
0.0
 31
0.0
  0
LINE
  5
31
100
AcDbEntity
  8
11
100
AcDbLine
 10
173.0
 20
24.0
 30
0.0
 11
270.0
 21
24.0
 31
0.0
  0
TEXT
  5
32
100
AcDbEntity
  8
11
100
AcDbText
 10
175.0
 20
20.5
 30
0.0
 40
2.5
  1
品番
100
AcDbText
  0
LINE
  5
33
100
AcDbEntity
  8
11
100
AcDbLine
 10
173.0
 20
12.0
 30
0.0
 11
270.0
 21
12.0
 31
0.0
  0
TEXT
  5
34
100
AcDbEntity
  8
11
100
AcDbText
 10
175.0
 20
8.5
 30
0.0
 40
2.5
  1
尺度
100
AcDbText
  0
TEXT
  5
35
100
AcDbEntity
  8
11
100
AcDbText
 10
200.0
 20
8.5
 30
0.0
 40
2.5
  1
図番
100
AcDbText
  0
LINE
  5
36
100
AcDbEntity
  8
11
100
AcDbLine
 10
198.0
 20
0.0
 30
0.0
 11
198.0
 21
12.0
 31
0.0
  0
ENDBLK
  5
37
100
AcDbEntity
  8
0
100
AcDbBlockEnd
  0
ENDSEC
  0
SECTION
  2
ENTITIES
  0
ARC
  5
38
100
AcDbEntity
  8
0
100
AcDbCircle
 10
180.18338
 20
148.0
 30
0.0
 40
7.0
100
AcDbArc
 50
90.0
 51
165.80144
  0
ARC
  5
39
100
AcDbEntity
  8
0
100
AcDbCircle
 10
231.56431
 20
135.0
 30
0.0
 40
60.0
100
AcDbArc
 50
165.80144
 51
170.405932
  0
ARC
  5
3A
100
AcDbEntity
  8
0
100
AcDbCircle
 10
180.18338
 20
122.0
 30
0.0
 40
7.0
100
AcDbArc
 50
194.19856
 51
270.0
  0
ARC
  5
3B
100
AcDbEntity
  8
0
100
AcDbCircle
 10
181.56431
 20
117.0
 30
0.0
 40
2.0
100
AcDbArc
 50
270.0
 51
0.0
  0
ARC
  5
3C
100
AcDbEntity
  8
0
100
AcDbCircle
 10
181.56431
 20
153.0
 30
0.0
 40
2.0
100
AcDbArc
 50
0.0
 51
90.0
  0
LINE
  5
3D
100
AcDbEntity
  8
0
100
AcDbLine
 10
183.56431
 20
126.0
 30
0.0
 11
185.56431
 21
126.0
 31
0.0
  0
LINE
  5
3E
100
AcDbEntity
  8
0
100
AcDbLine
 10
183.56431
 20
153.0
 30
0.0
 11
183.56431
 21
117.0
 31
0.0
  0
LINE
  5
3F
100
AcDbEntity
  8
0
100
AcDbLine
 10
185.56431
 20
144.0
 30
0.0
 11
185.56431
 21
126.0
 31
0.0
  0
LINE
  5
40
100
AcDbEntity
  8
0
100
AcDbLine
 10
180.18338
 20
155.0
 30
0.0
 11
181.56431
 21
155.0
 31
0.0
  0
LINE
  5
41
100
AcDbEntity
  8
0
100
AcDbLine
 10
180.18338
 20
115.0
 30
0.0
 11
181.56431
 21
115.0
 31
0.0
  0
ARC
  5
42
100
AcDbEntity
  8
0
100
AcDbCircle
 10
93.0
 20
135.0
 30
0.0
 40
20.0
100
AcDbArc
 50
265.733087
 51
274.266913
  0
ARC
  5
43
100
AcDbEntity
  8
0
100
AcDbCircle
 10
109.5
 20
106.421162
 30
0.0
 40
16.0
100
AcDbArc
 50
98.445718
 51
141.554282
  0
ARC
  5
44
100
AcDbEntity
  8
0
100
AcDbCircle
 10
91.772353
 20
118.545734
 30
0.0
 40
3.5
100
AcDbArc
 50
218.445718
 51
265.733087
  0
ARC
  5
45
100
AcDbEntity
  8
0
100
AcDbCircle
 10
94.227647
 20
118.545734
 30
0.0
 40
3.5
100
AcDbArc
 50
274.266913
 51
321.554282
  0
ARC
  5
46
100
AcDbEntity
  8
0
100
AcDbCircle
 10
93.0
 20
135.0
 30
0.0
 40
20.0
100
AcDbArc
 50
205.733087
 51
214.266913
  0
ARC
  5
47
100
AcDbEntity
  8
0
100
AcDbCircle
 10
76.5
 20
106.421162
 30
0.0
 40
16.0
100
AcDbArc
 50
38.445718
 51
81.554282
  0
ARC
  5
48
100
AcDbEntity
  8
0
100
AcDbCircle
 10
78.136364
 20
127.836041
 30
0.0
 40
3.5
100
AcDbArc
 50
158.445718
 51
205.733087
  0
ARC
  5
49
100
AcDbEntity
  8
0
100
AcDbCircle
 10
79.364011
 20
125.709693
 30
0.0
 40
3.5
100
AcDbArc
 50
214.266913
 51
261.554282
  0
ARC
  5
4A
100
AcDbEntity
  8
0
100
AcDbCircle
 10
93.0
 20
135.0
 30
0.0
 40
20.0
100
AcDbArc
 50
145.733087
 51
154.266913
  0
ARC
  5
4B
100
AcDbEntity
  8
0
100
AcDbCircle
 10
60.0
 20
135.0
 30
0.0
 40
16.0
100
AcDbArc
 50
338.445718
 51
21.554282
  0
ARC
  5
4C
100
AcDbEntity
  8
0
100
AcDbCircle
 10
79.364011
 20
144.290307
 30
0.0
 40
3.5
100
AcDbArc
 50
98.445718
 51
145.733087
  0
ARC
  5
4D
100
AcDbEntity
  8
0
100
AcDbCircle
 10
78.136364
 20
142.163959
 30
0.0
 40
3.5
100
AcDbArc
 50
154.266913
 51
201.554282
  0
ARC
  5
4E
100
AcDbEntity
  8
0
100
AcDbCircle
 10
93.0
 20
135.0
 30
0.0
 40
20.0
100
AcDbArc
 50
85.733087
 51
94.266913
  0
ARC
  5
4F
100
AcDbEntity
  8
0
100
AcDbCircle
 10
76.5
 20
163.578838
 30
0.0
 40
16.0
100
AcDbArc
 50
278.445718
 51
321.554282
  0
ARC
  5
50
100
AcDbEntity
  8
0
100
AcDbCircle
 10
94.227647
 20
151.454266
 30
0.0
 40
3.5
100
AcDbArc
 50
38.445718
 51
85.733087
  0
ARC
  5
51
100
AcDbEntity
  8
0
100
AcDbCircle
 10
91.772353
 20
151.454266
 30
0.0
 40
3.5
100
AcDbArc
 50
94.266913
 51
141.554282
  0
ARC
  5
52
100
AcDbEntity
  8
0
100
AcDbCircle
 10
93.0
 20
135.0
 30
0.0
 40
20.0
100
AcDbArc
 50
25.733087
 51
34.266913
  0
ARC
  5
53
100
AcDbEntity
  8
0
100
AcDbCircle
 10
109.5
 20
163.578838
 30
0.0
 40
16.0
100
AcDbArc
 50
218.445718
 51
261.554282
  0
ARC
  5
54
100
AcDbEntity
  8
0
100
AcDbCircle
 10
107.863636
 20
142.163959
 30
0.0
 40
3.5
100
AcDbArc
 50
338.445718
 51
25.733087
  0
ARC
  5
55
100
AcDbEntity
  8
0
100
AcDbCircle
 10
106.635989
 20
144.290307
 30
0.0
 40
3.5
100
AcDbArc
 50
34.266913
 51
81.554282
  0
ARC
  5
56
100
AcDbEntity
  8
0
100
AcDbCircle
 10
107.863636
 20
127.836041
 30
0.0
 40
3.5
100
AcDbArc
 50
334.266913
 51
21.554282
  0
ARC
  5
57
100
AcDbEntity
  8
0
100
AcDbCircle
 10
106.635989
 20
125.709693
 30
0.0
 40
3.5
100
AcDbArc
 50
278.445718
 51
325.733087
  0
ARC
  5
58
100
AcDbEntity
  8
0
100
AcDbCircle
 10
126.0
 20
135.0
 30
0.0
 40
16.0
100
AcDbArc
 50
158.445718
 51
201.554282
  0
ARC
  5
59
100
AcDbEntity
  8
0
100
AcDbCircle
 10
93.0
 20
135.0
 30
0.0
 40
20.0
100
AcDbArc
 50
325.733087
 51
334.266913
  0
LINE
  5
5A
100
AcDbEntity
  8
1
100
AcDbLine
 10
93.0
 20
160.0
 30
0.0
 11
93.0
 21
110.0
 31
0.0
  0
LINE
  5
5B
100
AcDbEntity
  8
1
100
AcDbLine
 10
166.56431
 20
135.0
 30
0.0
 11
201.56431
 21
135.0
 31
0.0
  0
LINE
  5
5C
100
AcDbEntity
  8
0
100
AcDbLine
 10
185.56431
 20
142.0
 30
0.0
 11
196.36431
 21
142.0
 31
0.0
  0
LINE
  5
5D
100
AcDbEntity
  8
0
100
AcDbLine
 10
185.56431
 20
128.0
 30
0.0
 11
196.36431
 21
128.0
 31
0.0
  0
LINE
  5
5E
100
AcDbEntity
  8
0
100
AcDbLine
 10
196.56431
 20
141.8
 30
0.0
 11
196.56431
 21
128.2
 31
0.0
  0
LINE
  5
5F
100
AcDbEntity
  8
0
100
AcDbLine
 10
196.36431
 20
142.0
 30
0.0
 11
196.56431
 21
141.8
 31
0.0
  0
LINE
  5
60
100
AcDbEntity
  8
0
100
AcDbLine
 10
196.56431
 20
128.2
 30
0.0
 11
196.36431
 21
128.0
 31
0.0
  0
LINE
  5
95
100
AcDbEntity
  8
0
100
AcDbLine
 10
185.56431
 20
144.0
 30
0.0
 11
183.56431
 21
144.0
 31
0.0
  0
LINE
  5
96
100
AcDbEntity
  8
0
100
AcDbLine
 10
196.36431
 20
142.0
 30
0.0
 11
196.36431
 21
128.0
 31
0.0
  0
LINE
  5
9A
100
AcDbEntity
  8
0
100
AcDbLine
 10
180.18338
 20
127.859295
 30
0.0
 11
181.56431
 21
127.859295
 31
0.0
  0
LINE
  5
9B
100
AcDbEntity
  8
0
100
AcDbLine
 10
180.18338
 20
122.391423
 30
0.0
 11
181.56431
 21
122.391423
 31
0.0
  0
LWPOLYLINE
  5
9C
100
AcDbEntity
  8
0
100
AcDbPolyline
 90
        5
 70
     0
 43
0.0
 10
181.56431
 20
122.391423
 42
0.068148
 10
182.359477
 20
122.500307
 42
0.080361
 10
182.978524
 20
122.786126
 42
0.107077
 10
183.457495
 20
123.285516
 42
0.161315
 10
183.56431
 20
123.739022
 42
0.138676
  0
LWPOLYLINE
  5
A3
100
AcDbEntity
  8
0
100
AcDbPolyline
 90
        5
 70
     0
 43
0.0
 10
183.56431
 20
126.316413
 42
0.123816
 10
183.421271
 20
126.885186
 42
0.105629
 10
182.978524
 20
127.407395
 42
0.087169
 10
182.287175
 20
127.770122
 42
0.093545
 10
181.56431
 20
127.859295
 42
0.077476
  0
ARC
  5
AA
100
AcDbEntity
  8
0
100
AcDbCircle
 10
205.736479
 20
135.0
 30
0.0
 40
31.297662
100
AcDbArc
 50
169.174795
 51
190.825205
  0
LWPOLYLINE
  5
AB
100
AcDbEntity
  8
0
100
AcDbPolyline
 90
        5
 70
     0
 43
0.0
 10
174.995768
 20
122.247649
 42
0.247874
 10
174.830935
 20
122.160584
 42
0.08102
 10
174.601944
 20
121.670626
 42
0.039757
 10
174.469178
 20
121.002089
 42
0.037362
 10
174.438817
 20
120.277568
 42
0.029151
  0
LWPOLYLINE
  5
B2
100
AcDbEntity
  8
0
100
AcDbPolyline
 90
        3
 70
     0
 43
0.0
 10
174.438817
 20
120.277568
 42
0.014742
 10
174.486455
 20
118.662183
 42
0.01494
 10
174.560523
 20
117.830649
 42
0.047489
  0
LINE
  5
B7
100
AcDbEntity
  8
0
100
AcDbLine
 10
174.995768
 20
123.739022
 30
0.0
 11
174.995768
 21
126.316413
 31
0.0
  0
LWPOLYLINE
  5
B8
100
AcDbEntity
  8
0
100
AcDbPolyline
 90
        5
 70
     0
 43
0.0
 10
180.18338
 20
127.859295
 42
0.030654
 10
178.053624
 20
127.728602
 42
0.041651
 10
176.515184
 20
127.407395
 42
0.083603
 10
175.176703
 20
126.751061
 42
0.284099
 10
174.995768
 20
126.316413
 42
0.241559
  0
LWPOLYLINE
  5
BF
100
AcDbEntity
  8
0
100
AcDbPolyline
 90
        5
 70
     0
 43
0.0
 10
174.995768
 20
123.739022
 42
0.258181
 10
175.212042
 20
123.348099
 42
0.076646
 10
176.515184
 20
122.786126
 42
0.036758
 10
178.275627
 20
122.464557
 42
0.03445
 10
180.18338
 20
122.391423
 42
0.026804
  0
LWPOLYLINE
  5
C6
100
AcDbEntity
  8
0
100
AcDbPolyline
 90
        5
 70
     0
 43
0.0
 10
174.995768
 20
146.260978
 42
-0.258181
 10
175.212042
 20
146.651901
 42
-0.076646
 10
176.515184
 20
147.213874
 42
-0.036758
 10
178.275627
 20
147.535443
 42
-0.03445
 10
180.18338
 20
147.608577
 42
-0.026804
  0
LWPOLYLINE
  5
CD
100
AcDbEntity
  8
0
100
AcDbPolyline
 90
        5
 70
     0
 43
0.0
 10
180.18338
 20
142.140705
 42
-0.030654
 10
178.053624
 20
142.271398
 42
-0.041651
 10
176.515184
 20
142.592605
 42
-0.083603
 10
175.176703
 20
143.248939
 42
-0.284099
 10
174.995768
 20
143.683587
 42
-0.241559
  0
LINE
  5
D4
100
AcDbEntity
  8
0
100
AcDbLine
 10
174.995768
 20
146.260978
 30
0.0
 11
174.995768
 21
143.683587
 31
0.0
  0
LWPOLYLINE
  5
D5
100
AcDbEntity
  8
0
100
AcDbPolyline
 90
        3
 70
     0
 43
0.0
 10
174.438817
 20
149.722432
 42
-0.014742
 10
174.486455
 20
151.337817
 42
-0.01494
 10
174.560523
 20
152.169351
 42
-0.047489
  0
LWPOLYLINE
  5
DA
100
AcDbEntity
  8
0
100
AcDbPolyline
 90
        5
 70
     0
 43
0.0
 10
174.995768
 20
147.752351
 42
-0.247874
 10
174.830935
 20
147.839416
 42
-0.08102
 10
174.601944
 20
148.329374
 42
-0.039757
 10
174.469178
 20
148.997911
 42
-0.037362
 10
174.438817
 20
149.722432
 42
-0.029151
  0
LWPOLYLINE
  5
E1
100
AcDbEntity
  8
0
100
AcDbPolyline
 90
        5
 70
     0
 43
0.0
 10
183.56431
 20
143.683587
 42
-0.123816
 10
183.421271
 20
143.114814
 42
-0.105629
 10
182.978524
 20
142.592605
 42
-0.087169
 10
182.287175
 20
142.229878
 42
-0.093545
 10
181.56431
 20
142.140705
 42
-0.077476
  0
LWPOLYLINE
  5
E8
100
AcDbEntity
  8
0
100
AcDbPolyline
 90
        5
 70
     0
 43
0.0
 10
181.56431
 20
147.608577
 42
-0.068148
 10
182.359477
 20
147.499693
 42
-0.080361
 10
182.978524
 20
147.213874
 42
-0.107077
 10
183.457495
 20
146.714484
 42
-0.161315
 10
183.56431
 20
146.260978
 42
-0.138676
  0
LINE
  5
EF
100
AcDbEntity
  8
0
100
AcDbLine
 10
180.18338
 20
147.608577
 30
0.0
 11
181.56431
 21
147.608577
 31
0.0
  0
LINE
  5
F0
100
AcDbEntity
  8
0
100
AcDbLine
 10
180.18338
 20
142.140705
 30
0.0
 11
181.56431
 21
142.140705
 31
0.0
  0
LINE
  5
F1
100
AcDbEntity
  8
0
100
AcDbLine
 10
172.403512
 20
125.0
 30
0.0
 11
172.403512
 21
145.0
 31
0.0
  0
ARC
  5
F2
100
AcDbEntity
  8
0
100
AcDbCircle
 10
231.56431
 20
135.0
 30
0.0
 40
60.0
100
AcDbArc
 50
189.594068
 51
194.19856
  0
LINE
  5
F3
100
AcDbEntity
  8
1
100
AcDbLine
 10
68.0
 20
135.0
 30
0.0
 11
118.0
 21
135.0
 31
0.0
  0
ARC
  5
F4
100
AcDbEntity
  8
0
100
AcDbCircle
 10
180.18338
 20
218.996933
 30
0.0
 40
7.0
100
AcDbArc
 50
130.424857
 51
165.80144
  0
LINE
  5
F5
100
AcDbEntity
  8
0
100
AcDbLine
 10
180.18338
 20
221.521874
 30
0.0
 11
181.56431
 21
221.521874
 31
0.0
  0
LINE
  5
F6
100
AcDbEntity
  8
0
100
AcDbLine
 10
174.995768
 20
222.525404
 30
0.0
 11
174.995768
 21
223.696792
 31
0.0
  0
LWPOLYLINE
  5
F7
100
AcDbEntity
  8
0
100
AcDbPolyline
 90
        5
 70
     0
 43
0.0
 10
174.995768
 20
222.525404
 42
0.291314
 10
175.16927
 20
222.252884
 42
0.061536
 10
176.515184
 20
221.815801
 42
0.02779
 10
178.042806
 20
221.607497
 42
0.019992
 10
180.18338
 20
221.521874
 42
0.019992
  0
LWPOLYLINE
  5
FE
100
AcDbEntity
  8
0
100
AcDbPolyline
 90
        5
 70
     0
 43
0.0
 10
181.56431
 20
221.521874
 42
0.051275
 10
182.373045
 20
221.605028
 42
0.065126
 10
182.978524
 20
221.815801
 42
0.104284
 10
183.468526
 20
222.206306
 42
0.201925
 10
183.56431
 20
222.525404
 42
0.174259
  0
LINE
  5
105
100
AcDbEntity
  8
0
100
AcDbLine
 10
180.18338
 20
224.678751
 30
0.0
 11
181.56431
 21
224.678751
 31
0.0
  0
LWPOLYLINE
  5
106
100
AcDbEntity
  8
0
100
AcDbPolyline
 90
        4
 70
     0
 43
0.0
 10
180.18338
 20
224.678751
 42
0.013269
 10
178.038236
 20
224.621815
 42
0.018622
 10
176.515184
 20
224.483892
 42
0.026049
 10
175.644228
 20
224.325732
 42
0.406883
  0
LWPOLYLINE
  5
10C
100
AcDbEntity
  8
0
100
AcDbPolyline
 90
        5
 70
     0
 43
0.0
 10
183.56431
 20
224.013462
 42
0.227345
 10
183.466132
 20
224.218224
 42
0.089105
 10
182.978524
 20
224.483892
 42
0.046084
 10
182.299739
 20
224.642129
 42
0.043612
 10
181.56431
 20
224.678751
 42
0.034244
  0
LWPOLYLINE
  5
113
100
AcDbEntity
  8
0
100
AcDbPolyline
 90
        5
 70
     0
 43
0.0
 10
183.56431
 20
187.980404
 42
-0.227345
 10
183.466132
 20
187.775641
 42
-0.089105
 10
182.978524
 20
187.509973
 42
-0.046084
 10
182.299739
 20
187.351737
 42
-0.043612
 10
181.56431
 20
187.315114
 42
-0.034244
  0
LWPOLYLINE
  5
11A
100
AcDbEntity
  8
0
100
AcDbPolyline
 90
        4
 70
     0
 43
0.0
 10
180.18338
 20
187.315114
 42
-0.013269
 10
178.038236
 20
187.372051
 42
-0.018622
 10
176.515184
 20
187.509973
 42
-0.026049
 10
175.644228
 20
187.668133
 42
-0.406883
  0
LINE
  5
120
100
AcDbEntity
  8
0
100
AcDbLine
 10
180.18338
 20
187.315114
 30
0.0
 11
181.56431
 21
187.315114
 31
0.0
  0
LWPOLYLINE
  5
121
100
AcDbEntity
  8
0
100
AcDbPolyline
 90
        5
 70
     0
 43
0.0
 10
174.438817
 20
214.496933
 42
0.012718
 10
174.486491
 20
212.622983
 42
0.01786
 10
174.601944
 20
211.292918
 42
0.041565
 10
174.856813
 20
210.069481
 42
0.332036
 10
174.995768
 20
209.965772
 42
0.332036
  0
LWPOLYLINE
  5
128
100
AcDbEntity
  8
0
100
AcDbPolyline
 90
        5
 70
     0
 43
0.0
 10
174.995768
 20
220.146975
 42
0.347326
 10
174.861322
 20
220.04077
 42
0.033857
 10
174.601944
 20
218.492116
 42
0.014363
 10
174.468275
 20
216.572826
 42
0.01331
 10
174.438817
 20
214.496933
 42
0.010202
  0
ARC
  5
12F
100
AcDbEntity
  8
0
100
AcDbCircle
 10
231.56431
 20
205.996933
 30
0.0
 40
60.0
100
AcDbArc
 50
165.80144
 51
170.405932
  0
LWPOLYLINE
  5
130
100
AcDbEntity
  8
0
100
AcDbPolyline
 90
        5
 70
     0
 43
0.0
 10
174.995768
 20
191.84689
 42
-0.347326
 10
174.861322
 20
191.953095
 42
-0.033857
 10
174.601944
 20
193.501749
 42
-0.014363
 10
174.468275
 20
195.42104
 42
-0.01331
 10
174.438817
 20
197.496933
 42
-0.010202
  0
LWPOLYLINE
  5
137
100
AcDbEntity
  8
0
100
AcDbPolyline
 90
        5
 70
     0
 43
0.0
 10
174.438817
 20
197.496933
 42
-0.012718
 10
174.486491
 20
199.370882
 42
-0.01786
 10
174.601944
 20
200.700947
 42
-0.041565
 10
174.856813
 20
201.924385
 42
-0.332036
 10
174.995768
 20
202.028094
 42
-0.332036
  0
LWPOLYLINE
  5
13E
100
AcDbEntity
  8
0
100
AcDbPolyline
 90
        5
 70
     0
 43
0.0
 10
183.56431
 20
207.48499
 42
0.115706
 10
183.418213
 20
208.107866
 42
0.104035
 10
182.978524
 20
208.665024
 42
0.0909
 10
182.34521
 20
209.022667
 42
0.083385
 10
181.56431
 20
209.15381
 42
0.083385
  0
LINE
  5
145
100
AcDbEntity
  8
0
100
AcDbLine
 10
180.18338
 20
209.15381
 30
0.0
 11
181.56431
 21
209.15381
 31
0.0
  0
LWPOLYLINE
  5
146
100
AcDbEntity
  8
0
100
AcDbPolyline
 90
        5
 70
     0
 43
0.0
 10
180.18338
 20
209.15381
 42
0.033129
 10
178.056732
 20
209.012746
 42
0.044722
 10
176.515184
 20
208.665024
 42
0.087496
 10
175.187262
 20
207.9639
 42
0.271427
 10
174.995768
 20
207.48499
 42
0.23163
  0
LWPOLYLINE
  5
14D
100
AcDbEntity
  8
0
100
AcDbPolyline
 90
        5
 70
     0
 43
0.0
 10
180.18338
 20
202.840056
 42
-0.033129
 10
178.056732
 20
202.98112
 42
-0.044722
 10
176.515184
 20
203.328842
 42
-0.087496
 10
175.187262
 20
204.029965
 42
-0.271427
 10
174.995768
 20
204.508875
 42
-0.23163
  0
LWPOLYLINE
  5
154
100
AcDbEntity
  8
0
100
AcDbPolyline
 90
        5
 70
     0
 43
0.0
 10
183.56431
 20
204.508875
 42
-0.115706
 10
183.418213
 20
203.885999
 42
-0.104035
 10
182.978524
 20
203.328842
 42
-0.0909
 10
182.34521
 20
202.971198
 42
-0.083385
 10
181.56431
 20
202.840056
 42
-0.083385
  0
ARC
  5
15B
100
AcDbEntity
  8
0
100
AcDbCircle
 10
180.18338
 20
192.996933
 30
0.0
 40
7.0
100
AcDbArc
 50
194.19856
 51
229.575143
  0
ARC
  5
15C
100
AcDbEntity
  8
0
100
AcDbCircle
 10
231.56431
 20
205.996933
 30
0.0
 40
60.0
100
AcDbArc
 50
189.594068
 51
194.19856
  0
LWPOLYLINE
  5
15D
100
AcDbEntity
  8
0
100
AcDbPolyline
 90
        5
 70
     0
 43
0.0
 10
181.56431
 20
190.471992
 42
-0.051275
 10
182.373045
 20
190.388837
 42
-0.065126
 10
182.978524
 20
190.178064
 42
-0.104284
 10
183.468526
 20
189.78756
 42
-0.201925
 10
183.56431
 20
189.468461
 42
-0.174259
  0
LINE
  5
164
100
AcDbEntity
  8
0
100
AcDbLine
 10
174.995768
 20
207.48499
 30
0.0
 11
174.995768
 21
204.508875
 31
0.0
  0
LWPOLYLINE
  5
165
100
AcDbEntity
  8
0
100
AcDbPolyline
 90
        5
 70
     0
 43
0.0
 10
174.995768
 20
189.468461
 42
-0.291314
 10
175.16927
 20
189.740982
 42
-0.061536
 10
176.515184
 20
190.178064
 42
-0.02779
 10
178.042806
 20
190.386368
 42
-0.019992
 10
180.18338
 20
190.471992
 42
-0.019992
  0
LINE
  5
16C
100
AcDbEntity
  8
0
100
AcDbLine
 10
174.995768
 20
189.468461
 30
0.0
 11
174.995768
 21
188.297073
 31
0.0
  0
LINE
  5
16D
100
AcDbEntity
  8
0
100
AcDbLine
 10
180.18338
 20
202.840056
 30
0.0
 11
181.56431
 21
202.840056
 31
0.0
  0
LINE
  5
16E
100
AcDbEntity
  8
0
100
AcDbLine
 10
180.18338
 20
190.471992
 30
0.0
 11
181.56431
 21
190.471992
 31
0.0
  0
LINE
  5
16F
100
AcDbEntity
  8
0
100
AcDbLine
 10
172.403512
 20
215.996933
 30
0.0
 11
172.403512
 21
195.996933
 31
0.0
  0
LINE
  5
170
100
AcDbEntity
  8
0
100
AcDbLine
 10
183.56431
 20
187.980404
 30
0.0
 11
183.56431
 21
224.013462
 31
0.0
  0
LINE
  5
171
100
AcDbEntity
  8
0
100
AcDbLine
 10
196.36431
 20
198.996933
 30
0.0
 11
196.36431
 21
212.996933
 31
0.0
  0
LINE
  5
172
100
AcDbEntity
  8
0
100
AcDbLine
 10
185.56431
 20
196.996933
 30
0.0
 11
183.56431
 21
196.996933
 31
0.0
  0
LINE
  5
173
100
AcDbEntity
  8
0
100
AcDbLine
 10
196.56431
 20
212.796933
 30
0.0
 11
196.36431
 21
212.996933
 31
0.0
  0
LINE
  5
174
100
AcDbEntity
  8
0
100
AcDbLine
 10
196.36431
 20
198.996933
 30
0.0
 11
196.56431
 21
199.196933
 31
0.0
  0
LINE
  5
175
100
AcDbEntity
  8
0
100
AcDbLine
 10
196.56431
 20
199.196933
 30
0.0
 11
196.56431
 21
212.796933
 31
0.0
  0
LINE
  5
176
100
AcDbEntity
  8
0
100
AcDbLine
 10
185.56431
 20
212.996933
 30
0.0
 11
196.36431
 21
212.996933
 31
0.0
  0
LINE
  5
177
100
AcDbEntity
  8
0
100
AcDbLine
 10
185.56431
 20
198.996933
 30
0.0
 11
196.36431
 21
198.996933
 31
0.0
  0
LINE
  5
178
100
AcDbEntity
  8
1
100
AcDbLine
 10
166.56431
 20
205.996933
 30
0.0
 11
201.56431
 21
205.996933
 31
0.0
  0
LINE
  5
179
100
AcDbEntity
  8
0
100
AcDbLine
 10
185.56431
 20
196.996933
 30
0.0
 11
185.56431
 21
214.996933
 31
0.0
  0
LINE
  5
17A
100
AcDbEntity
  8
0
100
AcDbLine
 10
183.56431
 20
214.996933
 30
0.0
 11
185.56431
 21
214.996933
 31
0.0
  0
CIRCLE
  5
180
100
AcDbEntity
  8
0
100
AcDbCircle
 10
93.013161
 20
135.0
 30
0.0
 40
10.0
  0
CIRCLE
  5
181
100
AcDbEntity
  8
0
100
AcDbCircle
 10
93.013161
 20
135.0
 30
0.0
 40
7.5
  0
CIRCLE
  5
182
100
AcDbEntity
  8
0
100
AcDbCircle
 10
93.013161
 20
135.0
 30
0.0
 40
8.1
  0
LINE
  5
183
100
AcDbEntity
  8
0
100
AcDbLine
 10
172.402169
 20
143.102928
 30
0.0
 11
172.141183
 21
143.102928
 31
0.0
  0
LINE
  5
184
100
AcDbEntity
  8
0
100
AcDbLine
 10
172.403506
 20
126.855462
 30
0.0
 11
172.151345
 21
126.855462
 31
0.0
  0
LINE
  5
185
100
AcDbEntity
  8
0
100
AcDbLine
 10
172.404611
 20
214.506013
 30
0.0
 11
172.139649
 21
214.506013
 31
0.0
  0
LINE
  5
186
100
AcDbEntity
  8
0
100
AcDbLine
 10
172.400389
 20
198.251268
 30
0.0
 11
172.14052
 21
198.251268
 31
0.0
  0
LINE
  5
187
100
AcDbEntity
  8
0
100
AcDbLine
 10
185.56431
 20
69.941968
 30
0.0
 11
196.36431
 21
69.941968
 31
0.0
  0
LINE
  5
188
100
AcDbEntity
  8
0
100
AcDbLine
 10
185.56431
 20
55.941968
 30
0.0
 11
196.36431
 21
55.941968
 31
0.0
  0
LINE
  5
189
100
AcDbEntity
  8
1
100
AcDbLine
 10
166.56431
 20
62.941968
 30
0.0
 11
201.56431
 21
62.941968
 31
0.0
  0
ARC
  5
18A
100
AcDbEntity
  8
0
100
AcDbCircle
 10
231.56431
 20
62.941968
 30
0.0
 40
60.0
100
AcDbArc
 50
165.80144
 51
170.405932
  0
LINE
  5
18B
100
AcDbEntity
  8
0
100
AcDbLine
 10
183.56431
 20
44.925439
 30
0.0
 11
183.56431
 21
80.958497
 31
0.0
  0
LWPOLYLINE
  5
18C
100
AcDbEntity
  8
0
100
AcDbPolyline
 90
        5
 70
     0
 43
0.0
 10
174.438817
 20
54.441968
 42
-0.012718
 10
174.486491
 20
56.315917
 42
-0.01786
 10
174.601944
 20
57.645982
 42
-0.041565
 10
174.856813
 20
58.86942
 42
-0.332036
 10
174.995768
 20
58.973129
 42
-0.332036
  0
LINE
  5
193
100
AcDbEntity
  8
0
100
AcDbLine
 10
185.56431
 20
53.941968
 30
0.0
 11
185.56431
 21
71.941968
 31
0.0
  0
LINE
  5
194
100
AcDbEntity
  8
0
100
AcDbLine
 10
172.403512
 20
72.941968
 30
0.0
 11
172.403512
 21
52.941968
 31
0.0
  0
ARC
  5
195
100
AcDbEntity
  8
0
100
AcDbCircle
 10
231.56431
 20
62.941968
 30
0.0
 40
60.0
100
AcDbArc
 50
189.594068
 51
194.19856
  0
LINE
  5
196
100
AcDbEntity
  8
0
100
AcDbLine
 10
172.400389
 20
55.196303
 30
0.0
 11
172.14052
 21
55.196303
 31
0.0
  0
LINE
  5
197
100
AcDbEntity
  8
0
100
AcDbLine
 10
174.995768
 20
46.413496
 30
0.0
 11
174.995768
 21
45.242108
 31
0.0
  0
ARC
  5
198
100
AcDbEntity
  8
0
100
AcDbCircle
 10
180.18338
 20
49.941968
 30
0.0
 40
7.0
100
AcDbArc
 50
194.19856
 51
229.575143
  0
LWPOLYLINE
  5
199
100
AcDbEntity
  8
0
100
AcDbPolyline
 90
        4
 70
     0
 43
0.0
 10
180.18338
 20
44.260149
 42
-0.013269
 10
178.038236
 20
44.317086
 42
-0.018622
 10
176.515184
 20
44.455008
 42
-0.026049
 10
175.644228
 20
44.613168
 42
-0.406883
  0
LINE
  5
19F
100
AcDbEntity
  8
0
100
AcDbLine
 10
180.18338
 20
44.260149
 30
0.0
 11
181.56431
 21
44.260149
 31
0.0
  0
LWPOLYLINE
  5
1A0
100
AcDbEntity
  8
0
100
AcDbPolyline
 90
        5
 70
     0
 43
0.0
 10
183.56431
 20
44.925439
 42
-0.227345
 10
183.466132
 20
44.720676
 42
-0.089105
 10
182.978524
 20
44.455008
 42
-0.046084
 10
182.299739
 20
44.296772
 42
-0.043612
 10
181.56431
 20
44.260149
 42
-0.034244
  0
LWPOLYLINE
  5
1A7
100
AcDbEntity
  8
0
100
AcDbPolyline
 90
        5
 70
     0
 43
0.0
 10
174.995768
 20
46.413496
 42
-0.291314
 10
175.16927
 20
46.686017
 42
-0.061536
 10
176.515184
 20
47.123099
 42
-0.02779
 10
178.042806
 20
47.331403
 42
-0.019992
 10
180.18338
 20
47.417027
 42
-0.019992
  0
LWPOLYLINE
  5
1AE
100
AcDbEntity
  8
0
100
AcDbPolyline
 90
        5
 70
     0
 43
0.0
 10
174.995768
 20
48.791925
 42
-0.347326
 10
174.861322
 20
48.89813
 42
-0.033857
 10
174.601944
 20
50.446784
 42
-0.014363
 10
174.468275
 20
52.366075
 42
-0.01331
 10
174.438817
 20
54.441968
 42
-0.010202
  0
LINE
  5
1B5
100
AcDbEntity
  8
0
100
AcDbLine
 10
180.18338
 20
47.417027
 30
0.0
 11
181.56431
 21
47.417027
 31
0.0
  0
LWPOLYLINE
  5
1B6
100
AcDbEntity
  8
0
100
AcDbPolyline
 90
        5
 70
     0
 43
0.0
 10
181.56431
 20
47.417027
 42
-0.051275
 10
182.373045
 20
47.333872
 42
-0.065126
 10
182.978524
 20
47.123099
 42
-0.104284
 10
183.468526
 20
46.732595
 42
-0.201925
 10
183.56431
 20
46.413496
 42
-0.174259
  0
LINE
  5
1BD
100
AcDbEntity
  8
0
100
AcDbLine
 10
185.56431
 20
53.941968
 30
0.0
 11
183.56431
 21
53.941968
 31
0.0
  0
LINE
  5
1BE
100
AcDbEntity
  8
0
100
AcDbLine
 10
172.404611
 20
71.451048
 30
0.0
 11
172.139649
 21
71.451048
 31
0.0
  0
LWPOLYLINE
  5
1BF
100
AcDbEntity
  8
0
100
AcDbPolyline
 90
        5
 70
     0
 43
0.0
 10
180.18338
 20
66.098845
 42
0.033129
 10
178.056732
 20
65.957781
 42
0.044722
 10
176.515184
 20
65.610059
 42
0.087496
 10
175.187262
 20
64.908935
 42
0.271427
 10
174.995768
 20
64.430025
 42
0.23163
  0
LWPOLYLINE
  5
1C6
100
AcDbEntity
  8
0
100
AcDbPolyline
 90
        5
 70
     0
 43
0.0
 10
180.18338
 20
59.785091
 42
-0.033129
 10
178.056732
 20
59.926155
 42
-0.044722
 10
176.515184
 20
60.273877
 42
-0.087496
 10
175.187262
 20
60.975
 42
-0.271427
 10
174.995768
 20
61.45391
 42
-0.23163
  0
LINE
  5
1CD
100
AcDbEntity
  8
0
100
AcDbLine
 10
174.995768
 20
64.430025
 30
0.0
 11
174.995768
 21
61.45391
 31
0.0
  0
LINE
  5
1CE
100
AcDbEntity
  8
0
100
AcDbLine
 10
180.18338
 20
59.785091
 30
0.0
 11
181.56431
 21
59.785091
 31
0.0
  0
LWPOLYLINE
  5
1CF
100
AcDbEntity
  8
0
100
AcDbPolyline
 90
        5
 70
     0
 43
0.0
 10
183.56431
 20
61.45391
 42
-0.115706
 10
183.418213
 20
60.831034
 42
-0.104035
 10
182.978524
 20
60.273877
 42
-0.0909
 10
182.34521
 20
59.916233
 42
-0.083385
 10
181.56431
 20
59.785091
 42
-0.083385
  0
LINE
  5
1D6
100
AcDbEntity
  8
0
100
AcDbLine
 10
180.18338
 20
66.098845
 30
0.0
 11
181.56431
 21
66.098845
 31
0.0
  0
LWPOLYLINE
  5
1D7
100
AcDbEntity
  8
0
100
AcDbPolyline
 90
        5
 70
     0
 43
0.0
 10
183.56431
 20
64.430025
 42
0.115706
 10
183.418213
 20
65.052901
 42
0.104035
 10
182.978524
 20
65.610059
 42
0.0909
 10
182.34521
 20
65.967702
 42
0.083385
 10
181.56431
 20
66.098845
 42
0.083385
  0
LWPOLYLINE
  5
1DE
100
AcDbEntity
  8
0
100
AcDbPolyline
 90
        5
 70
     0
 43
0.0
 10
174.995768
 20
77.09201
 42
0.347326
 10
174.861322
 20
76.985805
 42
0.033857
 10
174.601944
 20
75.437151
 42
0.014363
 10
174.468275
 20
73.517861
 42
0.01331
 10
174.438817
 20
71.441968
 42
0.010202
  0
LWPOLYLINE
  5
1E5
100
AcDbEntity
  8
0
100
AcDbPolyline
 90
        5
 70
     0
 43
0.0
 10
174.438817
 20
71.441968
 42
0.012718
 10
174.486491
 20
69.568018
 42
0.01786
 10
174.601944
 20
68.237953
 42
0.041565
 10
174.856813
 20
67.014516
 42
0.332036
 10
174.995768
 20
66.910807
 42
0.332036
  0
LINE
  5
1EC
100
AcDbEntity
  8
0
100
AcDbLine
 10
183.56431
 20
71.941968
 30
0.0
 11
185.56431
 21
71.941968
 31
0.0
  0
LWPOLYLINE
  5
1ED
100
AcDbEntity
  8
0
100
AcDbPolyline
 90
        5
 70
     0
 43
0.0
 10
174.995768
 20
79.470439
 42
0.291314
 10
175.16927
 20
79.197919
 42
0.061536
 10
176.515184
 20
78.760836
 42
0.02779
 10
178.042806
 20
78.552532
 42
0.019992
 10
180.18338
 20
78.466909
 42
0.019992
  0
LWPOLYLINE
  5
1F4
100
AcDbEntity
  8
0
100
AcDbPolyline
 90
        4
 70
     0
 43
0.0
 10
180.18338
 20
81.623786
 42
0.013269
 10
178.038236
 20
81.56685
 42
0.018622
 10
176.515184
 20
81.428927
 42
0.026049
 10
175.644228
 20
81.270767
 42
0.406883
  0
LINE
  5
1FA
100
AcDbEntity
  8
0
100
AcDbLine
 10
174.995768
 20
79.470439
 30
0.0
 11
174.995768
 21
80.641827
 31
0.0
  0
ARC
  5
1FB
100
AcDbEntity
  8
0
100
AcDbCircle
 10
180.18338
 20
75.941968
 30
0.0
 40
7.0
100
AcDbArc
 50
130.424857
 51
165.80144
  0
LINE
  5
1FC
100
AcDbEntity
  8
0
100
AcDbLine
 10
180.18338
 20
81.623786
 30
0.0
 11
181.56431
 21
81.623786
 31
0.0
  0
LWPOLYLINE
  5
1FD
100
AcDbEntity
  8
0
100
AcDbPolyline
 90
        5
 70
     0
 43
0.0
 10
183.56431
 20
80.958497
 42
0.227345
 10
183.466132
 20
81.163259
 42
0.089105
 10
182.978524
 20
81.428927
 42
0.046084
 10
182.299739
 20
81.587164
 42
0.043612
 10
181.56431
 20
81.623786
 42
0.034244
  0
LINE
  5
204
100
AcDbEntity
  8
0
100
AcDbLine
 10
180.18338
 20
78.466909
 30
0.0
 11
181.56431
 21
78.466909
 31
0.0
  0
LWPOLYLINE
  5
205
100
AcDbEntity
  8
0
100
AcDbPolyline
 90
        5
 70
     0
 43
0.0
 10
181.56431
 20
78.466909
 42
0.051275
 10
182.373045
 20
78.550063
 42
0.065126
 10
182.978524
 20
78.760836
 42
0.104284
 10
183.468526
 20
79.151341
 42
0.201925
 10
183.56431
 20
79.470439
 42
0.174259
  0
LINE
  5
20C
100
AcDbEntity
  8
0
100
AcDbLine
 10
196.56431
 20
56.141968
 30
0.0
 11
196.56431
 21
69.741968
 31
0.0
  0
LINE
  5
20D
100
AcDbEntity
  8
0
100
AcDbLine
 10
196.36431
 20
55.941968
 30
0.0
 11
196.36431
 21
69.941968
 31
0.0
  0
LINE
  5
20E
100
AcDbEntity
  8
0
100
AcDbLine
 10
196.36431
 20
55.941968
 30
0.0
 11
196.56431
 21
56.141968
 31
0.0
  0
LINE
  5
20F
100
AcDbEntity
  8
0
100
AcDbLine
 10
196.56431
 20
69.741968
 30
0.0
 11
196.36431
 21
69.941968
 31
0.0
  0
LINE
  5
221
100
AcDbEntity
  8
2
100
AcDbLine
 10
196.2
 20
210.0
 30
0.0
 11
180.6
 21
210.0
 31
0.0
  0
LINE
  5
222
100
AcDbEntity
  8
2
100
AcDbLine
 10
180.6
 20
210.0
 30
0.0
 11
180.6
 21
209.6
 31
0.0
  0
LINE
  5
223
100
AcDbEntity
  8
2
100
AcDbLine
 10
180.6
 20
209.6
 30
0.0
 11
179.0
 21
209.6
 31
0.0
  0
LINE
  5
224
100
AcDbEntity
  8
2
100
AcDbLine
 10
179.0
 20
209.6
 30
0.0
 11
177.0
 21
206.0
 31
0.0
  0
LINE
  5
225
100
AcDbEntity
  8
2
100
AcDbLine
 10
177.0
 20
206.0
 30
0.0
 11
179.0
 21
202.4
 31
0.0
  0
LINE
  5
226
100
AcDbEntity
  8
2
100
AcDbLine
 10
179.0
 20
202.4
 30
0.0
 11
180.6
 21
202.4
 31
0.0
  0
LINE
  5
227
100
AcDbEntity
  8
2
100
AcDbLine
 10
180.6
 20
202.4
 30
0.0
 11
180.6
 21
202.0
 31
0.0
  0
LINE
  5
228
100
AcDbEntity
  8
2
100
AcDbLine
 10
180.6
 20
202.0
 30
0.0
 11
196.2
 21
202.0
 31
0.0
  0
LINE
  5
229
100
AcDbEntity
  8
2
100
AcDbLine
 10
196.2
 20
202.0
 30
0.0
 11
196.564521
 21
201.635479
 31
0.0
  0
LINE
  5
22A
100
AcDbEntity
  8
2
100
AcDbLine
 10
196.2
 20
210.0
 30
0.0
 11
196.2
 21
202.0
 31
0.0
  0
LINE
  5
22B
100
AcDbEntity
  8
2
100
AcDbLine
 10
180.6
 20
209.6
 30
0.0
 11
180.6
 21
202.4
 31
0.0
  0
LINE
  5
22C
100
AcDbEntity
  8
2
100
AcDbLine
 10
179.0
 20
209.6
 30
0.0
 11
179.0
 21
202.4
 31
0.0
  0
LINE
  5
22D
100
AcDbEntity
  8
2
100
AcDbLine
 10
196.2
 20
139.0
 30
0.0
 11
180.6
 21
139.0
 31
0.0
  0
LINE
  5
22E
100
AcDbEntity
  8
2
100
AcDbLine
 10
180.6
 20
139.0
 30
0.0
 11
180.6
 21
138.6
 31
0.0
  0
LINE
  5
22F
100
AcDbEntity
  8
2
100
AcDbLine
 10
180.6
 20
138.6
 30
0.0
 11
179.0
 21
138.6
 31
0.0
  0
LINE
  5
230
100
AcDbEntity
  8
2
100
AcDbLine
 10
179.0
 20
138.6
 30
0.0
 11
177.0
 21
135.0
 31
0.0
  0
LINE
  5
231
100
AcDbEntity
  8
2
100
AcDbLine
 10
177.0
 20
135.0
 30
0.0
 11
179.0
 21
131.4
 31
0.0
  0
LINE
  5
232
100
AcDbEntity
  8
2
100
AcDbLine
 10
179.0
 20
131.4
 30
0.0
 11
180.6
 21
131.4
 31
0.0
  0
LINE
  5
233
100
AcDbEntity
  8
2
100
AcDbLine
 10
180.6
 20
131.4
 30
0.0
 11
180.6
 21
131.0
 31
0.0
  0
LINE
  5
234
100
AcDbEntity
  8
2
100
AcDbLine
 10
180.6
 20
131.0
 30
0.0
 11
196.2
 21
131.0
 31
0.0
  0
LINE
  5
235
100
AcDbEntity
  8
2
100
AcDbLine
 10
196.2
 20
131.0
 30
0.0
 11
196.566058
 21
130.633942
 31
0.0
  0
LINE
  5
236
100
AcDbEntity
  8
2
100
AcDbLine
 10
196.2
 20
139.0
 30
0.0
 11
196.2
 21
131.0
 31
0.0
  0
LINE
  5
237
100
AcDbEntity
  8
2
100
AcDbLine
 10
180.6
 20
138.6
 30
0.0
 11
180.6
 21
131.4
 31
0.0
  0
LINE
  5
238
100
AcDbEntity
  8
2
100
AcDbLine
 10
179.0
 20
138.6
 30
0.0
 11
179.0
 21
131.4
 31
0.0
  0
LINE
  5
239
100
AcDbEntity
  8
2
100
AcDbLine
 10
196.2
 20
67.0
 30
0.0
 11
180.6
 21
67.0
 31
0.0
  0
LINE
  5
23A
100
AcDbEntity
  8
2
100
AcDbLine
 10
180.6
 20
67.0
 30
0.0
 11
180.6
 21
66.4
 31
0.0
  0
LINE
  5
23B
100
AcDbEntity
  8
2
100
AcDbLine
 10
180.6
 20
66.4
 30
0.0
 11
179.0
 21
66.4
 31
0.0
  0
LINE
  5
23C
100
AcDbEntity
  8
2
100
AcDbLine
 10
179.0
 20
66.4
 30
0.0
 11
177.0
 21
63.0
 31
0.0
  0
LINE
  5
23D
100
AcDbEntity
  8
2
100
AcDbLine
 10
177.0
 20
63.0
 30
0.0
 11
179.0
 21
59.4
 31
0.0
  0
LINE
  5
23E
100
AcDbEntity
  8
2
100
AcDbLine
 10
179.0
 20
59.4
 30
0.0
 11
180.6
 21
59.4
 31
0.0
  0
LINE
  5
23F
100
AcDbEntity
  8
2
100
AcDbLine
 10
180.6
 20
59.4
 30
0.0
 11
180.6
 21
59.0
 31
0.0
  0
LINE
  5
240
100
AcDbEntity
  8
2
100
AcDbLine
 10
180.6
 20
59.0
 30
0.0
 11
196.2
 21
59.0
 31
0.0
  0
LINE
  5
241
100
AcDbEntity
  8
2
100
AcDbLine
 10
196.2
 20
59.0
 30
0.0
 11
196.56041
 21
58.63959
 31
0.0
  0
LINE
  5
242
100
AcDbEntity
  8
2
100
AcDbLine
 10
196.2
 20
67.0
 30
0.0
 11
196.2
 21
59.0
 31
0.0
  0
LINE
  5
243
100
AcDbEntity
  8
2
100
AcDbLine
 10
180.6
 20
66.4
 30
0.0
 11
180.6
 21
59.4
 31
0.0
  0
LINE
  5
244
100
AcDbEntity
  8
2
100
AcDbLine
 10
179.0
 20
66.4
 30
0.0
 11
179.0
 21
59.4
 31
0.0
  0
LINE
  5
247
100
AcDbEntity
  8
0
100
AcDbLine
 10
171.924155
 20
214.199135
 30
0.0
 11
171.924155
 21
198.597122
 31
0.0
  0
ARC
  5
248
100
AcDbEntity
  8
0
100
AcDbCircle
 10
172.217882
 20
214.220682
 30
0.0
 40
0.294953
100
AcDbArc
 50
105.127144
 51
184.038231
  0
ARC
  5
249
100
AcDbEntity
  8
0
100
AcDbCircle
 10
172.388634
 20
198.646673
 30
0.0
 40
0.466302
100
AcDbArc
 50
186.17394
 51
237.812619
  0
LINE
  5
24A
100
AcDbEntity
  8
0
100
AcDbLine
 10
171.884547
 20
142.805757
 30
0.0
 11
171.884547
 21
127.18791
 31
0.0
  0
ARC
  5
24B
100
AcDbEntity
  8
0
100
AcDbCircle
 10
172.173892
 20
142.815676
 30
0.0
 40
0.289234
100
AcDbArc
 50
96.325983
 51
182.023428
  0
ARC
  5
24C
100
AcDbEntity
  8
0
100
AcDbCircle
 10
172.326465
 20
127.281812
 30
0.0
 40
0.460505
100
AcDbArc
 50
196.534357
 51
247.660524
  0
LINE
  5
24D
100
AcDbEntity
  8
0
100
AcDbLine
 10
171.885002
 20
127.150757
 30
0.0
 11
171.885002
 21
127.203721
 31
0.0
  0
LINE
  5
24E
100
AcDbEntity
  8
0
100
AcDbLine
 10
171.920189
 20
71.177814
 30
0.0
 11
171.920189
 21
55.510385
 31
0.0
  0
ARC
  5
24F
100
AcDbEntity
  8
0
100
AcDbCircle
 10
172.168339
 20
71.201864
 30
0.0
 40
0.249367
100
AcDbArc
 50
95.698881
 51
185.483629
  0
ARC
  5
250
100
AcDbEntity
  8
0
100
AcDbCircle
 10
172.216601
 20
55.482915
 30
0.0
 40
0.296404
100
AcDbArc
 50
174.078641
 51
256.055081
  0
LINE
  5
251
100
AcDbEntity
  8
2
100
AcDbLine
 10
196.563811
 20
210.363811
 30
0.0
 11
196.2
 21
210.0
 31
0.0
  0
LINE
  5
252
100
AcDbEntity
  8
2
100
AcDbLine
 10
196.56289
 20
139.36289
 30
0.0
 11
196.2
 21
139.0
 31
0.0
  0
LINE
  5
253
100
AcDbEntity
  8
2
100
AcDbLine
 10
196.562203
 20
67.362203
 30
0.0
 11
196.2
 21
67.0
 31
0.0
  0
ENDSEC
  0
SECTION
  2
OBJECTS
  0
DICTIONARY
  5
265
100
AcDbDictionary
  3
ACAD_GROUP
350
266
  3
ACAD_MLINESTYLE
350
273
  3
ACDBVARIABLEDICTIONARY
350
287
  0
DICTIONARY
  5
266
102
{ACAD_REACTORS
330
265
102
}
100
AcDbDictionary
  0
DICTIONARY
  5
273
102
{ACAD_REACTORS
330
265
102
}
100
AcDbDictionary
  3
STANDARD
350
274
  0
DICTIONARY
  5
287
102
{ACAD_REACTORS
330
265
102
}
100
AcDbDictionary
  3
DIMADEC
350
288
  0
MLINESTYLE
  5
274
102
{ACAD_REACTORS
330
273
102
}
100
AcDbMlineStyle
  2
STANDARD
 70
     0
  3

 62
   256
 51
90.0
 52
90.0
 71
     2
 49
0.5
 62
   256
  6
BYLAYER
 49
-0.5
 62
   256
  6
BYLAYER
  0
DICTIONARYVAR
  5
288
102
{ACAD_REACTORS
330
287
102
}
100
DictionaryVariables
280
     0
  1
0
  0
ENDSEC
  0
EOF
