  0
SECTION
  2
HEADER
  9
$ACADVER
  1
AC1009
  9
$INSBASE
 10
0.0
 20
0.0
 30
0.0
  9
$EXTMIN
 10
17.0
 20
2.466667
 30
0.0
  9
$EXTMAX
 10
185.643333
 20
146.5
 30
0.0
  9
$LIMMIN
 10
0.0
 20
0.0
  9
$LIMMAX
 10
220.0
 20
170.0
  9
$ORTHOMODE
 70
     1
  9
$REGENMODE
 70
     1
  9
$FILLMODE
 70
     1
  9
$QTEXTMODE
 70
     0
  9
$MIRRTEXT
 70
     1
  9
$DRAGMODE
 70
     2
  9
$LTSCALE
 40
1.0
  9
$OSMODE
 70
     0
  9
$ATTMODE
 70
     1
  9
$TEXTSIZE
 40
7.0
  9
$TRACEWID
 40
1.0
  9
$TEXTSTYLE
  7
STANDARD
  9
$CLAYER
  8
0
  9
$CELTYPE
  6
BYLAYER
  9
$CECOLOR
 62
   256
  9
$DIMSCALE
 40
1.0
  9
$DIMASZ
 40
2.5
  9
$DIMEXO
 40
0.625
  9
$DIMDLI
 40
3.75
  9
$DIMRND
 40
0.0
  9
$DIMDLE
 40
0.0
  9
$DIMEXE
 40
1.25
  9
$DIMTP
 40
0.0
  9
$DIMTM
 40
0.0
  9
$DIMTXT
 40
2.5
  9
$DIMCEN
 40
2.5
  9
$DIMTSZ
 40
0.0
  9
$DIMTOL
 70
     0
  9
$DIMLIM
 70
     0
  9
$DIMTIH
 70
     1
  9
$DIMTOH
 70
     0
  9
$DIMSE1
 70
     0
  9
$DIMSE2
 70
     0
  9
$DIMTAD
 70
     1
  9
$DIMZIN
 70
     8
  9
$DIMBLK
  1

  9
$DIMASO
 70
     1
  9
$DIMSHO
 70
     1
  9
$DIMPOST
  1

  9
$DIMAPOST
  1

  9
$DIMALT
 70
     0
  9
$DIMALTD
 70
     2
  9
$DIMALTF
 40
0.0394
  9
$DIMLFAC
 40
1.0
  9
$DIMTOFL
 70
     1
  9
$DIMTVP
 40
1.0
  9
$DIMTIX
 70
     0
  9
$DIMSOXD
 70
     0
  9
$DIMSAH
 70
     0
  9
$DIMBLK1
  1

  9
$DIMBLK2
  1

  9
$DIMSTYLE
  2
ISO-25
  9
$DIMCLRD
 70
     0
  9
$DIMCLRE
 70
     0
  9
$DIMCLRT
 70
     0
  9
$DIMTFAC
 40
1.0
  9
$DIMGAP
 40
0.625
  9
$LUNITS
 70
     2
  9
$LUPREC
 70
     4
  9
$SKETCHINC
 40
1.0
  9
$FILLETRAD
 40
1.5
  9
$AUNITS
 70
     0
  9
$AUPREC
 70
     0
  9
$MENU
  1
.
  9
$ELEVATION
 40
0.0
  9
$PELEVATION
 40
0.0
  9
$THICKNESS
 40
0.0
  9
$LIMCHECK
 70
     0
  9
$BLIPMODE
 70
     1
  9
$CHAMFERA
 40
0.75
  9
$CHAMFERB
 40
0.75
  9
$SKPOLY
 70
     0
  9
$TDCREATE
 40
2450687.693924
  9
$TDUPDATE
 40
2450687.693924
  9
$TDINDWG
 40
0.0
  9
$TDUSRTIMER
 40
0.0
  9
$USRTIMER
 70
     1
  9
$ANGBASE
 50
0.0
  9
$ANGDIR
 70
     0
  9
$PDMODE
 70
     0
  9
$PDSIZE
 40
0.0
  9
$PLINEWID
 40
0.0
  9
$COORDS
 70
     2
  9
$SPLFRAME
 70
     0
  9
$SPLINETYPE
 70
     6
  9
$SPLINESEGS
 70
     8
  9
$ATTDIA
 70
     0
  9
$ATTREQ
 70
     1
  9
$HANDLING
 70
     1
  9
$HANDSEED
  5
6AD
  9
$SURFTAB1
 70
     6
  9
$SURFTAB2
 70
     6
  9
$SURFTYPE
 70
     6
  9
$SURFU
 70
     6
  9
$SURFV
 70
     6
  9
$UCSNAME
  2

  9
$UCSORG
 10
0.0
 20
0.0
 30
0.0
  9
$UCSXDIR
 10
1.0
 20
0.0
 30
0.0
  9
$UCSYDIR
 10
0.0
 20
1.0
 30
0.0
  9
$PUCSNAME
  2

  9
$PUCSORG
 10
0.0
 20
0.0
 30
0.0
  9
$PUCSXDIR
 10
1.0
 20
0.0
 30
0.0
  9
$PUCSYDIR
 10
0.0
 20
1.0
 30
0.0
  9
$USERI1
 70
     0
  9
$USERI2
 70
     0
  9
$USERI3
 70
     0
  9
$USERI4
 70
     0
  9
$USERI5
 70
     0
  9
$USERR1
 40
0.0
  9
$USERR2
 40
0.0
  9
$USERR3
 40
0.0
  9
$USERR4
 40
0.0
  9
$USERR5
 40
0.0
  9
$WORLDVIEW
 70
     1
  9
$SHADEDGE
 70
     3
  9
$SHADEDIF
 70
    70
  9
$TILEMODE
 70
     1
  9
$MAXACTVP
 70
    16
  9
$PLIMCHECK
 70
     0
  9
$PEXTMIN
 10
1.000000E+020
 20
1.000000E+020
 30
1.000000E+020
  9
$PEXTMAX
 10
-1.000000E+020
 20
-1.000000E+020
 30
-1.000000E+020
  9
$PLIMMIN
 10
0.0
 20
0.0
  9
$PLIMMAX
 10
420.0
 20
297.0
  9
$UNITMODE
 70
     0
  9
$VISRETAIN
 70
     0
  9
$PLINEGEN
 70
     0
  9
$PSLTSCALE
 70
     1
  0
ENDSEC
  0
SECTION
  2
TABLES
  0
TABLE
  2
VPORT
 70
     2
  0
VPORT
  2
*ACTIVE
 70
     0
 10
0.0
 20
0.0
 11
1.0
 21
1.0
 12
131.824561
 22
97.956591
 13
0.0
 23
0.0
 14
0.25
 24
0.25
 15
0.5
 25
0.5
 16
0.0
 26
0.0
 36
1.0
 17
0.0
 27
0.0
 37
0.0
 40
195.913182
 41
1.345745
 42
50.0
 43
0.0
 44
0.0
 50
0.0
 51
0.0
 71
     0
 72
 20000
 73
     1
 74
     1
 75
     1
 76
     1
 77
     0
 78
     0
  0
ENDTAB
  0
TABLE
  2
LTYPE
 70
     3
  0
LTYPE
  2
CONTINUOUS
 70
     0
  3
Solid line
 72
    65
 73
     0
 40
0.0
  0
LTYPE
  2
TENSEN
 70
     0
  3

 72
    65
 73
     2
 40
2.5
 49
1.5
 49
-1.0
  0
LTYPE
  2
ITTEN
 70
     0
  3

 72
    65
 73
     4
 40
3.6
 49
2.0
 49
-0.5
 49
0.6
 49
-0.5
  0
ENDTAB
  0
TABLE
  2
LAYER
 70
     4
  0
LAYER
  2
0
 70
     0
 62
     7
  6
CONTINUOUS
  0
LAYER
  2
2
 70
     0
 62
     2
  6
TENSEN
  0
LAYER
  2
1
 70
     0
 62
     1
  6
ITTEN
  0
LAYER
  2
3
 70
     0
 62
     3
  6
CONTINUOUS
  0
ENDTAB
  0
TABLE
  2
STYLE
 70
     1
  0
STYLE
  2
STANDARD
 70
     0
 40
7.0
 41
0.8
 50
0.0
 71
     0
 42
7.0
  3
ISOCP
  4
B:\r13\com\fonts\bigfont.shx
  0
ENDTAB
  0
TABLE
  2
VIEW
 70
     0
  0
ENDTAB
  0
TABLE
  2
UCS
 70
     0
  0
ENDTAB
  0
TABLE
  2
APPID
 70
     1
  0
APPID
  2
ACAD
 70
     0
  0
ENDTAB
  0
TABLE
  2
DIMSTYLE
 70
     8
  0
DIMSTYLE
  2
STANDARD
 70
     0
  3

  4

  5

  6

  7

 40
1.0
 41
0.18
 42
0.0625
 43
0.38
 44
0.18
 45
0.0
 46
0.0
 47
0.0
 48
0.0
140
0.18
141
0.09
142
0.0
143
25.4
144
1.0
145
0.0
146
1.0
147
0.09
 71
     0
 72
     0
 73
     1
 74
     1
 75
     0
 76
     0
 77
     0
 78
     0
170
     0
171
     2
172
     0
173
     0
174
     0
175
     0
176
     0
177
     0
178
     0
  0
DIMSTYLE
  2
ISO-25
 70
     0
  3

  4

  5

  6

  7

 40
1.0
 41
2.5
 42
0.625
 43
3.75
 44
1.25
 45
0.0
 46
0.0
 47
0.0
 48
0.0
140
2.5
141
2.5
142
0.0
143
0.0394
144
1.0
145
1.0
146
1.0
147
0.625
 71
     0
 72
     0
 73
     1
 74
     0
 75
     0
 76
     0
 77
     1
 78
     8
170
     0
171
     2
172
     1
173
     0
174
     0
175
     0
176
     0
177
     0
178
     0
  0
DIMSTYLE
  2
ISO-35
 70
     0
  3

  4

  5

  6

  7

 40
1.0
 41
3.5
 42
0.875
 43
5.25
 44
1.75
 45
0.0
 46
0.0
 47
0.0
 48
0.0
140
3.5
141
3.5
142
0.0
143
0.0394
144
1.0
145
1.4
146
1.0
147
0.875
 71
     0
 72
     0
 73
     1
 74
     0
 75
     0
 76
     0
 77
     1
 78
     8
170
     0
171
     2
172
     1
173
     0
174
     0
175
     0
176
     0
177
     0
178
     0
  0
DIMSTYLE
  2
ISO-5
 70
     0
  3

  4

  5

  6

  7

 40
1.0
 41
5.0
 42
1.25
 43
7.5
 44
2.5
 45
0.0
 46
0.0
 47
0.0
 48
0.0
140
5.0
141
5.0
142
0.0
143
0.0394
144
1.0
145
2.0
146
1.0
147
1.25
 71
     0
 72
     0
 73
     1
 74
     0
 75
     0
 76
     0
 77
     1
 78
     8
170
     0
171
     2
172
     1
173
     0
174
     0
175
     0
176
     0
177
     0
178
     0
  0
DIMSTYLE
  2
ISO-7
 70
     0
  3

  4

  5

  6

  7

 40
1.0
 41
7.0
 42
1.75
 43
10.5
 44
3.5
 45
0.0
 46
0.0
 47
0.0
 48
0.0
140
7.0
141
7.0
142
0.0
143
0.0394
144
1.0
145
2.8
146
1.0
147
1.75
 71
     0
 72
     0
 73
     1
 74
     0
 75
     0
 76
     0
 77
     1
 78
     8
170
     0
171
     2
172
     1
173
     0
174
     0
175
     0
176
     0
177
     0
178
     0
  0
DIMSTYLE
  2
ISO1
 70
     0
  3

  4

  5

  6

  7

 40
1.0
 41
10.0
 42
2.5
 43
15.0
 44
5.0
 45
0.0
 46
0.0
 47
0.0
 48
0.0
140
10.0
141
10.0
142
0.0
143
0.0394
144
1.0
145
4.0
146
1.0
147
2.5
 71
     0
 72
     0
 73
     1
 74
     0
 75
     0
 76
     0
 77
     1
 78
     8
170
     0
171
     2
172
     1
173
     0
174
     0
175
     0
176
     0
177
     0
178
     0
  0
DIMSTYLE
  2
ISO1-4
 70
     0
  3

  4

  5

  6

  7

 40
1.0
 41
14.0
 42
3.5
 43
21.0
 44
7.0
 45
0.0
 46
0.0
 47
0.0
 48
0.0
140
14.0
141
14.0
142
0.0
143
0.0394
144
1.0
145
5.6
146
1.0
147
3.5
 71
     0
 72
     0
 73
     1
 74
     0
 75
     0
 76
     0
 77
     1
 78
     8
170
     0
171
     2
172
     1
173
     0
174
     0
175
     0
176
     0
177
     0
178
     0
  0
DIMSTYLE
  2
ISO2
 70
     0
  3

  4

  5

  6

  7

 40
1.0
 41
20.0
 42
5.0
 43
30.0
 44
10.0
 45
0.0
 46
0.0
 47
0.0
 48
0.0
140
20.0
141
20.0
142
0.0
143
0.0394
144
1.0
145
8.0
146
1.0
147
5.0
 71
     0
 72
     0
 73
     1
 74
     0
 75
     0
 76
     0
 77
     1
 78
     8
170
     0
171
     2
172
     1
173
     0
174
     0
175
     0
176
     0
177
     0
178
     0
  0
ENDTAB
  0
ENDSEC
  0
SECTION
  2
BLOCKS
  0
BLOCK
  8
0
  2
$MODEL_SPACE
 70
     0
 10
0.0
 20
0.0
 30
0.0
  3
$MODEL_SPACE
  1

  0
ENDBLK
  5
6A6
  8
0
  0
BLOCK
 67
     1
  8
0
  2
$PAPER_SPACE
 70
     0
 10
0.0
 20
0.0
 30
0.0
  3
$PAPER_SPACE
  1

  0
ENDBLK
  5
6A4
 67
     1
  8
0
  0
ENDSEC
  0
SECTION
  2
ENTITIES
  0
TEXT
  5
37
  8
0
 10
131.907298
 20
54.295271
 30
0.0
 40
4.55
  1
部品名称
 41
0.8
  0
TEXT
  5
38
  8
0
 10
131.907298
 20
38.335271
 30
0.0
 40
4.55
  1
品番
 41
0.8
  0
TEXT
  5
39
  8
0
 10
132.407298
 20
24.875271
 30
0.0
 40
4.55
  1
尺度
 41
0.8
  0
TEXT
  5
3A
  8
0
 10
132.907298
 20
10.415271
 30
0.0
 40
4.55
  1
図番
 41
0.8
  0
TEXT
  5
3F
  8
0
 10
132.0
 20
16.7
 30
0.0
 40
7.0
  1
１／１
 41
0.8
  0
TEXT
  5
502
  8
0
 10
133.75
 20
47.0
 30
0.0
 40
7.0
  1
ロッキング・キー
 41
0.8
  0
LINE
  5
590
  8
1
 10
17.0
 20
98.5
 30
0.0
 11
35.75
 21
98.5
 31
0.0
  0
LINE
  5
591
  8
1
 10
26.5
 20
114.5
 30
0.0
 11
26.5
 21
81.25
 31
0.0
  0
ARC
  5
598
  8
0
 10
26.5
 20
108.5
 30
0.0
 40
2.5
 50
30.009841
 51
149.990159
  0
ARC
  5
599
  8
0
 10
26.5
 20
88.5
 30
0.0
 40
2.5
 50
210.009841
 51
329.990159
  0
ARC
  5
59C
  8
0
 10
11.357143
 20
98.5
 30
0.0
 40
20.642857
 50
326.144974
 51
33.855026
  0
ARC
  5
59D
  8
0
 10
41.642857
 20
98.5
 30
0.0
 40
20.642857
 50
146.144974
 51
213.855026
  0
LINE
  5
5A0
  8
0
 10
71.976658
 20
111.0
 30
0.0
 11
80.7
 21
111.0
 31
0.0
  0
LINE
  5
5A1
  8
0
 10
81.0
 20
110.7
 30
0.0
 11
81.0
 21
98.5
 31
0.0
  0
LINE
  5
5A2
  8
0
 10
81.25
 20
98.5
 30
0.0
 11
81.25
 21
102.5
 31
0.0
  0
LINE
  5
5A3
  8
0
 10
81.25
 20
102.5
 30
0.0
 11
81.0
 21
102.5
 31
0.0
  0
ARC
  5
5A4
  8
0
 10
80.7
 20
110.7
 30
0.0
 40
0.3
 50
0.0
 51
90.0
  0
LINE
  5
5AB
  8
2
 10
81.0
 20
102.5
 30
0.0
 11
71.75
 21
102.5
 31
0.0
  0
LINE
  5
5AC
  8
2
 10
71.25
 20
102.0
 30
0.0
 11
71.25
 21
98.5
 31
0.0
  0
LINE
  5
5AD
  8
2
 10
71.75
 20
102.5
 30
0.0
 11
71.25
 21
102.0
 31
0.0
  0
LINE
  5
5B4
  8
2
 10
81.0
 20
109.5
 30
0.0
 11
73.25
 21
109.5
 31
0.0
  0
LINE
  5
5B5
  8
2
 10
73.25
 20
109.5
 30
0.0
 11
73.25
 21
106.5
 31
0.0
  0
LINE
  5
5B6
  8
2
 10
73.25
 20
106.5
 30
0.0
 11
81.0
 21
106.5
 31
0.0
  0
LINE
  5
5B7
  8
2
 10
73.25
 20
90.5
 30
0.0
 11
81.0
 21
90.5
 31
0.0
  0
LINE
  5
5B8
  8
2
 10
81.0
 20
87.5
 30
0.0
 11
73.25
 21
87.5
 31
0.0
  0
LINE
  5
5B9
  8
2
 10
81.0
 20
94.5
 30
0.0
 11
71.75
 21
94.5
 31
0.0
  0
LINE
  5
5BB
  8
0
 10
71.976658
 20
86.0
 30
0.0
 11
80.7
 21
86.0
 31
0.0
  0
LINE
  5
5BD
  8
2
 10
71.25
 20
95.0
 30
0.0
 11
71.25
 21
98.5
 31
0.0
  0
LINE
  5
5C0
  8
2
 10
71.75
 20
94.5
 30
0.0
 11
71.25
 21
95.0
 31
0.0
  0
LINE
  5
5C1
  8
2
 10
73.25
 20
87.5
 30
0.0
 11
73.25
 21
90.5
 31
0.0
  0
LINE
  5
5C2
  8
0
 10
81.0
 20
86.3
 30
0.0
 11
81.0
 21
98.5
 31
0.0
  0
LINE
  5
5C7
  8
0
 10
81.25
 20
98.5
 30
0.0
 11
81.25
 21
94.5
 31
0.0
  0
LINE
  5
5C8
  8
0
 10
81.25
 20
94.5
 30
0.0
 11
81.0
 21
94.5
 31
0.0
  0
ARC
  5
5C9
  8
0
 10
80.7
 20
86.3
 30
0.0
 40
0.3
 50
270.0
 51
0.0
  0
ARC
  5
5CC
  8
0
 10
98.034091
 20
98.5
 30
0.0
 40
29.784091
 50
157.113231
 51
202.886769
  0
ARC
  5
5CD
  8
0
 10
71.976658
 20
109.5
 30
0.0
 40
1.5
 50
90.0
 51
157.113231
  0
ARC
  5
5CE
  8
0
 10
71.976658
 20
87.5
 30
0.0
 40
1.5
 50
202.886769
 51
270.0
  0
LINE
  5
5CF
  8
1
 10
136.25
 20
114.5
 30
0.0
 11
136.25
 21
81.25
 31
0.0
  0
LINE
  5
5D0
  8
1
 10
126.75
 20
98.5
 30
0.0
 11
145.5
 21
98.5
 31
0.0
  0
ARC
  5
5D1
  8
0
 10
136.25
 20
88.5
 30
0.0
 40
2.5
 50
210.009841
 51
329.990159
  0
ARC
  5
5D2
  8
0
 10
136.25
 20
108.5
 30
0.0
 40
2.5
 50
30.009841
 51
149.990159
  0
ARC
  5
5D3
  8
0
 10
151.392857
 20
98.5
 30
0.0
 40
20.642857
 50
146.144974
 51
213.855026
  0
ARC
  5
5D4
  8
0
 10
121.107143
 20
98.5
 30
0.0
 40
20.642857
 50
326.144974
 51
33.855026
  0
CIRCLE
  5
5D5
  8
0
 10
136.25
 20
98.5
 30
0.0
 40
1.75
  0
CIRCLE
  5
5D6
  8
0
 10
136.25
 20
98.5
 30
0.0
 40
2.5
  0
CIRCLE
  5
5D7
  8
0
 10
136.25
 20
98.5
 30
0.0
 40
4.0
  0
CIRCLE
  5
5D8
  8
0
 10
136.25
 20
108.0
 30
0.0
 40
1.5
  0
CIRCLE
  5
5D9
  8
0
 10
136.25
 20
89.0
 30
0.0
 40
1.5
  0
LINE
  5
5DA
  8
1
 10
131.25
 20
108.0
 30
0.0
 11
141.25
 21
108.0
 31
0.0
  0
LINE
  5
5DB
  8
1
 10
131.25
 20
89.0
 30
0.0
 11
141.25
 21
89.0
 31
0.0
  0
LINE
  5
5DD
  8
0
 10
81.0
 20
141.0
 30
0.0
 11
81.0
 21
146.5
 31
0.0
  0
LINE
  5
5DE
  8
0
 10
81.0
 20
146.5
 30
0.0
 11
69.75
 21
146.5
 31
0.0
  0
LINE
  5
5DF
  8
0
 10
68.25
 20
145.0
 30
0.0
 11
68.25
 21
141.0
 31
0.0
  0
ARC
  5
5E0
  8
0
 10
69.75
 20
145.0
 30
0.0
 40
1.5
 50
90.0
 51
180.0
  0
LINE
  5
5E1
  8
0
 10
68.25
 20
137.0
 30
0.0
 11
68.25
 21
141.0
 31
0.0
  0
LINE
  5
5E2
  8
0
 10
81.0
 20
141.0
 30
0.0
 11
81.0
 21
135.5
 31
0.0
  0
LINE
  5
5E3
  8
0
 10
81.0
 20
135.5
 30
0.0
 11
69.75
 21
135.5
 31
0.0
  0
ARC
  5
5E4
  8
0
 10
69.75
 20
137.0
 30
0.0
 40
1.5
 50
180.0
 51
270.0
  0
ARC
  5
5FD
  8
0
 10
62.958333
 20
141.0
 30
0.0
 40
8.541667
 50
335.810486
 51
24.189514
  0
ARC
  5
5FE
  8
0
 10
67.875
 20
143.125
 30
0.0
 40
3.186887
 50
25.559965
 51
64.440035
  0
ARC
  5
5FF
  8
0
 10
67.875
 20
138.875
 30
0.0
 40
3.186887
 50
295.559965
 51
334.440035
  0
TEXT
  5
611
  8
0
 10
133.75
 20
30.5
 30
0.0
 40
7.0
  1
ＬＳ－５－
 41
0.8
  0
LINE
  5
613
  8
0
 10
81.25
 20
101.0
 30
0.0
 11
96.5
 21
101.0
 31
0.0
  0
LINE
  5
614
  8
0
 10
97.25
 20
100.25
 30
0.0
 11
97.25
 21
98.5
 31
0.0
  0
LINE
  5
615
  8
0
 10
96.5
 20
101.0
 30
0.0
 11
97.25
 21
100.25
 31
0.0
  0
LINE
  5
616
  8
1
 10
64.75
 20
98.5
 30
0.0
 11
100.75
 21
98.5
 31
0.0
  0
LINE
  5
617
  8
0
 10
96.5
 20
101.0
 30
0.0
 11
96.5
 21
98.5
 31
0.0
  0
LINE
  5
618
  8
0
 10
97.25
 20
100.25
 30
0.0
 11
82.25
 21
100.25
 31
0.0
  0
LINE
  5
619
  8
0
 10
82.25
 20
101.0
 30
0.0
 11
82.25
 21
98.5
 31
0.0
  0
LINE
  5
61A
  8
0
 10
97.25
 20
96.75
 30
0.0
 11
82.25
 21
96.75
 31
0.0
  0
LINE
  5
61B
  8
0
 10
81.25
 20
96.0
 30
0.0
 11
96.5
 21
96.0
 31
0.0
  0
LINE
  5
61C
  8
0
 10
82.25
 20
96.0
 30
0.0
 11
82.25
 21
98.5
 31
0.0
  0
LINE
  5
61D
  8
0
 10
96.5
 20
96.0
 30
0.0
 11
96.5
 21
98.5
 31
0.0
  0
LINE
  5
61E
  8
0
 10
96.5
 20
96.0
 30
0.0
 11
97.25
 21
96.75
 31
0.0
  0
LINE
  5
61F
  8
0
 10
97.25
 20
96.75
 30
0.0
 11
97.25
 21
98.5
 31
0.0
  0
LINE
  5
620
  8
0
 10
81.25
 20
138.5
 30
0.0
 11
96.5
 21
138.5
 31
0.0
  0
LINE
  5
621
  8
0
 10
97.25
 20
139.25
 30
0.0
 11
82.25
 21
139.25
 31
0.0
  0
LINE
  5
622
  8
0
 10
97.25
 20
142.75
 30
0.0
 11
82.25
 21
142.75
 31
0.0
  0
LINE
  5
623
  8
0
 10
81.25
 20
143.5
 30
0.0
 11
96.5
 21
143.5
 31
0.0
  0
LINE
  5
624
  8
0
 10
82.25
 20
138.5
 30
0.0
 11
82.25
 21
141.0
 31
0.0
  0
LINE
  5
625
  8
0
 10
81.25
 20
141.0
 30
0.0
 11
81.25
 21
137.0
 31
0.0
  0
LINE
  5
626
  8
0
 10
81.25
 20
137.0
 30
0.0
 11
81.0
 21
137.0
 31
0.0
  0
LINE
  5
627
  8
0
 10
81.25
 20
141.0
 30
0.0
 11
81.25
 21
145.0
 31
0.0
  0
LINE
  5
628
  8
0
 10
82.25
 20
143.5
 30
0.0
 11
82.25
 21
141.0
 31
0.0
  0
LINE
  5
629
  8
0
 10
81.25
 20
145.0
 30
0.0
 11
81.0
 21
145.0
 31
0.0
  0
LINE
  5
62A
  8
0
 10
97.25
 20
139.25
 30
0.0
 11
97.25
 21
141.0
 31
0.0
  0
LINE
  5
62B
  8
0
 10
96.5
 20
138.5
 30
0.0
 11
96.5
 21
141.0
 31
0.0
  0
LINE
  5
62C
  8
0
 10
96.5
 20
138.5
 30
0.0
 11
97.25
 21
139.25
 31
0.0
  0
LINE
  5
62D
  8
0
 10
96.5
 20
143.5
 30
0.0
 11
96.5
 21
141.0
 31
0.0
  0
LINE
  5
62E
  8
0
 10
96.5
 20
143.5
 30
0.0
 11
97.25
 21
142.75
 31
0.0
  0
LINE
  5
62F
  8
0
 10
97.25
 20
142.75
 30
0.0
 11
97.25
 21
141.0
 31
0.0
  0
TEXT
  5
650
  8
0
 10
167.75
 20
31.0
 30
0.0
 40
7.0
  1
１６
 41
0.8
  0
LINE
  5
651
  8
1
 10
64.75
 20
141.0
 30
0.0
 11
101.0
 21
141.0
 31
0.0
  0
LINE
  5
652
  8
0
 10
68.25
 20
46.25
 30
0.0
 11
68.25
 21
50.25
 31
0.0
  0
LINE
  5
653
  8
0
 10
81.0
 20
50.25
 30
0.0
 11
81.0
 21
44.75
 31
0.0
  0
ARC
  5
654
  8
0
 10
62.958333
 20
50.25
 30
0.0
 40
8.541667
 50
335.810486
 51
24.189514
  0
LINE
  5
655
  8
0
 10
81.25
 20
50.25
 30
0.0
 11
81.25
 21
46.25
 31
0.0
  0
LINE
  5
656
  8
0
 10
81.0
 20
44.75
 30
0.0
 11
69.75
 21
44.75
 31
0.0
  0
ARC
  5
657
  8
0
 10
69.75
 20
46.25
 30
0.0
 40
1.5
 50
180.0
 51
270.0
  0
ARC
  5
658
  8
0
 10
67.875
 20
48.125
 30
0.0
 40
3.186887
 50
295.559965
 51
334.440035
  0
LINE
  5
659
  8
0
 10
81.25
 20
46.25
 30
0.0
 11
81.0
 21
46.25
 31
0.0
  0
LINE
  5
65A
  8
1
 10
64.75
 20
50.25
 30
0.0
 11
101.0
 21
50.25
 31
0.0
  0
LINE
  5
65B
  8
0
 10
81.0
 20
55.75
 30
0.0
 11
69.75
 21
55.75
 31
0.0
  0
LINE
  5
65C
  8
0
 10
68.25
 20
54.25
 30
0.0
 11
68.25
 21
50.25
 31
0.0
  0
ARC
  5
65D
  8
0
 10
67.875
 20
52.375
 30
0.0
 40
3.186887
 50
25.559965
 51
64.440035
  0
ARC
  5
65E
  8
0
 10
69.75
 20
54.25
 30
0.0
 40
1.5
 50
90.0
 51
180.0
  0
LINE
  5
65F
  8
0
 10
81.25
 20
47.75
 30
0.0
 11
96.5
 21
47.75
 31
0.0
  0
LINE
  5
660
  8
0
 10
97.25
 20
48.5
 30
0.0
 11
82.25
 21
48.5
 31
0.0
  0
LINE
  5
661
  8
0
 10
97.25
 20
52.0
 30
0.0
 11
82.25
 21
52.0
 31
0.0
  0
LINE
  5
662
  8
0
 10
81.25
 20
52.75
 30
0.0
 11
96.5
 21
52.75
 31
0.0
  0
LINE
  5
663
  8
0
 10
81.0
 20
50.25
 30
0.0
 11
81.0
 21
55.75
 31
0.0
  0
LINE
  5
664
  8
0
 10
81.25
 20
50.25
 30
0.0
 11
81.25
 21
54.25
 31
0.0
  0
LINE
  5
665
  8
0
 10
82.25
 20
52.75
 30
0.0
 11
82.25
 21
50.25
 31
0.0
  0
LINE
  5
666
  8
0
 10
82.25
 20
47.75
 30
0.0
 11
82.25
 21
50.25
 31
0.0
  0
LINE
  5
667
  8
0
 10
81.25
 20
54.25
 30
0.0
 11
81.0
 21
54.25
 31
0.0
  0
LINE
  5
668
  8
0
 10
96.5
 20
52.75
 30
0.0
 11
97.25
 21
52.0
 31
0.0
  0
LINE
  5
669
  8
0
 10
96.5
 20
47.75
 30
0.0
 11
97.25
 21
48.5
 31
0.0
  0
LINE
  5
66A
  8
0
 10
96.5
 20
52.75
 30
0.0
 11
96.5
 21
50.25
 31
0.0
  0
LINE
  5
66B
  8
0
 10
96.5
 20
47.75
 30
0.0
 11
96.5
 21
50.25
 31
0.0
  0
LINE
  5
66C
  8
0
 10
97.25
 20
52.0
 30
0.0
 11
97.25
 21
50.25
 31
0.0
  0
LINE
  5
66D
  8
0
 10
97.25
 20
48.5
 30
0.0
 11
97.25
 21
50.25
 31
0.0
  0
TEXT
  5
673
  8
0
 10
129.75
 20
2.0
 30
0.0
 40
7.0
  1
ＬＳ０００５１６
 41
0.8
  0
VIEWPORT
  5
22
 67
     1
  8
0
 10
261.517699
 20
148.5
 30
0.0
 40
523.035398
 41
297.0
 68
    -1
 69
     1
1001
ACAD
1000
MVIEW
1002
{
1070
    16
1010
0.0
1020
0.0
1030
0.0
1010
0.0
1020
0.0
1030
1.0
1040
0.0
1040
297.0
1040
261.517699
1040
148.5
1040
50.0
1040
0.0
1040
0.0
1070
     0
1070
   100
1070
     1
1070
     1
1070
     0
1070
     0
1070
     0
1070
     0
1040
0.0
1040
0.0
1040
0.0
1040
1.0
1040
1.0
1040
10.0
1040
10.0
1070
     0
1002
{
1002
}
1002
}
  0
ENDSEC
  0
EOF
