  0
SECTION
  2
HEADER
  9
$ACADVER
  1
AC1009
  9
$INSBASE
 10
0.0
 20
0.0
 30
0.0
  9
$EXTMIN
 10
66.482895704781185
 20
53.996704667337092
 30
-0.0015258207003583
  9
$EXTMAX
 10
313.50956799067723
 20
216.00659229979681
 30
0.0000000349246037
  9
$LIMMIN
 10
0.0
 20
0.0
  9
$LIMMAX
 10
187.5
 20
135.0
  9
$ORTHOMODE
 70
     1
  9
$REGENMODE
 70
     1
  9
$FILLMODE
 70
     1
  9
$QTEXTMODE
 70
     0
  9
$MIRRTEXT
 70
     0
  9
$DRAGMODE
 70
     2
  9
$LTSCALE
 40
5.0
  9
$OSMODE
 70
   231
  9
$ATTMODE
 70
     1
  9
$TEXTSIZE
 40
4.000000000000048
  9
$TRACEWID
 40
0.05
  9
$TEXTSTYLE
  7
STANDARD
  9
$CLAYER
  8
0
  9
$CELTYPE
  6
BYLAYER
  9
$CECOLOR
 62
   256
  9
$DIMSCALE
 40
0.5
  9
$DIMASZ
 40
3.0
  9
$DIMEXO
 40
2.0
  9
$DIMDLI
 40
0.38
  9
$DIMRND
 40
0.0
  9
$DIMDLE
 40
0.0
  9
$DIMEXE
 40
2.0
  9
$DIMTP
 40
0.0
  9
$DIMTM
 40
0.0
  9
$DIMTXT
 40
3.2000000000000002
  9
$DIMCEN
 40
0.09
  9
$DIMTSZ
 40
0.0
  9
$DIMTOL
 70
     0
  9
$DIMLIM
 70
     0
  9
$DIMTIH
 70
     0
  9
$DIMTOH
 70
     0
  9
$DIMSE1
 70
     0
  9
$DIMSE2
 70
     0
  9
$DIMTAD
 70
     1
  9
$DIMZIN
 70
     0
  9
$DIMBLK
  1

  9
$DIMASO
 70
     1
  9
$DIMSHO
 70
     0
  9
$DIMPOST
  1

  9
$DIMAPOST
  1

  9
$DIMALT
 70
     0
  9
$DIMALTD
 70
     2
  9
$DIMALTF
 40
25.399999999999999
  9
$DIMLFAC
 40
1.0
  9
$DIMTOFL
 70
     0
  9
$DIMTVP
 40
1.6000000000000001
  9
$DIMTIX
 70
     1
  9
$DIMSOXD
 70
     0
  9
$DIMSAH
 70
     0
  9
$DIMBLK1
  1

  9
$DIMBLK2
  1

  9
$DIMSTYLE
  2
STANDARD
  9
$DIMCLRD
 70
     0
  9
$DIMCLRE
 70
     0
  9
$DIMCLRT
 70
     0
  9
$DIMTFAC
 40
1.0
  9
$DIMGAP
 40
0.09
  9
$LUNITS
 70
     2
  9
$LUPREC
 70
     4
  9
$SKETCHINC
 40
0.1
  9
$FILLETRAD
 40
1.8999999999999999
  9
$AUNITS
 70
     0
  9
$AUPREC
 70
     0
  9
$MENU
  1
E:\r13\win\SUPPORT\ACAD
  9
$ELEVATION
 40
0.0
  9
$PELEVATION
 40
0.0
  9
$THICKNESS
 40
0.0
  9
$LIMCHECK
 70
     0
  9
$BLIPMODE
 70
     1
  9
$CHAMFERA
 40
0.0
  9
$CHAMFERB
 40
0.0
  9
$SKPOLY
 70
     0
  9
$TDCREATE
 40
2451582.7236756939
  9
$TDUPDATE
 40
2453236.821008021
  9
$TDINDWG
 40
0.0001542824
  9
$TDUSRTIMER
 40
0.0001542824
  9
$USRTIMER
 70
     1
  9
$ANGBASE
 50
0.0
  9
$ANGDIR
 70
     0
  9
$PDMODE
 70
     0
  9
$PDSIZE
 40
0.0
  9
$PLINEWID
 40
0.0
  9
$COORDS
 70
     0
  9
$SPLFRAME
 70
     0
  9
$SPLINETYPE
 70
     6
  9
$SPLINESEGS
 70
     8
  9
$ATTDIA
 70
     0
  9
$ATTREQ
 70
     1
  9
$HANDLING
 70
-16383
  9
$HANDSEED
  5
3EC8
  9
$SURFTAB1
 70
     6
  9
$SURFTAB2
 70
     6
  9
$SURFTYPE
 70
     6
  9
$SURFU
 70
     6
  9
$SURFV
 70
     6
  9
$UCSNAME
  2

  9
$UCSORG
 10
0.0
 20
0.0
 30
0.0
  9
$UCSXDIR
 10
1.0
 20
0.0
 30
0.0
  9
$UCSYDIR
 10
0.0
 20
1.0
 30
0.0
  9
$PUCSNAME
  2

  9
$PUCSORG
 10
0.0
 20
0.0
 30
0.0
  9
$PUCSXDIR
 10
1.0
 20
0.0
 30
0.0
  9
$PUCSYDIR
 10
0.0
 20
1.0
 30
0.0
  9
$USERI1
 70
     0
  9
$USERI2
 70
     1
  9
$USERI3
 70
     1
  9
$USERI4
 70
     0
  9
$USERI5
 70
     0
  9
$USERR1
 40
0.0
  9
$USERR2
 40
0.0
  9
$USERR3
 40
0.0
  9
$USERR4
 40
0.0
  9
$USERR5
 40
0.0
  9
$WORLDVIEW
 70
     1
  9
$SHADEDGE
 70
     3
  9
$SHADEDIF
 70
    70
  9
$TILEMODE
 70
     1
  9
$MAXACTVP
 70
    16
  9
$PLIMCHECK
 70
     0
  9
$PEXTMIN
 10
1.0000000000000000E+020
 20
1.0000000000000000E+020
 30
1.0000000000000000E+020
  9
$PEXTMAX
 10
-1.0000000000000000E+020
 20
-1.0000000000000000E+020
 30
-1.0000000000000000E+020
  9
$PLIMMIN
 10
0.0
 20
0.0
  9
$PLIMMAX
 10
12.0
 20
9.0
  9
$UNITMODE
 70
     0
  9
$VISRETAIN
 70
     0
  9
$PLINEGEN
 70
     0
  9
$PSLTSCALE
 70
     0
  0
ENDSEC
  0
SECTION
  2
TABLES
  0
TABLE
  2
VPORT
 70
     3
  0
VPORT
  2
*ACTIVE
 70
     0
 10
0.0
 20
0.0
 11
1.0
 21
1.0
 12
189.99623184772921
 22
135.0016484835669
 13
0.0
 23
0.0
 14
5.0
 24
5.0
 15
5.0
 25
5.0
 16
0.0
 26
0.0
 36
1.0
 17
0.0
 27
0.0
 37
0.0
 40
294.2215135748707
 41
0.9407114624505929
 42
50.0
 43
0.0
 44
0.0
 50
0.0
 51
0.0
 71
     0
 72
   500
 73
     1
 74
     0
 75
     0
 76
     0
 77
     0
 78
     2
  0
ENDTAB
  0
TABLE
  2
LTYPE
 70
     3
  0
LTYPE
  2
CONTINUOUS
 70
     0
  3
Solid Line
 72
    65
 73
     0
 40
0.0
  0
LTYPE
  2
CENTER
 70
     0
  3
____ _ ____ _ ____ _ ____ _ ____ _ ____ _ ____
 72
    65
 73
     4
 40
2.0
 49
1.25
 49
-0.25
 49
0.25
 49
-0.25
  0
LTYPE
  2
HIDDEN
 70
     0
  3
_ _ _ _ _ _ _ _ _ _ _ _ _ _ _ _ _ _ _ _ _ _ _
 72
    65
 73
     2
 40
0.375
 49
0.25
 49
-0.125
  0
ENDTAB
  0
TABLE
  2
LAYER
 70
     4
  0
LAYER
  2
0
 70
     0
 62
     7
  6
CONTINUOUS
  0
LAYER
  2
1
 70
     0
 62
     1
  6
CENTER
  0
LAYER
  2
3
 70
     0
 62
     3
  6
CONTINUOUS
  0
LAYER
  2
2
 70
     0
 62
     2
  6
HIDDEN
  0
ENDTAB
  0
TABLE
  2
STYLE
 70
     1
  0
STYLE
  2
STANDARD
 70
     0
 40
0.0
 41
1.0
 50
0.0
 71
     0
 42
4.000000000000048
  3
TXT
  4
BIGFONT
  0
ENDTAB
  0
TABLE
  2
VIEW
 70
     1
  0
VIEW
  2
ALL
 70
     0
 40
135.0
 10
110.4957983193277
 20
67.5
 41
0.0
 11
0.0
 21
0.0
 31
1.0
 12
0.0
 22
0.0
 32
0.0
 42
0.0
 43
0.0
 44
0.0
 50
0.0
 71
     0
  0
ENDTAB
  0
TABLE
  2
UCS
 70
     0
  0
ENDTAB
  0
TABLE
  2
APPID
 70
     1
  0
APPID
  2
ACAD
 70
     0
  0
ENDTAB
  0
TABLE
  2
DIMSTYLE
 70
     1
  0
DIMSTYLE
  2
STANDARD
 70
     0
  3

  4

  5

  6

  7

 40
1.0
 41
0.18
 42
0.0625
 43
0.38
 44
0.18
 45
0.0
 46
0.0
 47
0.0
 48
0.0
140
0.18
141
0.09
142
0.0
143
25.399999999999999
144
1.0
145
0.0
146
1.0
147
0.09
 71
     0
 72
     0
 73
     1
 74
     1
 75
     0
 76
     0
 77
     0
 78
     0
170
     0
171
     2
172
     0
173
     0
174
     0
175
     0
176
     0
177
     0
178
     0
  0
ENDTAB
  0
ENDSEC
  0
SECTION
  2
BLOCKS
  0
BLOCK
  8
0
  2
$MODEL_SPACE
 70
     0
 10
0.0
 20
0.0
 30
0.0
  3
$MODEL_SPACE
  1

  0
ENDBLK
  5
3E70
  8
0
  0
BLOCK
 67
     1
  8
0
  2
$PAPER_SPACE
 70
     0
 10
0.0
 20
0.0
 30
0.0
  3
$PAPER_SPACE
  1

  0
ENDBLK
  5
3E6E
 67
     1
  8
0
  0
BLOCK
  8
0
  2
STDGX5
 70
     0
 10
0.0
 20
0.0
 30
0.0
  3
STDGX5
  1

  0
ENDBLK
  5
3DA
  8
0
  0
ENDSEC
  0
SECTION
  2
ENTITIES
  0
INSERT
  5
404
  8
0
  2
STDGX5
 10
0.0
 20
0.0
 30
0.0
 41
0.125
 42
0.125
 43
0.125
  0
INSERT
  5
405
  8
0
  2
STDGX5
 10
0.0
 20
0.0
 30
0.0
 41
0.125
 42
0.125
 43
0.125
  0
INSERT
  5
406
  8
0
  2
STDGX5
 10
34.375
 20
0.0
 30
0.0
 41
0.125
 42
0.125
 43
0.125
  0
INSERT
  5
407
  8
0
  2
STDGX5
 10
34.375
 20
0.0
 30
0.0
 41
0.125
 42
0.125
 43
0.125
  0
INSERT
  5
408
  8
0
  2
STDGX5
 10
0.0
 20
0.0
 30
0.0
 41
0.25
 42
0.25
 43
0.25
  0
INSERT
  5
409
  8
0
  2
STDGX5
 10
0.0
 20
0.0
 30
0.0
 41
0.25
 42
0.25
 43
0.25
  0
INSERT
  5
40A
  8
0
  2
STDGX5
 10
68.75
 20
0.0
 30
0.0
 41
0.25
 42
0.25
 43
0.25
  0
INSERT
  5
40B
  8
0
  2
STDGX5
 10
68.75
 20
0.0
 30
0.0
 41
0.25
 42
0.25
 43
0.25
  0
INSERT
  5
40D
  8
0
  2
STDGX5
 10
-17.5
 20
-50.0
 30
0.0
 41
0.1666666666666666
 42
0.1666666666666666
 43
0.1666666666666666
  0
INSERT
  5
40E
  8
0
  2
STDGX5
 10
-17.5
 20
-50.0
 30
0.0
 41
0.1666666666666666
 42
0.1666666666666666
 43
0.1666666666666666
  0
INSERT
  5
40F
  8
0
  2
STDGX5
 10
28.333333333333321
 20
-50.0
 30
0.0
 41
0.1666666666666666
 42
0.1666666666666666
 43
0.1666666666666666
  0
INSERT
  5
410
  8
0
  2
STDGX5
 10
28.333333333333321
 20
-50.0
 30
0.0
 41
0.1666666666666666
 42
0.1666666666666666
 43
0.1666666666666666
  0
INSERT
  5
412
  8
0
  2
STDGX5
 10
-17.5
 20
-50.0
 30
0.0
 41
0.1666666666666666
 42
0.1666666666666666
 43
0.1666666666666666
  0
INSERT
  5
413
  8
0
  2
STDGX5
 10
-17.5
 20
-50.0
 30
0.0
 41
0.1666666666666666
 42
0.1666666666666666
 43
0.1666666666666666
  0
INSERT
  5
414
  8
0
  2
STDGX5
 10
28.333333333333329
 20
-50.0
 30
0.0
 41
0.1666666666666666
 42
0.1666666666666666
 43
0.1666666666666666
  0
INSERT
  5
415
  8
0
  2
STDGX5
 10
28.333333333333329
 20
-50.0
 30
0.0
 41
0.1666666666666666
 42
0.1666666666666666
 43
0.1666666666666666
  0
INSERT
  5
416
  8
0
  2
STDGX5
 10
0.0
 20
0.0
 30
0.0
 41
0.5
 42
0.5
 43
0.5
  0
INSERT
  5
417
  8
0
  2
STDGX5
 10
0.0
 20
0.0
 30
0.0
 41
0.5
 42
0.5
 43
0.5
  0
INSERT
  5
418
  8
0
  2
STDGX5
 10
137.5
 20
0.0
 30
0.0
 41
0.5
 42
0.5
 43
0.5
  0
INSERT
  5
419
  8
0
  2
STDGX5
 10
137.5
 20
0.0
 30
0.0
 41
0.5
 42
0.5
 43
0.5
  0
LINE
  5
3A00
  8
0
 10
187.26220041578239
 20
61.499999999999972
 30
0.0
 11
188.26220041578239
 21
62.5
 31
0.0
  0
LINE
  5
3A01
  8
0
 10
187.26220041578239
 20
78.499999999999972
 30
0.0
 11
188.26220041578239
 21
77.499999999999972
 31
0.0
  0
LINE
  5
3A02
  8
0
 10
187.26220041578239
 20
191.5
 30
0.0
 11
188.26220041578239
 21
192.5
 31
0.0
  0
LINE
  5
3A03
  8
0
 10
187.26220041578239
 20
208.49999999999989
 30
0.0
 11
188.26220041578239
 21
207.5
 31
0.0
  0
LINE
  5
3A04
  8
1
 10
223.56220041578271
 20
70.0
 30
0.0
 11
161.5622004157824
 21
69.999999999999986
 31
0.0
  0
LINE
  5
3A05
  8
1
 10
223.56220041578271
 20
200.0
 30
0.0
 11
161.56220041578251
 21
200.0
 31
0.0
  0
LINE
  5
3A06
  8
0
 10
187.26220041578239
 20
143.49999999999989
 30
0.0
 11
188.26220041578239
 21
142.49999999999989
 31
0.0
  0
LINE
  5
3A07
  8
0
 10
187.26220041578239
 20
126.4999999999999
 30
0.0
 11
188.26220041578239
 21
127.5
 31
0.0
  0
LINE
  5
3A08
  8
1
 10
223.56220041578271
 20
134.99999999999989
 30
0.0
 11
161.56220041578251
 21
135.0
 31
0.0
  0
LINE
  5
3A0A
  8
1
 10
87.5
 20
156.0
 30
0.0
 11
87.5
 21
114.0
 31
0.0
  0
LINE
  5
3A0B
  8
0
 10
167.5622004157824
 20
139.0923189255065
 30
0.0
 11
167.56220041578251
 21
135.8877873734761
 31
0.0
  0
LINE
  5
3A0C
  8
0
 10
166.5622004157824
 20
119.9999999999999
 30
0.0
 11
166.5622004157824
 21
150.0
 31
0.0
  0
LINE
  5
3A0D
  8
0
 10
178.5622004157824
 20
151.0
 30
0.0
 11
178.5622004157824
 21
119.0
 31
0.0
  0
LINE
  5
3A0E
  8
0
 10
187.26220041578239
 20
143.49999999999989
 30
0.0
 11
187.26220041578239
 21
126.5
 31
0.0
  0
LINE
  5
3A0F
  8
0
 10
179.5622004157824
 20
150.0
 30
0.0
 11
179.5622004157824
 21
120.0
 31
0.0
  0
LINE
  5
3A10
  8
2
 10
171.96220041578249
 20
145.49999999999989
 30
0.0
 11
171.96220041578241
 21
124.4999999999999
 31
0.0
  0
LINE
  5
3A11
  8
2
 10
171.46220041578241
 20
124.4999999999999
 30
0.0
 11
171.46220041578249
 21
145.49999999999989
 31
0.0
  0
ARC
  5
3A12
  8
0
 10
71.403368461703678
 20
140.2301126297962
 30
0.0
 40
1.3
 50
298.928274776698
 51
25.071725223302089
  0
ARC
  5
3A13
  8
0
 10
103.59663153829619
 20
140.2301126297962
 30
0.0
 40
1.3
 50
154.92827477669789
 51
241.07172522330211
  0
CIRCLE
  5
3A14
  8
0
 10
87.5
 20
135.0
 30
0.0
 40
10.5
  0
CIRCLE
  5
3A15
  8
0
 10
87.5
 20
135.0
 30
0.0
 40
13.5
  0
CIRCLE
  5
3A16
  8
0
 10
87.5
 20
135.0
 30
0.0
 40
15.0
  0
CIRCLE
  5
3A17
  8
0
 10
87.5
 20
135.0
 30
0.0
 40
16.0
  0
LINE
  5
3A18
  8
1
 10
108.4999999999999
 20
135.0
 30
0.0
 11
66.5
 21
135.0
 31
0.0
  0
ARC
  5
3A19
  8
0
 10
77.551734604949331
 20
121.3073873702033
 30
0.0
 40
1.3
 50
10.928274776697981
 51
97.071725223302096
  0
ARC
  5
3A1A
  8
0
 10
73.807387370203287
 20
125.0517346049494
 30
0.0
 40
1.3
 50
352.92827477669778
 51
79.071725223302096
  0
ARC
  5
3A1B
  8
0
 10
82.269887370203719
 20
118.90336846170371
 30
0.0
 40
1.3
 50
28.928274776697879
 51
115.0717252233021
  0
ARC
  5
3A1C
  8
0
 10
71.403368461703678
 20
129.76988737020369
 30
0.0
 40
1.3
 50
334.92827477669789
 51
61.071725223302089
  0
ARC
  5
3A1D
  8
0
 10
70.574999999999108
 20
135.0
 30
0.0
 40
1.3
 50
316.92827477669778
 51
43.071725223302089
  0
ARC
  5
3A1E
  8
0
 10
92.730112629796224
 20
118.90336846170371
 30
0.0
 40
1.3
 50
64.928274776697933
 51
151.07172522330211
  0
ARC
  5
3A1F
  8
0
 10
87.5
 20
118.07499999999909
 30
0.0
 40
1.3
 50
46.928274776697918
 51
133.07172522330211
  0
ARC
  5
3A20
  8
0
 10
97.448265395050626
 20
121.3073873702033
 30
0.0
 40
1.3
 50
82.928274776697947
 51
169.07172522330211
  0
ARC
  5
3A21
  8
0
 10
101.1926126297967
 20
125.0517346049493
 30
0.0
 40
1.3
 50
100.9282747766979
 51
187.071725223302
  0
ARC
  5
3A22
  8
0
 10
103.59663153829629
 20
129.76988737020369
 30
0.0
 40
1.3
 50
118.9282747766979
 51
205.07172522330211
  0
ARC
  5
3A23
  8
0
 10
104.42500000000079
 20
135.0
 30
0.0
 40
1.3
 50
136.92827477669789
 51
223.07172522330211
  0
LINE
  5
3A24
  8
2
 10
171.46220041578241
 20
59.499999999999972
 30
0.0
 11
171.46220041578249
 21
80.499999999999972
 31
0.0
  0
LINE
  5
3A25
  8
2
 10
171.96220041578249
 20
80.499999999999972
 30
0.0
 11
171.96220041578241
 21
59.499999999999972
 31
0.0
  0
LINE
  5
3A26
  8
0
 10
179.5622004157824
 20
85.0
 30
0.0
 11
179.5622004157824
 21
54.999999999999993
 31
0.0
  0
LINE
  5
3A27
  8
0
 10
187.26220041578239
 20
78.499999999999972
 30
0.0
 11
187.26220041578239
 21
61.500000000000021
 31
0.0
  0
LINE
  5
3A28
  8
0
 10
178.5622004157824
 20
86.0
 30
0.0
 11
178.5622004157824
 21
54.0
 31
0.0
  0
LINE
  5
3A29
  8
0
 10
166.5622004157824
 20
54.999999999999972
 30
0.0
 11
166.5622004157824
 21
85.0
 31
0.0
  0
LINE
  5
3A2A
  8
0
 10
167.5622004157824
 20
74.092318925506561
 30
0.0
 11
167.56220041578251
 21
70.887787373476101
 31
0.0
  0
LINE
  5
3A2B
  8
0
 10
167.56220041578251
 20
70.887787373476087
 30
0.0
 11
177.3122004157824
 21
70.887787373476073
 31
0.0
  0
LINE
  5
3A2C
  8
0
 10
167.56220041578251
 20
54.024649187592253
 30
0.0
 11
177.3122004157824
 21
54.024649187592253
 31
0.0
  0
LINE
  5
3A2D
  8
0
 10
167.56220041578251
 20
54.532197123962902
 30
0.0
 11
177.3122004157824
 21
54.532197123962902
 31
0.0
  0
LINE
  5
3A2E
  8
0
 10
167.56220041578251
 20
55.080879895554148
 30
0.0
 11
177.31220041578231
 21
55.080879895554148
 31
0.0
  0
LINE
  5
3A2F
  8
0
 10
167.56220041578251
 20
56.55384137635977
 30
0.0
 11
177.31220136945669
 21
56.55384137635977
 31
0.0
  0
LINE
  5
3A30
  8
0
 10
167.56220041578251
 20
57.59749802696124
 30
0.0
 11
177.36265928859919
 21
57.59749802696124
 31
0.0
  0
LINE
  5
3A31
  8
0
 10
167.56220041578251
 20
59.891689319734411
 30
0.0
 11
177.312202548263
 21
59.891689319734411
 31
0.0
  0
LINE
  5
3A32
  8
0
 10
167.56220041578251
 20
61.328159464801871
 30
0.0
 11
177.34964169891521
 21
61.328159464801871
 31
0.0
  0
LINE
  5
3A33
  8
0
 10
167.56220041578251
 20
64.219009141235333
 30
0.0
 11
177.31220136945669
 21
64.219009141235333
 31
0.0
  0
LINE
  5
3A34
  8
0
 10
167.56220041578251
 20
65.907681074493439
 30
0.0
 11
177.3464947122385
 21
65.907681074493439
 31
0.0
  0
LINE
  5
3A35
  8
0
 10
167.56220041578251
 20
69.112212626523885
 30
0.0
 11
177.3122004157824
 21
69.112212626523885
 31
0.0
  0
LINE
  5
3A36
  8
0
 10
167.56220041578251
 20
61.328159464801871
 30
0.0
 11
167.5622004157824
 21
64.219009141235318
 31
0.0
  0
LINE
  5
3A37
  8
2
 10
166.5622004157824
 20
56.499999999999972
 30
0.0
 11
171.46220041578241
 21
59.499999999999972
 31
0.0
  0
POLYLINE
  5
3A38
  8
0
 66
     1
 10
0.0
 20
0.0
 30
0.0
  0
VERTEX
  5
3A39
  8
0
 10
167.18720041578251
 20
57.3591094628907
 30
0.0
 42
-0.1453834159301123
 50
90.0
  0
VERTEX
  5
3A3A
  8
0
 10
167.21241754508009
 20
57.444002679152021
 30
0.0
 42
-0.1071699662217274
 50
90.0
  0
VERTEX
  5
3A3B
  8
0
 10
167.29703537283751
 20
57.527675633102291
 30
0.0
 42
-0.077350332773411
 70
     2
 50
32.444236112090998
  0
VERTEX
  5
3A3C
  8
0
 10
167.42549992836561
 20
57.583795491356597
 30
0.0
 42
-0.0789475685392101
 50
90.0
  0
VERTEX
  5
3A3D
  8
0
 10
167.56220041578251
 20
57.597498026959578
 30
0.0
 42
-0.0644571111103437
 50
90.0
  0
SEQEND
  5
3A3E
  8
0
  0
POLYLINE
  5
3A3F
  8
0
 66
     1
 10
0.0
 20
0.0
 30
0.0
  0
VERTEX
  5
3A40
  8
0
 10
167.18720041578251
 20
54.374999999999851
 30
0.0
 42
-0.092572595455409
 50
90.0
  0
VERTEX
  5
3A41
  8
0
 10
167.33187356860199
 20
54.347982933742372
 30
0.0
 42
-0.0958395211622397
 50
90.0
  0
VERTEX
  5
3A42
  8
0
 10
167.4523654587274
 20
54.272384622839887
 30
0.0
 42
-0.1008530118927434
 70
     2
 50
316.94630119341338
  0
VERTEX
  5
3A43
  8
0
 10
167.5408627803406
 20
54.147987162156113
 30
0.0
 42
-0.1236287328816281
 50
90.0
  0
VERTEX
  5
3A44
  8
0
 10
167.5622004157778
 20
54.024649187592253
 30
0.0
 42
-0.1047089114758273
 50
90.0
  0
SEQEND
  5
3A45
  8
0
  0
LINE
  5
3A46
  8
0
 10
167.56220041578251
 20
55.080879895554169
 30
0.0
 11
167.56220041578251
 21
56.55384137635977
 31
0.0
  0
POLYLINE
  5
3A47
  8
0
 66
     1
 10
0.0
 20
0.0
 30
0.0
  0
VERTEX
  5
3A48
  8
0
 10
167.18720041578251
 20
55.139741932887347
 30
0.0
 42
-0.0162328826952284
 50
90.0
  0
VERTEX
  5
3A49
  8
0
 10
167.34213801917821
 20
55.134710439174142
 30
0.0
 42
-0.0226962008047463
 50
90.0
  0
VERTEX
  5
3A4A
  8
0
 10
167.4523654587274
 20
55.122501641306911
 30
0.0
 42
-0.0516790455059756
 70
     2
 50
351.07933085030112
  0
VERTEX
  5
3A4B
  8
0
 10
167.55462147257481
 20
55.095413040234433
 30
0.0
 50
90.0
  0
VERTEX
  5
3A4C
  8
0
 10
167.56220041578251
 20
55.080879895554169
 30
0.0
 50
90.0
  0
SEQEND
  5
3A4D
  8
0
  0
POLYLINE
  5
3A4E
  8
0
 66
     1
 10
0.0
 20
0.0
 30
0.0
  0
VERTEX
  5
3A4F
  8
0
 10
167.56220041578251
 20
54.532197123962931
 30
0.0
 42
-0.1488470320745859
 50
90.0
  0
VERTEX
  5
3A50
  8
0
 10
167.4294227279961
 20
54.572619836406403
 30
0.0
 42
-0.1070939314374275
 50
90.0
  0
VERTEX
  5
3A51
  8
0
 10
167.29703537283751
 20
54.710142878622207
 30
0.0
 42
-0.0758177480846394
 70
     2
 50
121.6844788417775
  0
VERTEX
  5
3A52
  8
0
 10
167.21776977343529
 20
54.89676323544856
 30
0.0
 42
-0.0626584555913342
 50
90.0
  0
VERTEX
  5
3A53
  8
0
 10
167.18720041578251
 20
55.139741932887347
 30
0.0
 42
-0.0626584555913199
 50
90.0
  0
SEQEND
  5
3A54
  8
0
  0
POLYLINE
  5
3A55
  8
0
 66
     1
 10
0.0
 20
0.0
 30
0.0
  0
VERTEX
  5
3A56
  8
0
 10
167.56220041578251
 20
56.55384137635977
 30
0.0
 42
-0.1837701506072527
 50
90.0
  0
VERTEX
  5
3A57
  8
0
 10
167.43718325259121
 20
56.601396219035848
 30
0.0
 42
-0.1023570990015804
 50
90.0
  0
VERTEX
  5
3A58
  8
0
 10
167.29703537283419
 20
56.789698938231567
 30
0.0
 42
-0.06139380527182
 70
     2
 50
114.9706150338103
  0
VERTEX
  5
3A59
  8
0
 10
167.21841598934051
 20
57.032468428534202
 30
0.0
 42
-0.0476740870733025
 50
90.0
  0
VERTEX
  5
3A5A
  8
0
 10
167.18720041577771
 20
57.3591094628907
 30
0.0
 42
-0.0476740870732675
 50
90.0
  0
SEQEND
  5
3A5B
  8
0
  0
LINE
  5
3A5C
  8
0
 10
167.56220041578251
 20
54.024649187592253
 30
0.0
 11
167.56220041578251
 21
54.532197123962931
 31
0.0
  0
LINE
  5
3A5D
  8
0
 10
167.1872004157926
 20
54.374999999989797
 30
0.0
 11
166.5622004157824
 21
54.999999999999972
 31
0.0
  0
LINE
  5
3A5E
  8
0
 10
167.56220041578251
 20
57.59749802696124
 30
0.0
 11
167.56220041578251
 21
59.891689319734411
 31
0.0
  0
POLYLINE
  5
3A5F
  8
0
 66
     1
 10
0.0
 20
0.0
 30
0.0
  0
VERTEX
  5
3A60
  8
0
 10
167.18720041578251
 20
60.815855432929538
 30
0.0
 42
-0.0737304435607645
 50
90.0
  0
VERTEX
  5
3A61
  8
0
 10
167.21720874321929
 20
61.01824941957031
 30
0.0
 42
-0.0845717212532976
 50
90.0
  0
VERTEX
  5
3A62
  8
0
 10
167.29703537283751
 20
61.178109087895642
 30
0.0
 42
-0.1063921108588694
 70
     2
 50
53.796349352970111
  0
VERTEX
  5
3A63
  8
0
 10
167.43431247140899
 20
61.300205517880528
 30
0.0
 42
-0.1510088585334486
 50
90.0
  0
VERTEX
  5
3A64
  8
0
 10
167.56220041578251
 20
61.328159464805019
 30
0.0
 42
-0.1294534172461018
 50
90.0
  0
SEQEND
  5
3A65
  8
0
  0
POLYLINE
  5
3A66
  8
0
 66
     1
 10
0.0
 20
0.0
 30
0.0
  0
VERTEX
  5
3A67
  8
0
 10
167.5622004157824
 20
59.891689319734411
 30
0.0
 42
-0.2015894264067176
 50
90.0
  0
VERTEX
  5
3A68
  8
0
 10
167.441133395516
 20
59.942568630617608
 30
0.0
 42
-0.0977170379735125
 50
90.0
  0
VERTEX
  5
3A69
  8
0
 10
167.29703537283751
 20
60.162371307346461
 30
0.0
 42
-0.0547927573384048
 70
     2
 50
112.0858977608263
  0
VERTEX
  5
3A6A
  8
0
 10
167.2186343389651
 20
60.439187887373087
 30
0.0
 42
-0.0416539519670256
 50
90.0
  0
VERTEX
  5
3A6B
  8
0
 10
167.18720041578251
 20
60.81585543292956
 30
0.0
 42
-0.0416539519669881
 50
90.0
  0
SEQEND
  5
3A6C
  8
0
  0
LINE
  5
3A6D
  8
2
 10
171.96220041578241
 20
59.499999999999972
 30
0.0
 11
171.46220041578241
 21
59.499999999999972
 31
0.0
  0
LINE
  5
3A6E
  8
0
 10
167.5622004157824
 20
65.907681074493411
 30
0.0
 11
167.56220041578251
 21
69.112212626523871
 31
0.0
  0
POLYLINE
  5
3A6F
  8
0
 66
     1
 10
0.0
 20
0.0
 30
0.0
  0
VERTEX
  5
3A70
  8
0
 10
167.56220041578251
 20
64.219009141235333
 30
0.0
 42
-0.2055316714992537
 50
90.0
  0
VERTEX
  5
3A71
  8
0
 10
167.4420034302716
 20
64.270596953704896
 30
0.0
 42
-0.0965313913509376
 50
90.0
  0
VERTEX
  5
3A72
  8
0
 10
167.29703537283731
 20
64.498019315687841
 30
0.0
 42
-0.0533986296957384
 70
     2
 50
111.4875419756076
  0
VERTEX
  5
3A73
  8
0
 10
167.21867557444739
 20
64.783001690579994
 30
0.0
 42
-0.0404311354471943
 50
90.0
  0
VERTEX
  5
3A74
  8
0
 10
167.1872004157822
 20
65.171609462891155
 30
0.0
 42
-0.0404311354471791
 50
90.0
  0
SEQEND
  5
3A75
  8
0
  0
POLYLINE
  5
3A76
  8
0
 66
     1
 10
0.0
 20
0.0
 30
0.0
  0
VERTEX
  5
3A77
  8
0
 10
167.18720041578251
 20
65.171609462891155
 30
0.0
 42
-0.0520405140106174
 50
90.0
  0
VERTEX
  5
3A78
  8
0
 10
167.21824226073741
 20
65.469048655703574
 30
0.0
 42
-0.0658985238271168
 50
90.0
  0
VERTEX
  5
3A79
  8
0
 10
167.29703537283751
 20
65.692090690894048
 30
0.0
 42
-0.1046205348859841
 70
     2
 50
63.002918032980951
  0
VERTEX
  5
3A7A
  8
0
 10
167.44257252206029
 20
65.872184910616525
 30
0.0
 42
-0.1996909920929194
 50
90.0
  0
VERTEX
  5
3A7B
  8
0
 10
167.56220041578251
 20
65.907681074493439
 30
0.0
 42
-0.172337143622725
 50
90.0
  0
SEQEND
  5
3A7C
  8
0
  0
POLYLINE
  5
3A7D
  8
0
 66
     1
 10
0.0
 20
0.0
 30
0.0
  0
VERTEX
  5
3A7E
  8
0
 10
167.18720041578251
 20
69.999999999999986
 30
0.0
 42
0.0433295665536456
 50
90.0
  0
VERTEX
  5
3A7F
  8
0
 10
167.21857610210839
 20
69.638621125337352
 30
0.0
 42
0.0566743414169658
 50
90.0
  0
VERTEX
  5
3A80
  8
0
 10
167.2970353728376
 20
69.372239527963259
 30
0.0
 42
0.0992025570697266
 70
     2
 50
292.89911996388048
  0
VERTEX
  5
3A81
  8
0
 10
167.44744826678561
 20
69.151161297537726
 30
0.0
 42
0.2280338981645266
 50
292.89911996388048
  0
VERTEX
  5
3A82
  8
0
 10
167.56220041578251
 20
69.112212626541293
 30
0.0
 42
0.1963710675046459
 50
90.0
  0
SEQEND
  5
3A83
  8
0
  0
POLYLINE
  5
3A84
  8
0
 66
     1
 10
0.0
 20
0.0
 30
0.0
  0
VERTEX
  5
3A85
  8
0
 10
167.5622004157824
 20
70.887787373476087
 30
0.0
 42
0.1963710675046226
 50
90.0
  0
VERTEX
  5
3A86
  8
0
 10
167.4399792936627
 20
70.837860738288185
 30
0.0
 42
0.0992025570696904
 50
90.0
  0
VERTEX
  5
3A87
  8
0
 10
167.29703537283751
 20
70.627760472036726
 30
0.0
 42
0.0566743414169369
 70
     2
 50
247.10088003612381
  0
VERTEX
  5
3A88
  8
0
 10
167.21857610210839
 20
70.361378874662762
 30
0.0
 42
0.0433295665536664
 50
247.10088003612381
  0
VERTEX
  5
3A89
  8
0
 10
167.18720041578251
 20
69.999999999999986
 30
0.0
 42
0.0433295665536456
 50
90.0
  0
SEQEND
  5
3A8A
  8
0
  0
LINE
  5
3A8B
  8
0
 10
179.5622004157824
 20
61.499999999999972
 30
0.0
 11
187.26220041578239
 21
61.499999999999972
 31
0.0
  0
POLYLINE
  5
3A8C
  8
0
 66
     1
 10
0.0
 20
0.0
 30
0.0
  0
VERTEX
  5
3A8D
  8
0
 10
177.68720041578231
 20
57.3591094628907
 30
0.0
 42
0.1453834159301123
 50
90.0
  0
VERTEX
  5
3A8E
  8
0
 10
177.66198328648471
 20
57.444002679152021
 30
0.0
 42
0.1071699662217274
 50
90.0
  0
VERTEX
  5
3A8F
  8
0
 10
177.57736545872729
 20
57.527675633102291
 30
0.0
 42
0.077350332773411
 70
     2
 50
147.555763887909
  0
VERTEX
  5
3A90
  8
0
 10
177.4489009031993
 20
57.583795491356597
 30
0.0
 42
0.0789475685392101
 50
90.0
  0
VERTEX
  5
3A91
  8
0
 10
177.3122004157824
 20
57.597498026959578
 30
0.0
 42
0.0644571111103437
 50
90.0
  0
SEQEND
  5
3A92
  8
0
  0
LINE
  5
3A93
  8
0
 10
178.5622004157824
 20
54.0
 30
0.0
 11
179.5622004157824
 21
55.0
 31
0.0
  0
POLYLINE
  5
3A94
  8
0
 66
     1
 10
0.0
 20
0.0
 30
0.0
  0
VERTEX
  5
3A95
  8
0
 10
177.3122004157824
 20
54.024649187592253
 30
0.0
 42
-0.0068051090718327
 50
90.0
  0
VERTEX
  5
3A96
  8
0
 10
177.4674611239943
 20
54.022535957621699
 30
0.0
 42
-0.0096044777403865
 50
90.0
  0
VERTEX
  5
3A97
  8
0
 10
177.57736545872729
 20
54.01742960769721
 30
0.0
 42
-0.0229390352869734
 70
     2
 50
356.23929148249312
  0
VERTEX
  5
3A98
  8
0
 10
177.68398038160171
 20
54.005491803479828
 30
0.0
 50
90.0
  0
VERTEX
  5
3A99
  8
0
 10
177.68720041578231
 20
53.999999999999972
 30
0.0
 50
90.0
  0
SEQEND
  5
3A9A
  8
0
  0
POLYLINE
  5
3A9B
  8
0
 66
     1
 10
0.0
 20
0.0
 30
0.0
  0
VERTEX
  5
3A9C
  8
0
 10
177.3122004157824
 20
56.55384137635977
 30
0.0
 42
0.1837701506072527
 50
90.0
  0
VERTEX
  5
3A9D
  8
0
 10
177.4372175789737
 20
56.601396219035848
 30
0.0
 42
0.1023570990015804
 50
90.0
  0
VERTEX
  5
3A9E
  8
0
 10
177.5773654587307
 20
56.789698938231567
 30
0.0
 42
0.06139380527182
 70
     2
 50
65.029384966189681
  0
VERTEX
  5
3A9F
  8
0
 10
177.65598484222431
 20
57.032468428534202
 30
0.0
 42
0.0476740870733025
 50
90.0
  0
VERTEX
  5
3AA0
  8
0
 10
177.68720041578709
 20
57.3591094628907
 30
0.0
 42
0.0476740870732675
 50
90.0
  0
SEQEND
  5
3AA1
  8
0
  0
POLYLINE
  5
3AA2
  8
0
 66
     1
 10
0.0
 20
0.0
 30
0.0
  0
VERTEX
  5
3AA3
  8
0
 10
177.3122004157824
 20
54.532197123962931
 30
0.0
 42
0.1488470320745859
 50
90.0
  0
VERTEX
  5
3AA4
  8
0
 10
177.4449781035687
 20
54.572619836406403
 30
0.0
 42
0.1070939314374275
 50
90.0
  0
VERTEX
  5
3AA5
  8
0
 10
177.57736545872729
 20
54.710142878622207
 30
0.0
 42
0.0758177480846394
 70
     2
 50
58.315521158222467
  0
VERTEX
  5
3AA6
  8
0
 10
177.65663105812951
 20
54.89676323544856
 30
0.0
 42
0.0626584555913342
 50
90.0
  0
VERTEX
  5
3AA7
  8
0
 10
177.68720041578231
 20
55.139741932887347
 30
0.0
 42
0.0626584555913199
 50
90.0
  0
SEQEND
  5
3AA8
  8
0
  0
POLYLINE
  5
3AA9
  8
0
 66
     1
 10
0.0
 20
0.0
 30
0.0
  0
VERTEX
  5
3AAA
  8
0
 10
177.68720041578231
 20
55.139741932887347
 30
0.0
 42
0.0162328826952284
 50
90.0
  0
VERTEX
  5
3AAB
  8
0
 10
177.53226281238659
 20
55.134710439174142
 30
0.0
 42
0.0226962008047463
 50
90.0
  0
VERTEX
  5
3AAC
  8
0
 10
177.4220353728374
 20
55.122501641306911
 30
0.0
 42
0.0516790455059756
 70
     2
 50
188.9206691496988
  0
VERTEX
  5
3AAD
  8
0
 10
177.3197793589901
 20
55.095413040234433
 30
0.0
 50
90.0
  0
VERTEX
  5
3AAE
  8
0
 10
177.3122004157824
 20
55.080879895554169
 30
0.0
 50
90.0
  0
SEQEND
  5
3AAF
  8
0
  0
LINE
  5
3AB0
  8
0
 10
177.68720041578231
 20
53.999999999999972
 30
0.0
 11
178.5622004157824
 21
53.999999999999972
 31
0.0
  0
POLYLINE
  5
3AB1
  8
0
 66
     1
 10
0.0
 20
0.0
 30
0.0
  0
VERTEX
  5
3AB2
  8
0
 10
177.3122004157824
 20
59.891689319734411
 30
0.0
 42
0.2015894264067176
 50
90.0
  0
VERTEX
  5
3AB3
  8
0
 10
177.43326743604891
 20
59.942568630617608
 30
0.0
 42
0.0977170379735125
 50
90.0
  0
VERTEX
  5
3AB4
  8
0
 10
177.57736545872729
 20
60.162371307346461
 30
0.0
 42
0.0547927573384048
 70
     2
 50
67.914102239173715
  0
VERTEX
  5
3AB5
  8
0
 10
177.6557664925997
 20
60.439187887373087
 30
0.0
 42
0.0416539519670256
 50
90.0
  0
VERTEX
  5
3AB6
  8
0
 10
177.68720041578231
 20
60.81585543292956
 30
0.0
 42
0.0416539519669881
 50
90.0
  0
SEQEND
  5
3AB7
  8
0
  0
POLYLINE
  5
3AB8
  8
0
 66
     1
 10
0.0
 20
0.0
 30
0.0
  0
VERTEX
  5
3AB9
  8
0
 10
177.68720041578231
 20
60.815855432929538
 30
0.0
 42
0.0737304435607645
 50
90.0
  0
VERTEX
  5
3ABA
  8
0
 10
177.6571920883456
 20
61.01824941957031
 30
0.0
 42
0.0845717212532976
 50
90.0
  0
VERTEX
  5
3ABB
  8
0
 10
177.57736545872729
 20
61.178109087895642
 30
0.0
 42
0.1063921108588694
 70
     2
 50
126.2036506470299
  0
VERTEX
  5
3ABC
  8
0
 10
177.44008836015581
 20
61.300205517880528
 30
0.0
 42
0.1510088585334486
 50
90.0
  0
VERTEX
  5
3ABD
  8
0
 10
177.3122004157824
 20
61.328159464805019
 30
0.0
 42
0.1294534172461018
 50
90.0
  0
SEQEND
  5
3ABE
  8
0
  0
POLYLINE
  5
3ABF
  8
0
 66
     1
 10
0.0
 20
0.0
 30
0.0
  0
VERTEX
  5
3AC0
  8
0
 10
177.68720041578231
 20
65.171609462891155
 30
0.0
 42
0.0520405140106174
 50
90.0
  0
VERTEX
  5
3AC1
  8
0
 10
177.65615857082739
 20
65.469048655703574
 30
0.0
 42
0.0658985238271168
 50
90.0
  0
VERTEX
  5
3AC2
  8
0
 10
177.57736545872729
 20
65.692090690894048
 30
0.0
 42
0.1046205348859841
 70
     2
 50
116.9970819670191
  0
VERTEX
  5
3AC3
  8
0
 10
177.4318283095046
 20
65.872184910616525
 30
0.0
 42
0.1996909920929194
 50
90.0
  0
VERTEX
  5
3AC4
  8
0
 10
177.3122004157824
 20
65.907681074493439
 30
0.0
 42
0.172337143622725
 50
90.0
  0
SEQEND
  5
3AC5
  8
0
  0
POLYLINE
  5
3AC6
  8
0
 66
     1
 10
0.0
 20
0.0
 30
0.0
  0
VERTEX
  5
3AC7
  8
0
 10
177.3122004157824
 20
64.219009141235333
 30
0.0
 42
0.2055316714992537
 50
90.0
  0
VERTEX
  5
3AC8
  8
0
 10
177.4323974012932
 20
64.270596953704896
 30
0.0
 42
0.0965313913509376
 50
90.0
  0
VERTEX
  5
3AC9
  8
0
 10
177.57736545872751
 20
64.498019315687841
 30
0.0
 42
0.0533986296957384
 70
     2
 50
68.512458024392416
  0
VERTEX
  5
3ACA
  8
0
 10
177.65572525711741
 20
64.783001690579994
 30
0.0
 42
0.0404311354471943
 50
90.0
  0
VERTEX
  5
3ACB
  8
0
 10
177.6872004157826
 20
65.171609462891155
 30
0.0
 42
0.0404311354471791
 50
90.0
  0
SEQEND
  5
3ACC
  8
0
  0
POLYLINE
  5
3ACD
  8
0
 66
     1
 10
0.0
 20
0.0
 30
0.0
  0
VERTEX
  5
3ACE
  8
0
 10
177.3122004157824
 20
70.887787373476087
 30
0.0
 42
-0.1963710675046226
 50
90.0
  0
VERTEX
  5
3ACF
  8
0
 10
177.4344215379021
 20
70.837860738288185
 30
0.0
 42
-0.0992025570696904
 50
90.0
  0
VERTEX
  5
3AD0
  8
0
 10
177.57736545872729
 20
70.627760472036726
 30
0.0
 42
-0.0566743414169369
 70
     2
 50
292.89911996387622
  0
VERTEX
  5
3AD1
  8
0
 10
177.6558247294565
 20
70.361378874662762
 30
0.0
 42
-0.0433295665536664
 50
90.0
  0
VERTEX
  5
3AD2
  8
0
 10
177.68720041578231
 20
69.999999999999986
 30
0.0
 42
-0.0433295665536456
 50
90.0
  0
SEQEND
  5
3AD3
  8
0
  0
POLYLINE
  5
3AD4
  8
0
 66
     1
 10
0.0
 20
0.0
 30
0.0
  0
VERTEX
  5
3AD5
  8
0
 10
177.68720041578231
 20
69.999999999999986
 30
0.0
 42
-0.0433295665536456
 50
90.0
  0
VERTEX
  5
3AD6
  8
0
 10
177.6558247294565
 20
69.638621125337352
 30
0.0
 42
-0.0566743414169658
 50
90.0
  0
VERTEX
  5
3AD7
  8
0
 10
177.57736545872729
 20
69.372239527963259
 30
0.0
 42
-0.0992025570697266
 70
     2
 50
247.10088003611941
  0
VERTEX
  5
3AD8
  8
0
 10
177.42695256477921
 20
69.151161297537726
 30
0.0
 42
-0.2280338981645266
 50
90.0
  0
VERTEX
  5
3AD9
  8
0
 10
177.3122004157824
 20
69.112212626541293
 30
0.0
 42
-0.1963710675046459
 50
90.0
  0
SEQEND
  5
3ADA
  8
0
  0
LINE
  5
3ADB
  8
0
 10
167.56220041578251
 20
74.092318925506532
 30
0.0
 11
177.3464947122385
 21
74.092318925506532
 31
0.0
  0
LINE
  5
3ADC
  8
0
 10
167.56220041578251
 20
75.780990858764639
 30
0.0
 11
177.31220136945669
 21
75.780990858764639
 31
0.0
  0
LINE
  5
3ADD
  8
0
 10
167.56220041578251
 20
78.6718405351981
 30
0.0
 11
177.34964169891521
 21
78.6718405351981
 31
0.0
  0
LINE
  5
3ADE
  8
0
 10
167.56220041578251
 20
80.108310680265561
 30
0.0
 11
177.312202548263
 21
80.108310680265561
 31
0.0
  0
LINE
  5
3ADF
  8
0
 10
167.56220041578251
 20
82.402501973038738
 30
0.0
 11
177.36265928859919
 21
82.402501973038738
 31
0.0
  0
LINE
  5
3AE0
  8
0
 10
167.56220041578251
 20
83.446158623640216
 30
0.0
 11
177.31220136945669
 21
83.446158623640216
 31
0.0
  0
LINE
  5
3AE1
  8
0
 10
167.56220041578251
 20
84.919120104445824
 30
0.0
 11
177.31220041578231
 21
84.919120104445824
 31
0.0
  0
LINE
  5
3AE2
  8
0
 10
167.56220041578251
 20
85.467802876037084
 30
0.0
 11
177.3122004157824
 21
85.467802876037084
 31
0.0
  0
LINE
  5
3AE3
  8
0
 10
167.56220041578251
 20
85.975350812407726
 30
0.0
 11
177.3122004157824
 21
85.975350812407726
 31
0.0
  0
LINE
  5
3AE4
  8
0
 10
167.56220041578251
 20
84.919120104445796
 30
0.0
 11
167.56220041578251
 21
83.446158623640216
 31
0.0
  0
POLYLINE
  5
3AE5
  8
0
 66
     1
 10
0.0
 20
0.0
 30
0.0
  0
VERTEX
  5
3AE6
  8
0
 10
167.5622004157824
 20
80.108310680265561
 30
0.0
 42
0.2015894264067176
 50
90.0
  0
VERTEX
  5
3AE7
  8
0
 10
167.441133395516
 20
80.057431369382357
 30
0.0
 42
0.0977170379735125
 50
90.0
  0
VERTEX
  5
3AE8
  8
0
 10
167.29703537283751
 20
79.83762869265351
 30
0.0
 42
0.0547927573384048
 70
     2
 50
247.9141022391737
  0
VERTEX
  5
3AE9
  8
0
 10
167.2186343389651
 20
79.560812112626877
 30
0.0
 42
0.0416539519670256
 50
247.9141022391737
  0
VERTEX
  5
3AEA
  8
0
 10
167.18720041578251
 20
79.184144567070405
 30
0.0
 42
0.0416539519669881
 50
90.0
  0
SEQEND
  5
3AEB
  8
0
  0
POLYLINE
  5
3AEC
  8
0
 66
     1
 10
0.0
 20
0.0
 30
0.0
  0
VERTEX
  5
3AED
  8
0
 10
167.18720041578251
 20
79.184144567070433
 30
0.0
 42
0.0737304435607645
 50
90.0
  0
VERTEX
  5
3AEE
  8
0
 10
167.21720874321929
 20
78.981750580429662
 30
0.0
 42
0.0845717212532976
 50
90.0
  0
VERTEX
  5
3AEF
  8
0
 10
167.29703537283751
 20
78.821890912104323
 30
0.0
 42
0.1063921108588694
 70
     2
 50
306.20365064702992
  0
VERTEX
  5
3AF0
  8
0
 10
167.43431247140899
 20
78.699794482119444
 30
0.0
 42
0.1510088585334486
 50
306.20365064702992
  0
VERTEX
  5
3AF1
  8
0
 10
167.56220041578251
 20
78.671840535194946
 30
0.0
 42
0.1294534172461018
 50
90.0
  0
SEQEND
  5
3AF2
  8
0
  0
POLYLINE
  5
3AF3
  8
0
 66
     1
 10
0.0
 20
0.0
 30
0.0
  0
VERTEX
  5
3AF4
  8
0
 10
167.18720041578251
 20
74.828390537108803
 30
0.0
 42
0.0520405140106174
 50
90.0
  0
VERTEX
  5
3AF5
  8
0
 10
167.21824226073741
 20
74.530951344296398
 30
0.0
 42
0.0658985238271168
 50
90.0
  0
VERTEX
  5
3AF6
  8
0
 10
167.29703537283751
 20
74.307909309105924
 30
0.0
 42
0.1046205348859841
 70
     2
 50
296.99708196701903
  0
VERTEX
  5
3AF7
  8
0
 10
167.44257252206029
 20
74.127815089383446
 30
0.0
 42
0.1996909920929194
 50
296.99708196701903
  0
VERTEX
  5
3AF8
  8
0
 10
167.56220041578251
 20
74.092318925506532
 30
0.0
 42
0.172337143622725
 50
90.0
  0
SEQEND
  5
3AF9
  8
0
  0
POLYLINE
  5
3AFA
  8
0
 66
     1
 10
0.0
 20
0.0
 30
0.0
  0
VERTEX
  5
3AFB
  8
0
 10
167.56220041578251
 20
75.780990858764639
 30
0.0
 42
0.2055316714992537
 50
90.0
  0
VERTEX
  5
3AFC
  8
0
 10
167.4420034302716
 20
75.729403046295076
 30
0.0
 42
0.0965313913509376
 50
90.0
  0
VERTEX
  5
3AFD
  8
0
 10
167.29703537283731
 20
75.50198068431213
 30
0.0
 42
0.0533986296957384
 70
     2
 50
248.5124580243924
  0
VERTEX
  5
3AFE
  8
0
 10
167.21867557444739
 20
75.216998309419964
 30
0.0
 42
0.0404311354471943
 50
248.5124580243924
  0
VERTEX
  5
3AFF
  8
0
 10
167.1872004157822
 20
74.828390537108803
 30
0.0
 42
0.0404311354471791
 50
90.0
  0
SEQEND
  5
3B00
  8
0
  0
LINE
  5
3B01
  8
0
 10
167.56220041578251
 20
78.6718405351981
 30
0.0
 11
167.5622004157824
 21
75.780990858764653
 31
0.0
  0
LINE
  5
3B02
  8
2
 10
166.5622004157824
 20
83.499999999999972
 30
0.0
 11
171.46220041578241
 21
80.499999999999972
 31
0.0
  0
POLYLINE
  5
3B03
  8
0
 66
     1
 10
0.0
 20
0.0
 30
0.0
  0
VERTEX
  5
3B04
  8
0
 10
167.18720041578251
 20
82.640890537109271
 30
0.0
 42
0.1453834159301123
 50
90.0
  0
VERTEX
  5
3B05
  8
0
 10
167.21241754508009
 20
82.555997320847936
 30
0.0
 42
0.1071699662217274
 50
90.0
  0
VERTEX
  5
3B06
  8
0
 10
167.29703537283751
 20
82.472324366897695
 30
0.0
 42
0.077350332773411
 70
     2
 50
327.555763887909
  0
VERTEX
  5
3B07
  8
0
 10
167.42549992836561
 20
82.416204508643375
 30
0.0
 42
0.0789475685392101
 50
327.555763887909
  0
VERTEX
  5
3B08
  8
0
 10
167.56220041578251
 20
82.402501973040387
 30
0.0
 42
0.0644571111103437
 50
90.0
  0
SEQEND
  5
3B09
  8
0
  0
POLYLINE
  5
3B0A
  8
0
 66
     1
 10
0.0
 20
0.0
 30
0.0
  0
VERTEX
  5
3B0B
  8
0
 10
167.56220041578251
 20
83.446158623640216
 30
0.0
 42
0.1837701506072527
 50
90.0
  0
VERTEX
  5
3B0C
  8
0
 10
167.43718325259121
 20
83.398603780964123
 30
0.0
 42
0.1023570990015804
 50
90.0
  0
VERTEX
  5
3B0D
  8
0
 10
167.29703537283419
 20
83.210301061768405
 30
0.0
 42
0.06139380527182
 70
     2
 50
245.0293849661897
  0
VERTEX
  5
3B0E
  8
0
 10
167.21841598934051
 20
82.96753157146577
 30
0.0
 42
0.0476740870733025
 50
245.0293849661897
  0
VERTEX
  5
3B0F
  8
0
 10
167.18720041577771
 20
82.640890537109271
 30
0.0
 42
0.0476740870732675
 50
90.0
  0
SEQEND
  5
3B10
  8
0
  0
LINE
  5
3B11
  8
0
 10
167.56220041578251
 20
82.402501973038738
 30
0.0
 11
167.56220041578251
 21
80.108310680265561
 31
0.0
  0
LINE
  5
3B12
  8
2
 10
171.96220041578241
 20
80.499999999999972
 30
0.0
 11
171.46220041578241
 21
80.499999999999972
 31
0.0
  0
LINE
  5
3B13
  8
0
 10
167.1872004157926
 20
85.625000000010175
 30
0.0
 11
166.5622004157824
 21
85.0
 31
0.0
  0
LINE
  5
3B14
  8
0
 10
167.56220041578251
 20
85.975350812407726
 30
0.0
 11
167.56220041578251
 21
85.467802876037041
 31
0.0
  0
POLYLINE
  5
3B15
  8
0
 66
     1
 10
0.0
 20
0.0
 30
0.0
  0
VERTEX
  5
3B16
  8
0
 10
167.56220041578251
 20
85.467802876037041
 30
0.0
 42
0.1488470320745859
 50
90.0
  0
VERTEX
  5
3B17
  8
0
 10
167.4294227279961
 20
85.427380163593554
 30
0.0
 42
0.1070939314374275
 50
90.0
  0
VERTEX
  5
3B18
  8
0
 10
167.29703537283751
 20
85.289857121377764
 30
0.0
 42
0.0758177480846394
 70
     2
 50
238.3155211582224
  0
VERTEX
  5
3B19
  8
0
 10
167.21776977343529
 20
85.103236764551426
 30
0.0
 42
0.0626584555913342
 50
238.3155211582224
  0
VERTEX
  5
3B1A
  8
0
 10
167.18720041578251
 20
84.860258067112625
 30
0.0
 42
0.0626584555913199
 50
90.0
  0
SEQEND
  5
3B1B
  8
0
  0
POLYLINE
  5
3B1C
  8
0
 66
     1
 10
0.0
 20
0.0
 30
0.0
  0
VERTEX
  5
3B1D
  8
0
 10
167.18720041578251
 20
84.860258067112625
 30
0.0
 42
0.0162328826952284
 50
90.0
  0
VERTEX
  5
3B1E
  8
0
 10
167.34213801917821
 20
84.865289560825829
 30
0.0
 42
0.0226962008047463
 50
90.0
  0
VERTEX
  5
3B1F
  8
0
 10
167.4523654587274
 20
84.877498358693074
 30
0.0
 42
0.0516790455059756
 70
     2
 50
8.9206691496988508
  0
VERTEX
  5
3B20
  8
0
 10
167.55462147257481
 20
84.904586959765538
 30
0.0
 50
8.9206691496988508
  0
VERTEX
  5
3B21
  8
0
 10
167.56220041578251
 20
84.919120104445796
 30
0.0
 50
90.0
  0
SEQEND
  5
3B22
  8
0
  0
POLYLINE
  5
3B23
  8
0
 66
     1
 10
0.0
 20
0.0
 30
0.0
  0
VERTEX
  5
3B24
  8
0
 10
167.18720041578251
 20
85.625000000000114
 30
0.0
 42
0.092572595455409
 50
90.0
  0
VERTEX
  5
3B25
  8
0
 10
167.33187356860199
 20
85.652017066257599
 30
0.0
 42
0.0958395211622397
 50
90.0
  0
VERTEX
  5
3B26
  8
0
 10
167.4523654587274
 20
85.727615377160078
 30
0.0
 42
0.1008530118927434
 70
     2
 50
43.053698806586652
  0
VERTEX
  5
3B27
  8
0
 10
167.5408627803406
 20
85.852012837843844
 30
0.0
 42
0.1236287328816281
 50
43.053698806586652
  0
VERTEX
  5
3B28
  8
0
 10
167.5622004157778
 20
85.975350812407726
 30
0.0
 42
0.1047089114758273
 50
90.0
  0
SEQEND
  5
3B29
  8
0
  0
LINE
  5
3B2A
  8
0
 10
179.5622004157824
 20
78.5
 30
0.0
 11
187.26220041578239
 21
78.499999999999972
 31
0.0
  0
POLYLINE
  5
3B2B
  8
0
 66
     1
 10
0.0
 20
0.0
 30
0.0
  0
VERTEX
  5
3B2C
  8
0
 10
177.3122004157824
 20
80.108310680265561
 30
0.0
 42
-0.2015894264067176
 50
90.0
  0
VERTEX
  5
3B2D
  8
0
 10
177.43326743604891
 20
80.057431369382357
 30
0.0
 42
-0.0977170379735125
 50
90.0
  0
VERTEX
  5
3B2E
  8
0
 10
177.57736545872729
 20
79.83762869265351
 30
0.0
 42
-0.0547927573384048
 70
     2
 50
292.08589776082619
  0
VERTEX
  5
3B2F
  8
0
 10
177.6557664925997
 20
79.560812112626877
 30
0.0
 42
-0.0416539519670256
 50
90.0
  0
VERTEX
  5
3B30
  8
0
 10
177.68720041578231
 20
79.184144567070405
 30
0.0
 42
-0.0416539519669881
 50
90.0
  0
SEQEND
  5
3B31
  8
0
  0
POLYLINE
  5
3B32
  8
0
 66
     1
 10
0.0
 20
0.0
 30
0.0
  0
VERTEX
  5
3B33
  8
0
 10
177.3122004157824
 20
75.780990858764639
 30
0.0
 42
-0.2055316714992537
 50
90.0
  0
VERTEX
  5
3B34
  8
0
 10
177.4323974012932
 20
75.729403046295076
 30
0.0
 42
-0.0965313913509376
 50
90.0
  0
VERTEX
  5
3B35
  8
0
 10
177.57736545872751
 20
75.50198068431213
 30
0.0
 42
-0.0533986296957384
 70
     2
 50
291.48754197560748
  0
VERTEX
  5
3B36
  8
0
 10
177.65572525711741
 20
75.216998309419964
 30
0.0
 42
-0.0404311354471943
 50
90.0
  0
VERTEX
  5
3B37
  8
0
 10
177.6872004157826
 20
74.828390537108803
 30
0.0
 42
-0.0404311354471791
 50
90.0
  0
SEQEND
  5
3B38
  8
0
  0
POLYLINE
  5
3B39
  8
0
 66
     1
 10
0.0
 20
0.0
 30
0.0
  0
VERTEX
  5
3B3A
  8
0
 10
177.68720041578231
 20
74.828390537108803
 30
0.0
 42
-0.0520405140106174
 50
90.0
  0
VERTEX
  5
3B3B
  8
0
 10
177.65615857082739
 20
74.530951344296398
 30
0.0
 42
-0.0658985238271168
 50
90.0
  0
VERTEX
  5
3B3C
  8
0
 10
177.57736545872729
 20
74.307909309105924
 30
0.0
 42
-0.1046205348859841
 70
     2
 50
243.00291803298089
  0
VERTEX
  5
3B3D
  8
0
 10
177.4318283095046
 20
74.127815089383446
 30
0.0
 42
-0.1996909920929194
 50
90.0
  0
VERTEX
  5
3B3E
  8
0
 10
177.3122004157824
 20
74.092318925506532
 30
0.0
 42
-0.172337143622725
 50
90.0
  0
SEQEND
  5
3B3F
  8
0
  0
POLYLINE
  5
3B40
  8
0
 66
     1
 10
0.0
 20
0.0
 30
0.0
  0
VERTEX
  5
3B41
  8
0
 10
177.68720041578231
 20
79.184144567070433
 30
0.0
 42
-0.0737304435607645
 50
90.0
  0
VERTEX
  5
3B42
  8
0
 10
177.6571920883456
 20
78.981750580429662
 30
0.0
 42
-0.0845717212532976
 50
90.0
  0
VERTEX
  5
3B43
  8
0
 10
177.57736545872729
 20
78.821890912104323
 30
0.0
 42
-0.1063921108588694
 70
     2
 50
233.79634935297
  0
VERTEX
  5
3B44
  8
0
 10
177.44008836015581
 20
78.699794482119444
 30
0.0
 42
-0.1510088585334486
 50
90.0
  0
VERTEX
  5
3B45
  8
0
 10
177.3122004157824
 20
78.671840535194946
 30
0.0
 42
-0.1294534172461018
 50
90.0
  0
SEQEND
  5
3B46
  8
0
  0
POLYLINE
  5
3B47
  8
0
 66
     1
 10
0.0
 20
0.0
 30
0.0
  0
VERTEX
  5
3B48
  8
0
 10
177.3122004157824
 20
83.446158623640216
 30
0.0
 42
-0.1837701506072527
 50
90.0
  0
VERTEX
  5
3B49
  8
0
 10
177.4372175789737
 20
83.398603780964123
 30
0.0
 42
-0.1023570990015804
 50
90.0
  0
VERTEX
  5
3B4A
  8
0
 10
177.5773654587307
 20
83.210301061768405
 30
0.0
 42
-0.06139380527182
 70
     2
 50
294.9706150338103
  0
VERTEX
  5
3B4B
  8
0
 10
177.65598484222431
 20
82.96753157146577
 30
0.0
 42
-0.0476740870733025
 50
90.0
  0
VERTEX
  5
3B4C
  8
0
 10
177.68720041578709
 20
82.640890537109271
 30
0.0
 42
-0.0476740870732675
 50
90.0
  0
SEQEND
  5
3B4D
  8
0
  0
POLYLINE
  5
3B4E
  8
0
 66
     1
 10
0.0
 20
0.0
 30
0.0
  0
VERTEX
  5
3B4F
  8
0
 10
177.68720041578231
 20
82.640890537109271
 30
0.0
 42
-0.1453834159301123
 50
90.0
  0
VERTEX
  5
3B50
  8
0
 10
177.66198328648471
 20
82.555997320847936
 30
0.0
 42
-0.1071699662217274
 50
90.0
  0
VERTEX
  5
3B51
  8
0
 10
177.57736545872729
 20
82.472324366897695
 30
0.0
 42
-0.077350332773411
 70
     2
 50
212.44423611209089
  0
VERTEX
  5
3B52
  8
0
 10
177.4489009031993
 20
82.416204508643375
 30
0.0
 42
-0.0789475685392101
 50
90.0
  0
VERTEX
  5
3B53
  8
0
 10
177.3122004157824
 20
82.402501973040387
 30
0.0
 42
-0.0644571111103437
 50
90.0
  0
SEQEND
  5
3B54
  8
0
  0
LINE
  5
3B55
  8
0
 10
178.5622004157824
 20
86.0
 30
0.0
 11
179.5622004157824
 21
85.0
 31
0.0
  0
LINE
  5
3B56
  8
0
 10
177.68720041578231
 20
86.0
 30
0.0
 11
178.5622004157824
 21
86.0
 31
0.0
  0
POLYLINE
  5
3B57
  8
0
 66
     1
 10
0.0
 20
0.0
 30
0.0
  0
VERTEX
  5
3B58
  8
0
 10
177.68720041578231
 20
84.860258067112625
 30
0.0
 42
-0.0162328826952284
 50
90.0
  0
VERTEX
  5
3B59
  8
0
 10
177.53226281238659
 20
84.865289560825829
 30
0.0
 42
-0.0226962008047463
 50
90.0
  0
VERTEX
  5
3B5A
  8
0
 10
177.4220353728374
 20
84.877498358693074
 30
0.0
 42
-0.0516790455059756
 70
     2
 50
171.07933085030109
  0
VERTEX
  5
3B5B
  8
0
 10
177.3197793589901
 20
84.904586959765538
 30
0.0
 50
90.0
  0
VERTEX
  5
3B5C
  8
0
 10
177.3122004157824
 20
84.919120104445796
 30
0.0
 50
90.0
  0
SEQEND
  5
3B5D
  8
0
  0
POLYLINE
  5
3B5E
  8
0
 66
     1
 10
0.0
 20
0.0
 30
0.0
  0
VERTEX
  5
3B5F
  8
0
 10
177.3122004157824
 20
85.467802876037041
 30
0.0
 42
-0.1488470320745859
 50
90.0
  0
VERTEX
  5
3B60
  8
0
 10
177.4449781035687
 20
85.427380163593554
 30
0.0
 42
-0.1070939314374275
 50
90.0
  0
VERTEX
  5
3B61
  8
0
 10
177.57736545872729
 20
85.289857121377764
 30
0.0
 42
-0.0758177480846394
 70
     2
 50
301.68447884177749
  0
VERTEX
  5
3B62
  8
0
 10
177.65663105812951
 20
85.103236764551426
 30
0.0
 42
-0.0626584555913342
 50
90.0
  0
VERTEX
  5
3B63
  8
0
 10
177.68720041578231
 20
84.860258067112625
 30
0.0
 42
-0.0626584555913199
 50
90.0
  0
SEQEND
  5
3B64
  8
0
  0
POLYLINE
  5
3B65
  8
0
 66
     1
 10
0.0
 20
0.0
 30
0.0
  0
VERTEX
  5
3B66
  8
0
 10
177.3122004157824
 20
85.975350812407726
 30
0.0
 42
0.0068051090718327
 50
90.0
  0
VERTEX
  5
3B67
  8
0
 10
177.4674611239943
 20
85.977464042378273
 30
0.0
 42
0.0096044777403865
 50
90.0
  0
VERTEX
  5
3B68
  8
0
 10
177.57736545872729
 20
85.982570392302762
 30
0.0
 42
0.0229390352869734
 70
     2
 50
3.7607085175068882
  0
VERTEX
  5
3B69
  8
0
 10
177.68398038160171
 20
85.994508196520144
 30
0.0
 50
3.7607085175068882
  0
VERTEX
  5
3B6A
  8
0
 10
177.68720041578231
 20
86.0
 30
0.0
 50
90.0
  0
SEQEND
  5
3B6B
  8
0
  0
LINE
  5
3B6C
  8
0
 10
167.56220041578251
 20
134.1122126265239
 30
0.0
 11
177.3122004157824
 21
134.1122126265239
 31
0.0
  0
LINE
  5
3B6D
  8
0
 10
167.56220041578251
 20
130.90768107449341
 30
0.0
 11
177.3464947122385
 21
130.90768107449341
 31
0.0
  0
LINE
  5
3B6E
  8
0
 10
167.56220041578251
 20
129.21900914123529
 30
0.0
 11
177.31220136945669
 21
129.21900914123529
 31
0.0
  0
LINE
  5
3B6F
  8
0
 10
167.56220041578251
 20
126.3281594648018
 30
0.0
 11
177.34964169891521
 21
126.3281594648018
 31
0.0
  0
LINE
  5
3B70
  8
0
 10
167.56220041578251
 20
124.8916893197344
 30
0.0
 11
177.312202548263
 21
124.8916893197344
 31
0.0
  0
LINE
  5
3B71
  8
0
 10
167.56220041578251
 20
122.5974980269612
 30
0.0
 11
177.36265928859919
 21
122.5974980269612
 31
0.0
  0
LINE
  5
3B72
  8
0
 10
167.56220041578251
 20
121.5538413763597
 30
0.0
 11
177.31220136945669
 21
121.5538413763597
 31
0.0
  0
LINE
  5
3B73
  8
0
 10
167.56220041578251
 20
120.08087989555411
 30
0.0
 11
177.31220041578231
 21
120.08087989555411
 31
0.0
  0
LINE
  5
3B74
  8
0
 10
167.56220041578251
 20
119.5321971239629
 30
0.0
 11
177.3122004157824
 21
119.5321971239629
 31
0.0
  0
LINE
  5
3B75
  8
0
 10
167.56220041578251
 20
119.0246491875922
 30
0.0
 11
177.3122004157824
 21
119.0246491875922
 31
0.0
  0
LINE
  5
3B76
  8
0
 10
167.56220041578251
 20
135.8877873734761
 30
0.0
 11
177.3122004157824
 21
135.88778737347599
 31
0.0
  0
LINE
  5
3B77
  8
0
 10
167.56220041578251
 20
126.3281594648018
 30
0.0
 11
167.5622004157824
 21
129.21900914123529
 31
0.0
  0
LINE
  5
3B78
  8
0
 10
167.56220041578251
 20
122.5974980269612
 30
0.0
 11
167.56220041578251
 21
124.8916893197344
 31
0.0
  0
LINE
  5
3B79
  8
2
 10
166.5622004157824
 20
121.4999999999999
 30
0.0
 11
171.46220041578241
 21
124.4999999999999
 31
0.0
  0
LINE
  5
3B7A
  8
0
 10
167.1872004157926
 20
119.3749999999897
 30
0.0
 11
166.5622004157824
 21
119.9999999999999
 31
0.0
  0
LINE
  5
3B7B
  8
0
 10
167.56220041578251
 20
119.0246491875922
 30
0.0
 11
167.56220041578251
 21
119.5321971239629
 31
0.0
  0
POLYLINE
  5
3B7C
  8
0
 66
     1
 10
0.0
 20
0.0
 30
0.0
  0
VERTEX
  5
3B7D
  8
0
 10
167.18720041578251
 20
122.3591094628907
 30
0.0
 42
-0.1453834159301123
 50
90.0
  0
VERTEX
  5
3B7E
  8
0
 10
167.21241754508009
 20
122.44400267915201
 30
0.0
 42
-0.1071699662217274
 50
90.0
  0
VERTEX
  5
3B7F
  8
0
 10
167.29703537283751
 20
122.52767563310221
 30
0.0
 42
-0.077350332773411
 70
     2
 50
32.444236112090998
  0
VERTEX
  5
3B80
  8
0
 10
167.42549992836561
 20
122.5837954913566
 30
0.0
 42
-0.0789475685392101
 50
90.0
  0
VERTEX
  5
3B81
  8
0
 10
167.56220041578251
 20
122.5974980269595
 30
0.0
 42
-0.0644571111103437
 50
90.0
  0
SEQEND
  5
3B82
  8
0
  0
POLYLINE
  5
3B83
  8
0
 66
     1
 10
0.0
 20
0.0
 30
0.0
  0
VERTEX
  5
3B84
  8
0
 10
167.56220041578251
 20
121.5538413763597
 30
0.0
 42
-0.1837701506072527
 50
90.0
  0
VERTEX
  5
3B85
  8
0
 10
167.43718325259121
 20
121.60139621903581
 30
0.0
 42
-0.1023570990015804
 50
90.0
  0
VERTEX
  5
3B86
  8
0
 10
167.29703537283419
 20
121.7896989382315
 30
0.0
 42
-0.06139380527182
 70
     2
 50
114.9706150338103
  0
VERTEX
  5
3B87
  8
0
 10
167.21841598934051
 20
122.0324684285342
 30
0.0
 42
-0.0476740870733025
 50
90.0
  0
VERTEX
  5
3B88
  8
0
 10
167.18720041577771
 20
122.3591094628907
 30
0.0
 42
-0.0476740870732675
 50
90.0
  0
SEQEND
  5
3B89
  8
0
  0
POLYLINE
  5
3B8A
  8
0
 66
     1
 10
0.0
 20
0.0
 30
0.0
  0
VERTEX
  5
3B8B
  8
0
 10
167.56220041578251
 20
119.5321971239629
 30
0.0
 42
-0.1488470320745859
 50
90.0
  0
VERTEX
  5
3B8C
  8
0
 10
167.4294227279961
 20
119.5726198364064
 30
0.0
 42
-0.1070939314374275
 50
90.0
  0
VERTEX
  5
3B8D
  8
0
 10
167.29703537283751
 20
119.71014287862219
 30
0.0
 42
-0.0758177480846394
 70
     2
 50
121.6844788417775
  0
VERTEX
  5
3B8E
  8
0
 10
167.21776977343529
 20
119.8967632354485
 30
0.0
 42
-0.0626584555913342
 50
90.0
  0
VERTEX
  5
3B8F
  8
0
 10
167.18720041578251
 20
120.1397419328873
 30
0.0
 42
-0.0626584555913199
 50
90.0
  0
SEQEND
  5
3B90
  8
0
  0
POLYLINE
  5
3B91
  8
0
 66
     1
 10
0.0
 20
0.0
 30
0.0
  0
VERTEX
  5
3B92
  8
0
 10
167.18720041578251
 20
120.1397419328873
 30
0.0
 42
-0.0162328826952284
 50
90.0
  0
VERTEX
  5
3B93
  8
0
 10
167.34213801917821
 20
120.1347104391741
 30
0.0
 42
-0.0226962008047463
 50
90.0
  0
VERTEX
  5
3B94
  8
0
 10
167.4523654587274
 20
120.1225016413069
 30
0.0
 42
-0.0516790455059756
 70
     2
 50
351.07933085030112
  0
VERTEX
  5
3B95
  8
0
 10
167.55462147257481
 20
120.0954130402344
 30
0.0
 50
90.0
  0
VERTEX
  5
3B96
  8
0
 10
167.56220041578251
 20
120.08087989555411
 30
0.0
 50
90.0
  0
SEQEND
  5
3B97
  8
0
  0
LINE
  5
3B98
  8
0
 10
167.56220041578251
 20
120.08087989555411
 30
0.0
 11
167.56220041578251
 21
121.5538413763597
 31
0.0
  0
POLYLINE
  5
3B99
  8
0
 66
     1
 10
0.0
 20
0.0
 30
0.0
  0
VERTEX
  5
3B9A
  8
0
 10
167.18720041578251
 20
119.3749999999998
 30
0.0
 42
-0.092572595455409
 50
90.0
  0
VERTEX
  5
3B9B
  8
0
 10
167.33187356860199
 20
119.3479829337423
 30
0.0
 42
-0.0958395211622397
 50
90.0
  0
VERTEX
  5
3B9C
  8
0
 10
167.4523654587274
 20
119.27238462283979
 30
0.0
 42
-0.1008530118927434
 70
     2
 50
316.94630119341338
  0
VERTEX
  5
3B9D
  8
0
 10
167.5408627803406
 20
119.1479871621561
 30
0.0
 42
-0.1236287328816281
 50
90.0
  0
VERTEX
  5
3B9E
  8
0
 10
167.5622004157778
 20
119.0246491875922
 30
0.0
 42
-0.1047089114758273
 50
90.0
  0
SEQEND
  5
3B9F
  8
0
  0
POLYLINE
  5
3BA0
  8
0
 66
     1
 10
0.0
 20
0.0
 30
0.0
  0
VERTEX
  5
3BA1
  8
0
 10
167.5622004157824
 20
124.8916893197344
 30
0.0
 42
-0.2015894264067176
 50
90.0
  0
VERTEX
  5
3BA2
  8
0
 10
167.441133395516
 20
124.9425686306176
 30
0.0
 42
-0.0977170379735125
 50
90.0
  0
VERTEX
  5
3BA3
  8
0
 10
167.29703537283751
 20
125.1623713073464
 30
0.0
 42
-0.0547927573384048
 70
     2
 50
112.0858977608263
  0
VERTEX
  5
3BA4
  8
0
 10
167.2186343389651
 20
125.439187887373
 30
0.0
 42
-0.0416539519670256
 50
90.0
  0
VERTEX
  5
3BA5
  8
0
 10
167.18720041578251
 20
125.8158554329295
 30
0.0
 42
-0.0416539519669881
 50
90.0
  0
SEQEND
  5
3BA6
  8
0
  0
POLYLINE
  5
3BA7
  8
0
 66
     1
 10
0.0
 20
0.0
 30
0.0
  0
VERTEX
  5
3BA8
  8
0
 10
167.18720041578251
 20
125.8158554329295
 30
0.0
 42
-0.0737304435607645
 50
90.0
  0
VERTEX
  5
3BA9
  8
0
 10
167.21720874321929
 20
126.0182494195703
 30
0.0
 42
-0.0845717212532976
 50
90.0
  0
VERTEX
  5
3BAA
  8
0
 10
167.29703537283751
 20
126.17810908789561
 30
0.0
 42
-0.1063921108588694
 70
     2
 50
53.796349352970111
  0
VERTEX
  5
3BAB
  8
0
 10
167.43431247140899
 20
126.3002055178805
 30
0.0
 42
-0.1510088585334486
 50
90.0
  0
VERTEX
  5
3BAC
  8
0
 10
167.56220041578251
 20
126.328159464805
 30
0.0
 42
-0.1294534172461018
 50
90.0
  0
SEQEND
  5
3BAD
  8
0
  0
LINE
  5
3BAE
  8
2
 10
171.96220041578241
 20
124.4999999999999
 30
0.0
 11
171.46220041578241
 21
124.4999999999999
 31
0.0
  0
LINE
  5
3BAF
  8
0
 10
167.5622004157824
 20
130.90768107449341
 30
0.0
 11
167.56220041578251
 21
134.11221262652381
 31
0.0
  0
POLYLINE
  5
3BB0
  8
0
 66
     1
 10
0.0
 20
0.0
 30
0.0
  0
VERTEX
  5
3BB1
  8
0
 10
167.18720041578251
 20
130.1716094628911
 30
0.0
 42
-0.0520405140106174
 50
90.0
  0
VERTEX
  5
3BB2
  8
0
 10
167.21824226073741
 20
130.46904865570349
 30
0.0
 42
-0.0658985238271168
 50
90.0
  0
VERTEX
  5
3BB3
  8
0
 10
167.29703537283751
 20
130.69209069089399
 30
0.0
 42
-0.1046205348859841
 70
     2
 50
63.002918032980951
  0
VERTEX
  5
3BB4
  8
0
 10
167.44257252206029
 20
130.87218491061651
 30
0.0
 42
-0.1996909920929194
 50
90.0
  0
VERTEX
  5
3BB5
  8
0
 10
167.56220041578251
 20
130.90768107449341
 30
0.0
 42
-0.172337143622725
 50
90.0
  0
SEQEND
  5
3BB6
  8
0
  0
POLYLINE
  5
3BB7
  8
0
 66
     1
 10
0.0
 20
0.0
 30
0.0
  0
VERTEX
  5
3BB8
  8
0
 10
167.56220041578251
 20
129.21900914123529
 30
0.0
 42
-0.2055316714992537
 50
90.0
  0
VERTEX
  5
3BB9
  8
0
 10
167.4420034302716
 20
129.27059695370491
 30
0.0
 42
-0.0965313913509376
 50
90.0
  0
VERTEX
  5
3BBA
  8
0
 10
167.29703537283731
 20
129.4980193156878
 30
0.0
 42
-0.0533986296957384
 70
     2
 50
111.4875419756076
  0
VERTEX
  5
3BBB
  8
0
 10
167.21867557444739
 20
129.78300169057991
 30
0.0
 42
-0.0404311354471943
 50
90.0
  0
VERTEX
  5
3BBC
  8
0
 10
167.1872004157822
 20
130.1716094628911
 30
0.0
 42
-0.0404311354471791
 50
90.0
  0
SEQEND
  5
3BBD
  8
0
  0
POLYLINE
  5
3BBE
  8
0
 66
     1
 10
0.0
 20
0.0
 30
0.0
  0
VERTEX
  5
3BBF
  8
0
 10
167.5622004157824
 20
135.8877873734761
 30
0.0
 42
0.1963710675046226
 50
90.0
  0
VERTEX
  5
3BC0
  8
0
 10
167.4399792936627
 20
135.8378607382881
 30
0.0
 42
0.0992025570696904
 50
90.0
  0
VERTEX
  5
3BC1
  8
0
 10
167.29703537283751
 20
135.6277604720367
 30
0.0
 42
0.0566743414169369
 70
     2
 50
247.10088003612381
  0
VERTEX
  5
3BC2
  8
0
 10
167.21857610210839
 20
135.36137887466271
 30
0.0
 42
0.0433295665536664
 50
247.10088003612381
  0
VERTEX
  5
3BC3
  8
0
 10
167.18720041578251
 20
135.0
 30
0.0
 42
0.0433295665536456
 50
90.0
  0
SEQEND
  5
3BC4
  8
0
  0
POLYLINE
  5
3BC5
  8
0
 66
     1
 10
0.0
 20
0.0
 30
0.0
  0
VERTEX
  5
3BC6
  8
0
 10
167.18720041578251
 20
135.0
 30
0.0
 42
0.0433295665536456
 50
90.0
  0
VERTEX
  5
3BC7
  8
0
 10
167.21857610210839
 20
134.63862112533729
 30
0.0
 42
0.0566743414169658
 50
90.0
  0
VERTEX
  5
3BC8
  8
0
 10
167.2970353728376
 20
134.37223952796319
 30
0.0
 42
0.0992025570697266
 70
     2
 50
292.89911996388048
  0
VERTEX
  5
3BC9
  8
0
 10
167.44744826678561
 20
134.1511612975377
 30
0.0
 42
0.2280338981645266
 50
292.89911996388048
  0
VERTEX
  5
3BCA
  8
0
 10
167.56220041578251
 20
134.11221262654121
 30
0.0
 42
0.1963710675046459
 50
90.0
  0
SEQEND
  5
3BCB
  8
0
  0
LINE
  5
3BCC
  8
0
 10
179.5622004157824
 20
126.4999999999999
 30
0.0
 11
187.26220041578239
 21
126.4999999999999
 31
0.0
  0
LINE
  5
3BCD
  8
0
 10
177.68720041578231
 20
118.9999999999999
 30
0.0
 11
178.5622004157824
 21
118.9999999999999
 31
0.0
  0
POLYLINE
  5
3BCE
  8
0
 66
     1
 10
0.0
 20
0.0
 30
0.0
  0
VERTEX
  5
3BCF
  8
0
 10
177.68720041578231
 20
120.1397419328873
 30
0.0
 42
0.0162328826952284
 50
90.0
  0
VERTEX
  5
3BD0
  8
0
 10
177.53226281238659
 20
120.1347104391741
 30
0.0
 42
0.0226962008047463
 50
90.0
  0
VERTEX
  5
3BD1
  8
0
 10
177.4220353728374
 20
120.1225016413069
 30
0.0
 42
0.0516790455059756
 70
     2
 50
188.9206691496988
  0
VERTEX
  5
3BD2
  8
0
 10
177.3197793589901
 20
120.0954130402344
 30
0.0
 50
90.0
  0
VERTEX
  5
3BD3
  8
0
 10
177.3122004157824
 20
120.08087989555411
 30
0.0
 50
90.0
  0
SEQEND
  5
3BD4
  8
0
  0
POLYLINE
  5
3BD5
  8
0
 66
     1
 10
0.0
 20
0.0
 30
0.0
  0
VERTEX
  5
3BD6
  8
0
 10
177.3122004157824
 20
119.5321971239629
 30
0.0
 42
0.1488470320745859
 50
90.0
  0
VERTEX
  5
3BD7
  8
0
 10
177.4449781035687
 20
119.5726198364064
 30
0.0
 42
0.1070939314374275
 50
90.0
  0
VERTEX
  5
3BD8
  8
0
 10
177.57736545872729
 20
119.71014287862219
 30
0.0
 42
0.0758177480846394
 70
     2
 50
58.315521158222467
  0
VERTEX
  5
3BD9
  8
0
 10
177.65663105812951
 20
119.8967632354485
 30
0.0
 42
0.0626584555913342
 50
90.0
  0
VERTEX
  5
3BDA
  8
0
 10
177.68720041578231
 20
120.1397419328873
 30
0.0
 42
0.0626584555913199
 50
90.0
  0
SEQEND
  5
3BDB
  8
0
  0
POLYLINE
  5
3BDC
  8
0
 66
     1
 10
0.0
 20
0.0
 30
0.0
  0
VERTEX
  5
3BDD
  8
0
 10
177.3122004157824
 20
121.5538413763597
 30
0.0
 42
0.1837701506072527
 50
90.0
  0
VERTEX
  5
3BDE
  8
0
 10
177.4372175789737
 20
121.60139621903581
 30
0.0
 42
0.1023570990015804
 50
90.0
  0
VERTEX
  5
3BDF
  8
0
 10
177.5773654587307
 20
121.7896989382315
 30
0.0
 42
0.06139380527182
 70
     2
 50
65.029384966189681
  0
VERTEX
  5
3BE0
  8
0
 10
177.65598484222431
 20
122.0324684285342
 30
0.0
 42
0.0476740870733025
 50
90.0
  0
VERTEX
  5
3BE1
  8
0
 10
177.68720041578709
 20
122.3591094628907
 30
0.0
 42
0.0476740870732675
 50
90.0
  0
SEQEND
  5
3BE2
  8
0
  0
POLYLINE
  5
3BE3
  8
0
 66
     1
 10
0.0
 20
0.0
 30
0.0
  0
VERTEX
  5
3BE4
  8
0
 10
177.68720041578231
 20
122.3591094628907
 30
0.0
 42
0.1453834159301123
 50
90.0
  0
VERTEX
  5
3BE5
  8
0
 10
177.66198328648471
 20
122.44400267915201
 30
0.0
 42
0.1071699662217274
 50
90.0
  0
VERTEX
  5
3BE6
  8
0
 10
177.57736545872729
 20
122.52767563310221
 30
0.0
 42
0.077350332773411
 70
     2
 50
147.555763887909
  0
VERTEX
  5
3BE7
  8
0
 10
177.4489009031993
 20
122.5837954913566
 30
0.0
 42
0.0789475685392101
 50
90.0
  0
VERTEX
  5
3BE8
  8
0
 10
177.3122004157824
 20
122.5974980269595
 30
0.0
 42
0.0644571111103437
 50
90.0
  0
SEQEND
  5
3BE9
  8
0
  0
POLYLINE
  5
3BEA
  8
0
 66
     1
 10
0.0
 20
0.0
 30
0.0
  0
VERTEX
  5
3BEB
  8
0
 10
177.3122004157824
 20
119.0246491875922
 30
0.0
 42
-0.0068051090718327
 50
90.0
  0
VERTEX
  5
3BEC
  8
0
 10
177.4674611239943
 20
119.0225359576217
 30
0.0
 42
-0.0096044777403865
 50
90.0
  0
VERTEX
  5
3BED
  8
0
 10
177.57736545872729
 20
119.0174296076972
 30
0.0
 42
-0.0229390352869734
 70
     2
 50
356.23929148249312
  0
VERTEX
  5
3BEE
  8
0
 10
177.68398038160171
 20
119.0054918034798
 30
0.0
 50
90.0
  0
VERTEX
  5
3BEF
  8
0
 10
177.68720041578231
 20
118.9999999999999
 30
0.0
 50
90.0
  0
SEQEND
  5
3BF0
  8
0
  0
LINE
  5
3BF1
  8
0
 10
178.5622004157824
 20
119.0
 30
0.0
 11
179.5622004157824
 21
120.0
 31
0.0
  0
POLYLINE
  5
3BF2
  8
0
 66
     1
 10
0.0
 20
0.0
 30
0.0
  0
VERTEX
  5
3BF3
  8
0
 10
177.68720041578231
 20
125.8158554329295
 30
0.0
 42
0.0737304435607645
 50
90.0
  0
VERTEX
  5
3BF4
  8
0
 10
177.6571920883456
 20
126.0182494195703
 30
0.0
 42
0.0845717212532976
 50
90.0
  0
VERTEX
  5
3BF5
  8
0
 10
177.57736545872729
 20
126.17810908789561
 30
0.0
 42
0.1063921108588694
 70
     2
 50
126.2036506470299
  0
VERTEX
  5
3BF6
  8
0
 10
177.44008836015581
 20
126.3002055178805
 30
0.0
 42
0.1510088585334486
 50
90.0
  0
VERTEX
  5
3BF7
  8
0
 10
177.3122004157824
 20
126.328159464805
 30
0.0
 42
0.1294534172461018
 50
90.0
  0
SEQEND
  5
3BF8
  8
0
  0
POLYLINE
  5
3BF9
  8
0
 66
     1
 10
0.0
 20
0.0
 30
0.0
  0
VERTEX
  5
3BFA
  8
0
 10
177.3122004157824
 20
124.8916893197344
 30
0.0
 42
0.2015894264067176
 50
90.0
  0
VERTEX
  5
3BFB
  8
0
 10
177.43326743604891
 20
124.9425686306176
 30
0.0
 42
0.0977170379735125
 50
90.0
  0
VERTEX
  5
3BFC
  8
0
 10
177.57736545872729
 20
125.1623713073464
 30
0.0
 42
0.0547927573384048
 70
     2
 50
67.914102239173715
  0
VERTEX
  5
3BFD
  8
0
 10
177.6557664925997
 20
125.439187887373
 30
0.0
 42
0.0416539519670256
 50
90.0
  0
VERTEX
  5
3BFE
  8
0
 10
177.68720041578231
 20
125.8158554329295
 30
0.0
 42
0.0416539519669881
 50
90.0
  0
SEQEND
  5
3BFF
  8
0
  0
POLYLINE
  5
3C00
  8
0
 66
     1
 10
0.0
 20
0.0
 30
0.0
  0
VERTEX
  5
3C01
  8
0
 10
177.3122004157824
 20
129.21900914123529
 30
0.0
 42
0.2055316714992537
 50
90.0
  0
VERTEX
  5
3C02
  8
0
 10
177.4323974012932
 20
129.27059695370491
 30
0.0
 42
0.0965313913509376
 50
90.0
  0
VERTEX
  5
3C03
  8
0
 10
177.57736545872751
 20
129.4980193156878
 30
0.0
 42
0.0533986296957384
 70
     2
 50
68.512458024392416
  0
VERTEX
  5
3C04
  8
0
 10
177.65572525711741
 20
129.78300169057991
 30
0.0
 42
0.0404311354471943
 50
90.0
  0
VERTEX
  5
3C05
  8
0
 10
177.6872004157826
 20
130.1716094628911
 30
0.0
 42
0.0404311354471791
 50
90.0
  0
SEQEND
  5
3C06
  8
0
  0
POLYLINE
  5
3C07
  8
0
 66
     1
 10
0.0
 20
0.0
 30
0.0
  0
VERTEX
  5
3C08
  8
0
 10
177.68720041578231
 20
130.1716094628911
 30
0.0
 42
0.0520405140106174
 50
90.0
  0
VERTEX
  5
3C09
  8
0
 10
177.65615857082739
 20
130.46904865570349
 30
0.0
 42
0.0658985238271168
 50
90.0
  0
VERTEX
  5
3C0A
  8
0
 10
177.57736545872729
 20
130.69209069089399
 30
0.0
 42
0.1046205348859841
 70
     2
 50
116.9970819670191
  0
VERTEX
  5
3C0B
  8
0
 10
177.4318283095046
 20
130.87218491061651
 30
0.0
 42
0.1996909920929194
 50
90.0
  0
VERTEX
  5
3C0C
  8
0
 10
177.3122004157824
 20
130.90768107449341
 30
0.0
 42
0.172337143622725
 50
90.0
  0
SEQEND
  5
3C0D
  8
0
  0
POLYLINE
  5
3C0E
  8
0
 66
     1
 10
0.0
 20
0.0
 30
0.0
  0
VERTEX
  5
3C0F
  8
0
 10
177.68720041578231
 20
135.0
 30
0.0
 42
-0.0433295665536456
 50
90.0
  0
VERTEX
  5
3C10
  8
0
 10
177.6558247294565
 20
134.63862112533729
 30
0.0
 42
-0.0566743414169658
 50
90.0
  0
VERTEX
  5
3C11
  8
0
 10
177.57736545872729
 20
134.37223952796319
 30
0.0
 42
-0.0992025570697266
 70
     2
 50
247.10088003611941
  0
VERTEX
  5
3C12
  8
0
 10
177.42695256477921
 20
134.1511612975377
 30
0.0
 42
-0.2280338981645266
 50
90.0
  0
VERTEX
  5
3C13
  8
0
 10
177.3122004157824
 20
134.11221262654121
 30
0.0
 42
-0.1963710675046459
 50
90.0
  0
SEQEND
  5
3C14
  8
0
  0
POLYLINE
  5
3C15
  8
0
 66
     1
 10
0.0
 20
0.0
 30
0.0
  0
VERTEX
  5
3C16
  8
0
 10
177.3122004157824
 20
135.8877873734761
 30
0.0
 42
-0.1963710675046226
 50
90.0
  0
VERTEX
  5
3C17
  8
0
 10
177.4344215379021
 20
135.8378607382881
 30
0.0
 42
-0.0992025570696904
 50
90.0
  0
VERTEX
  5
3C18
  8
0
 10
177.57736545872729
 20
135.6277604720367
 30
0.0
 42
-0.0566743414169369
 70
     2
 50
292.89911996387622
  0
VERTEX
  5
3C19
  8
0
 10
177.6558247294565
 20
135.36137887466271
 30
0.0
 42
-0.0433295665536664
 50
90.0
  0
VERTEX
  5
3C1A
  8
0
 10
177.68720041578231
 20
135.0
 30
0.0
 42
-0.0433295665536456
 50
90.0
  0
SEQEND
  5
3C1B
  8
0
  0
ARC
  5
3C1C
  8
0
 10
82.269887370203747
 20
151.09663153829629
 30
0.0
 40
1.3
 50
244.92827477669789
 51
331.07172522330211
  0
ARC
  5
3C1D
  8
0
 10
77.55173460494936
 20
148.69261262979671
 30
0.0
 40
1.3
 50
262.92827477669789
 51
349.07172522330211
  0
ARC
  5
3C1E
  8
0
 10
73.807387370203287
 20
144.94826539505061
 30
0.0
 40
1.3
 50
280.92827477669778
 51
7.0717252233020931
  0
ARC
  5
3C1F
  8
0
 10
92.730112629796267
 20
151.09663153829629
 30
0.0
 40
1.3
 50
208.92827477669789
 51
295.07172522330211
  0
ARC
  5
3C20
  8
0
 10
97.44826539505064
 20
148.69261262979671
 30
0.0
 40
1.3
 50
190.92827477669789
 51
277.07172522330211
  0
ARC
  5
3C21
  8
0
 10
87.5
 20
151.92500000000081
 30
0.0
 40
1.3
 50
226.92827477669789
 51
313.07172522330211
  0
ARC
  5
3C22
  8
0
 10
101.1926126297967
 20
144.94826539505061
 30
0.0
 40
1.3
 50
172.92827477669789
 51
259.07172522330211
  0
LINE
  5
3C23
  8
0
 10
167.56220041578251
 20
150.9753508124077
 30
0.0
 11
177.3122004157824
 21
150.9753508124077
 31
0.0
  0
LINE
  5
3C24
  8
0
 10
167.56220041578251
 20
150.46780287603701
 30
0.0
 11
177.3122004157824
 21
150.46780287603701
 31
0.0
  0
LINE
  5
3C25
  8
0
 10
167.56220041578251
 20
149.9191201044458
 30
0.0
 11
177.31220041578231
 21
149.9191201044458
 31
0.0
  0
LINE
  5
3C26
  8
0
 10
167.56220041578251
 20
148.4461586236402
 30
0.0
 11
177.31220136945669
 21
148.4461586236402
 31
0.0
  0
LINE
  5
3C27
  8
0
 10
167.56220041578251
 20
147.40250197303871
 30
0.0
 11
177.36265928859919
 21
147.40250197303871
 31
0.0
  0
LINE
  5
3C28
  8
0
 10
167.56220041578251
 20
145.1083106802655
 30
0.0
 11
177.312202548263
 21
145.1083106802655
 31
0.0
  0
LINE
  5
3C29
  8
0
 10
167.56220041578251
 20
143.6718405351981
 30
0.0
 11
177.34964169891521
 21
143.6718405351981
 31
0.0
  0
LINE
  5
3C2A
  8
0
 10
167.56220041578251
 20
140.7809908587646
 30
0.0
 11
177.31220136945669
 21
140.7809908587646
 31
0.0
  0
LINE
  5
3C2B
  8
0
 10
167.56220041578251
 20
139.0923189255065
 30
0.0
 11
177.3464947122385
 21
139.0923189255065
 31
0.0
  0
LINE
  5
3C2C
  8
0
 10
167.56220041578251
 20
149.91912010444571
 30
0.0
 11
167.56220041578251
 21
148.4461586236402
 31
0.0
  0
POLYLINE
  5
3C2D
  8
0
 66
     1
 10
0.0
 20
0.0
 30
0.0
  0
VERTEX
  5
3C2E
  8
0
 10
167.18720041578251
 20
149.8602580671126
 30
0.0
 42
0.0162328826952284
 50
90.0
  0
VERTEX
  5
3C2F
  8
0
 10
167.34213801917821
 20
149.8652895608258
 30
0.0
 42
0.0226962008047463
 50
90.0
  0
VERTEX
  5
3C30
  8
0
 10
167.4523654587274
 20
149.877498358693
 30
0.0
 42
0.0516790455059756
 70
     2
 50
8.9206691496988508
  0
VERTEX
  5
3C31
  8
0
 10
167.55462147257481
 20
149.90458695976551
 30
0.0
 50
8.9206691496988508
  0
VERTEX
  5
3C32
  8
0
 10
167.56220041578251
 20
149.91912010444571
 30
0.0
 50
90.0
  0
SEQEND
  5
3C33
  8
0
  0
POLYLINE
  5
3C34
  8
0
 66
     1
 10
0.0
 20
0.0
 30
0.0
  0
VERTEX
  5
3C35
  8
0
 10
167.5622004157824
 20
145.1083106802655
 30
0.0
 42
0.2015894264067176
 50
90.0
  0
VERTEX
  5
3C36
  8
0
 10
167.441133395516
 20
145.0574313693823
 30
0.0
 42
0.0977170379735125
 50
90.0
  0
VERTEX
  5
3C37
  8
0
 10
167.29703537283751
 20
144.83762869265351
 30
0.0
 42
0.0547927573384048
 70
     2
 50
247.9141022391737
  0
VERTEX
  5
3C38
  8
0
 10
167.2186343389651
 20
144.56081211262679
 30
0.0
 42
0.0416539519670256
 50
247.9141022391737
  0
VERTEX
  5
3C39
  8
0
 10
167.18720041578251
 20
144.1841445670704
 30
0.0
 42
0.0416539519669881
 50
90.0
  0
SEQEND
  5
3C3A
  8
0
  0
LINE
  5
3C3B
  8
0
 10
167.56220041578251
 20
143.6718405351981
 30
0.0
 11
167.5622004157824
 21
140.7809908587646
 31
0.0
  0
POLYLINE
  5
3C3C
  8
0
 66
     1
 10
0.0
 20
0.0
 30
0.0
  0
VERTEX
  5
3C3D
  8
0
 10
167.56220041578251
 20
140.7809908587646
 30
0.0
 42
0.2055316714992537
 50
90.0
  0
VERTEX
  5
3C3E
  8
0
 10
167.4420034302716
 20
140.729403046295
 30
0.0
 42
0.0965313913509376
 50
90.0
  0
VERTEX
  5
3C3F
  8
0
 10
167.29703537283731
 20
140.50198068431209
 30
0.0
 42
0.0533986296957384
 70
     2
 50
248.5124580243924
  0
VERTEX
  5
3C40
  8
0
 10
167.21867557444739
 20
140.21699830941989
 30
0.0
 42
0.0404311354471943
 50
248.5124580243924
  0
VERTEX
  5
3C41
  8
0
 10
167.1872004157822
 20
139.82839053710879
 30
0.0
 42
0.0404311354471791
 50
90.0
  0
SEQEND
  5
3C42
  8
0
  0
POLYLINE
  5
3C43
  8
0
 66
     1
 10
0.0
 20
0.0
 30
0.0
  0
VERTEX
  5
3C44
  8
0
 10
167.18720041578251
 20
139.82839053710879
 30
0.0
 42
0.0520405140106174
 50
90.0
  0
VERTEX
  5
3C45
  8
0
 10
167.21824226073741
 20
139.5309513442964
 30
0.0
 42
0.0658985238271168
 50
90.0
  0
VERTEX
  5
3C46
  8
0
 10
167.29703537283751
 20
139.3079093091059
 30
0.0
 42
0.1046205348859841
 70
     2
 50
296.99708196701903
  0
VERTEX
  5
3C47
  8
0
 10
167.44257252206029
 20
139.1278150893834
 30
0.0
 42
0.1996909920929194
 50
296.99708196701903
  0
VERTEX
  5
3C48
  8
0
 10
167.56220041578251
 20
139.0923189255065
 30
0.0
 42
0.172337143622725
 50
90.0
  0
SEQEND
  5
3C49
  8
0
  0
POLYLINE
  5
3C4A
  8
0
 66
     1
 10
0.0
 20
0.0
 30
0.0
  0
VERTEX
  5
3C4B
  8
0
 10
167.18720041578251
 20
144.1841445670704
 30
0.0
 42
0.0737304435607645
 50
90.0
  0
VERTEX
  5
3C4C
  8
0
 10
167.21720874321929
 20
143.9817505804296
 30
0.0
 42
0.0845717212532976
 50
90.0
  0
VERTEX
  5
3C4D
  8
0
 10
167.29703537283751
 20
143.82189091210429
 30
0.0
 42
0.1063921108588694
 70
     2
 50
306.20365064702992
  0
VERTEX
  5
3C4E
  8
0
 10
167.43431247140899
 20
143.69979448211939
 30
0.0
 42
0.1510088585334486
 50
306.20365064702992
  0
VERTEX
  5
3C4F
  8
0
 10
167.56220041578251
 20
143.67184053519489
 30
0.0
 42
0.1294534172461018
 50
90.0
  0
SEQEND
  5
3C50
  8
0
  0
LINE
  5
3C51
  8
2
 10
166.5622004157824
 20
148.49999999999989
 30
0.0
 11
171.46220041578241
 21
145.49999999999989
 31
0.0
  0
LINE
  5
3C52
  8
0
 10
167.56220041578251
 20
147.40250197303871
 30
0.0
 11
167.56220041578251
 21
145.1083106802655
 31
0.0
  0
POLYLINE
  5
3C53
  8
0
 66
     1
 10
0.0
 20
0.0
 30
0.0
  0
VERTEX
  5
3C54
  8
0
 10
167.56220041578251
 20
148.4461586236402
 30
0.0
 42
0.1837701506072527
 50
90.0
  0
VERTEX
  5
3C55
  8
0
 10
167.43718325259121
 20
148.39860378096409
 30
0.0
 42
0.1023570990015804
 50
90.0
  0
VERTEX
  5
3C56
  8
0
 10
167.29703537283419
 20
148.2103010617684
 30
0.0
 42
0.06139380527182
 70
     2
 50
245.0293849661897
  0
VERTEX
  5
3C57
  8
0
 10
167.21841598934051
 20
147.96753157146571
 30
0.0
 42
0.0476740870733025
 50
245.0293849661897
  0
VERTEX
  5
3C58
  8
0
 10
167.18720041577771
 20
147.64089053710919
 30
0.0
 42
0.0476740870732675
 50
90.0
  0
SEQEND
  5
3C59
  8
0
  0
POLYLINE
  5
3C5A
  8
0
 66
     1
 10
0.0
 20
0.0
 30
0.0
  0
VERTEX
  5
3C5B
  8
0
 10
167.18720041578251
 20
147.64089053710919
 30
0.0
 42
0.1453834159301123
 50
90.0
  0
VERTEX
  5
3C5C
  8
0
 10
167.21241754508009
 20
147.55599732084789
 30
0.0
 42
0.1071699662217274
 50
90.0
  0
VERTEX
  5
3C5D
  8
0
 10
167.29703537283751
 20
147.4723243668976
 30
0.0
 42
0.077350332773411
 70
     2
 50
327.555763887909
  0
VERTEX
  5
3C5E
  8
0
 10
167.42549992836561
 20
147.41620450864329
 30
0.0
 42
0.0789475685392101
 50
327.555763887909
  0
VERTEX
  5
3C5F
  8
0
 10
167.56220041578251
 20
147.4025019730403
 30
0.0
 42
0.0644571111103437
 50
90.0
  0
SEQEND
  5
3C60
  8
0
  0
LINE
  5
3C61
  8
2
 10
171.96220041578241
 20
145.49999999999989
 30
0.0
 11
171.46220041578241
 21
145.49999999999989
 31
0.0
  0
POLYLINE
  5
3C62
  8
0
 66
     1
 10
0.0
 20
0.0
 30
0.0
  0
VERTEX
  5
3C63
  8
0
 10
167.18720041578251
 20
150.62500000000011
 30
0.0
 42
0.092572595455409
 50
90.0
  0
VERTEX
  5
3C64
  8
0
 10
167.33187356860199
 20
150.65201706625751
 30
0.0
 42
0.0958395211622397
 50
90.0
  0
VERTEX
  5
3C65
  8
0
 10
167.4523654587274
 20
150.72761537715999
 30
0.0
 42
0.1008530118927434
 70
     2
 50
43.053698806586652
  0
VERTEX
  5
3C66
  8
0
 10
167.5408627803406
 20
150.8520128378438
 30
0.0
 42
0.1236287328816281
 50
43.053698806586652
  0
VERTEX
  5
3C67
  8
0
 10
167.5622004157778
 20
150.9753508124077
 30
0.0
 42
0.1047089114758273
 50
90.0
  0
SEQEND
  5
3C68
  8
0
  0
POLYLINE
  5
3C69
  8
0
 66
     1
 10
0.0
 20
0.0
 30
0.0
  0
VERTEX
  5
3C6A
  8
0
 10
167.56220041578251
 20
150.46780287603701
 30
0.0
 42
0.1488470320745859
 50
90.0
  0
VERTEX
  5
3C6B
  8
0
 10
167.4294227279961
 20
150.42738016359351
 30
0.0
 42
0.1070939314374275
 50
90.0
  0
VERTEX
  5
3C6C
  8
0
 10
167.29703537283751
 20
150.28985712137771
 30
0.0
 42
0.0758177480846394
 70
     2
 50
238.3155211582224
  0
VERTEX
  5
3C6D
  8
0
 10
167.21776977343529
 20
150.10323676455141
 30
0.0
 42
0.0626584555913342
 50
238.3155211582224
  0
VERTEX
  5
3C6E
  8
0
 10
167.18720041578251
 20
149.8602580671126
 30
0.0
 42
0.0626584555913199
 50
90.0
  0
SEQEND
  5
3C6F
  8
0
  0
LINE
  5
3C70
  8
0
 10
167.56220041578251
 20
150.9753508124077
 30
0.0
 11
167.56220041578251
 21
150.46780287603701
 31
0.0
  0
LINE
  5
3C71
  8
0
 10
167.1872004157926
 20
150.62500000001009
 30
0.0
 11
166.5622004157824
 21
150.0
 31
0.0
  0
POLYLINE
  5
3C72
  8
0
 66
     1
 10
0.0
 20
0.0
 30
0.0
  0
VERTEX
  5
3C73
  8
0
 10
177.68720041578231
 20
149.8602580671126
 30
0.0
 42
-0.0162328826952284
 50
90.0
  0
VERTEX
  5
3C74
  8
0
 10
177.53226281238659
 20
149.8652895608258
 30
0.0
 42
-0.0226962008047463
 50
90.0
  0
VERTEX
  5
3C75
  8
0
 10
177.4220353728374
 20
149.877498358693
 30
0.0
 42
-0.0516790455059756
 70
     2
 50
171.07933085030109
  0
VERTEX
  5
3C76
  8
0
 10
177.3197793589901
 20
149.90458695976551
 30
0.0
 50
90.0
  0
VERTEX
  5
3C77
  8
0
 10
177.3122004157824
 20
149.91912010444571
 30
0.0
 50
90.0
  0
SEQEND
  5
3C78
  8
0
  0
LINE
  5
3C79
  8
0
 10
179.5622004157824
 20
143.5
 30
0.0
 11
187.26220041578239
 21
143.49999999999989
 31
0.0
  0
POLYLINE
  5
3C7A
  8
0
 66
     1
 10
0.0
 20
0.0
 30
0.0
  0
VERTEX
  5
3C7B
  8
0
 10
177.3122004157824
 20
145.1083106802655
 30
0.0
 42
-0.2015894264067176
 50
90.0
  0
VERTEX
  5
3C7C
  8
0
 10
177.43326743604891
 20
145.0574313693823
 30
0.0
 42
-0.0977170379735125
 50
90.0
  0
VERTEX
  5
3C7D
  8
0
 10
177.57736545872729
 20
144.83762869265351
 30
0.0
 42
-0.0547927573384048
 70
     2
 50
292.08589776082619
  0
VERTEX
  5
3C7E
  8
0
 10
177.6557664925997
 20
144.56081211262679
 30
0.0
 42
-0.0416539519670256
 50
90.0
  0
VERTEX
  5
3C7F
  8
0
 10
177.68720041578231
 20
144.1841445670704
 30
0.0
 42
-0.0416539519669881
 50
90.0
  0
SEQEND
  5
3C80
  8
0
  0
POLYLINE
  5
3C81
  8
0
 66
     1
 10
0.0
 20
0.0
 30
0.0
  0
VERTEX
  5
3C82
  8
0
 10
177.68720041578231
 20
144.1841445670704
 30
0.0
 42
-0.0737304435607645
 50
90.0
  0
VERTEX
  5
3C83
  8
0
 10
177.6571920883456
 20
143.9817505804296
 30
0.0
 42
-0.0845717212532976
 50
90.0
  0
VERTEX
  5
3C84
  8
0
 10
177.57736545872729
 20
143.82189091210429
 30
0.0
 42
-0.1063921108588694
 70
     2
 50
233.79634935297
  0
VERTEX
  5
3C85
  8
0
 10
177.44008836015581
 20
143.69979448211939
 30
0.0
 42
-0.1510088585334486
 50
90.0
  0
VERTEX
  5
3C86
  8
0
 10
177.3122004157824
 20
143.67184053519489
 30
0.0
 42
-0.1294534172461018
 50
90.0
  0
SEQEND
  5
3C87
  8
0
  0
POLYLINE
  5
3C88
  8
0
 66
     1
 10
0.0
 20
0.0
 30
0.0
  0
VERTEX
  5
3C89
  8
0
 10
177.68720041578231
 20
139.82839053710879
 30
0.0
 42
-0.0520405140106174
 50
90.0
  0
VERTEX
  5
3C8A
  8
0
 10
177.65615857082739
 20
139.5309513442964
 30
0.0
 42
-0.0658985238271168
 50
90.0
  0
VERTEX
  5
3C8B
  8
0
 10
177.57736545872729
 20
139.3079093091059
 30
0.0
 42
-0.1046205348859841
 70
     2
 50
243.00291803298089
  0
VERTEX
  5
3C8C
  8
0
 10
177.4318283095046
 20
139.1278150893834
 30
0.0
 42
-0.1996909920929194
 50
90.0
  0
VERTEX
  5
3C8D
  8
0
 10
177.3122004157824
 20
139.0923189255065
 30
0.0
 42
-0.172337143622725
 50
90.0
  0
SEQEND
  5
3C8E
  8
0
  0
POLYLINE
  5
3C8F
  8
0
 66
     1
 10
0.0
 20
0.0
 30
0.0
  0
VERTEX
  5
3C90
  8
0
 10
177.3122004157824
 20
140.7809908587646
 30
0.0
 42
-0.2055316714992537
 50
90.0
  0
VERTEX
  5
3C91
  8
0
 10
177.4323974012932
 20
140.729403046295
 30
0.0
 42
-0.0965313913509376
 50
90.0
  0
VERTEX
  5
3C92
  8
0
 10
177.57736545872751
 20
140.50198068431209
 30
0.0
 42
-0.0533986296957384
 70
     2
 50
291.48754197560748
  0
VERTEX
  5
3C93
  8
0
 10
177.65572525711741
 20
140.21699830941989
 30
0.0
 42
-0.0404311354471943
 50
90.0
  0
VERTEX
  5
3C94
  8
0
 10
177.6872004157826
 20
139.82839053710879
 30
0.0
 42
-0.0404311354471791
 50
90.0
  0
SEQEND
  5
3C95
  8
0
  0
POLYLINE
  5
3C96
  8
0
 66
     1
 10
0.0
 20
0.0
 30
0.0
  0
VERTEX
  5
3C97
  8
0
 10
177.68720041578231
 20
147.64089053710919
 30
0.0
 42
-0.1453834159301123
 50
90.0
  0
VERTEX
  5
3C98
  8
0
 10
177.66198328648471
 20
147.55599732084789
 30
0.0
 42
-0.1071699662217274
 50
90.0
  0
VERTEX
  5
3C99
  8
0
 10
177.57736545872729
 20
147.4723243668976
 30
0.0
 42
-0.077350332773411
 70
     2
 50
212.44423611209089
  0
VERTEX
  5
3C9A
  8
0
 10
177.4489009031993
 20
147.41620450864329
 30
0.0
 42
-0.0789475685392101
 50
90.0
  0
VERTEX
  5
3C9B
  8
0
 10
177.3122004157824
 20
147.4025019730403
 30
0.0
 42
-0.0644571111103437
 50
90.0
  0
SEQEND
  5
3C9C
  8
0
  0
POLYLINE
  5
3C9D
  8
0
 66
     1
 10
0.0
 20
0.0
 30
0.0
  0
VERTEX
  5
3C9E
  8
0
 10
177.3122004157824
 20
148.4461586236402
 30
0.0
 42
-0.1837701506072527
 50
90.0
  0
VERTEX
  5
3C9F
  8
0
 10
177.4372175789737
 20
148.39860378096409
 30
0.0
 42
-0.1023570990015804
 50
90.0
  0
VERTEX
  5
3CA0
  8
0
 10
177.5773654587307
 20
148.2103010617684
 30
0.0
 42
-0.06139380527182
 70
     2
 50
294.9706150338103
  0
VERTEX
  5
3CA1
  8
0
 10
177.65598484222431
 20
147.96753157146571
 30
0.0
 42
-0.0476740870733025
 50
90.0
  0
VERTEX
  5
3CA2
  8
0
 10
177.68720041578709
 20
147.64089053710919
 30
0.0
 42
-0.0476740870732675
 50
90.0
  0
SEQEND
  5
3CA3
  8
0
  0
POLYLINE
  5
3CA4
  8
0
 66
     1
 10
0.0
 20
0.0
 30
0.0
  0
VERTEX
  5
3CA5
  8
0
 10
177.3122004157824
 20
150.9753508124077
 30
0.0
 42
0.0068051090718327
 50
90.0
  0
VERTEX
  5
3CA6
  8
0
 10
177.4674611239943
 20
150.97746404237819
 30
0.0
 42
0.0096044777403865
 50
90.0
  0
VERTEX
  5
3CA7
  8
0
 10
177.57736545872729
 20
150.9825703923027
 30
0.0
 42
0.0229390352869734
 70
     2
 50
3.7607085175068882
  0
VERTEX
  5
3CA8
  8
0
 10
177.68398038160171
 20
150.99450819652009
 30
0.0
 50
3.7607085175068882
  0
VERTEX
  5
3CA9
  8
0
 10
177.68720041578231
 20
151.0
 30
0.0
 50
90.0
  0
SEQEND
  5
3CAA
  8
0
  0
POLYLINE
  5
3CAB
  8
0
 66
     1
 10
0.0
 20
0.0
 30
0.0
  0
VERTEX
  5
3CAC
  8
0
 10
177.3122004157824
 20
150.46780287603701
 30
0.0
 42
-0.1488470320745859
 50
90.0
  0
VERTEX
  5
3CAD
  8
0
 10
177.4449781035687
 20
150.42738016359351
 30
0.0
 42
-0.1070939314374275
 50
90.0
  0
VERTEX
  5
3CAE
  8
0
 10
177.57736545872729
 20
150.28985712137771
 30
0.0
 42
-0.0758177480846394
 70
     2
 50
301.68447884177749
  0
VERTEX
  5
3CAF
  8
0
 10
177.65663105812951
 20
150.10323676455141
 30
0.0
 42
-0.0626584555913342
 50
90.0
  0
VERTEX
  5
3CB0
  8
0
 10
177.68720041578231
 20
149.8602580671126
 30
0.0
 42
-0.0626584555913199
 50
90.0
  0
SEQEND
  5
3CB1
  8
0
  0
LINE
  5
3CB2
  8
0
 10
177.68720041578231
 20
151.0
 30
0.0
 11
178.5622004157824
 21
151.0
 31
0.0
  0
LINE
  5
3CB3
  8
0
 10
178.5622004157824
 20
151.0
 30
0.0
 11
179.5622004157824
 21
150.0
 31
0.0
  0
LINE
  5
3CB4
  8
2
 10
171.46220041578241
 20
189.49999999999989
 30
0.0
 11
171.46220041578249
 21
210.49999999999989
 31
0.0
  0
LINE
  5
3CB5
  8
2
 10
171.96220041578249
 20
210.49999999999989
 30
0.0
 11
171.96220041578241
 21
189.49999999999989
 31
0.0
  0
LINE
  5
3CB6
  8
0
 10
179.56220041578251
 20
215.0
 30
0.0
 11
179.56220041578251
 21
185.0
 31
0.0
  0
LINE
  5
3CB7
  8
0
 10
187.26220041578239
 20
208.49999999999989
 30
0.0
 11
187.26220041578239
 21
191.5
 31
0.0
  0
LINE
  5
3CB8
  8
0
 10
178.56220041578251
 20
216.0
 30
0.0
 11
178.56220041578251
 21
184.0
 31
0.0
  0
LINE
  5
3CB9
  8
0
 10
166.5622004157824
 20
185.0
 30
0.0
 11
166.56220041578251
 21
215.0
 31
0.0
  0
POLYLINE
  5
3CBA
  8
0
 66
     1
 10
0.0
 20
0.0
 30
0.0
  0
VERTEX
  5
3CBB
  8
0
 10
167.1872004157826
 20
204.82839053710879
 30
0.0
 42
0.0520405140106174
 50
90.0
  0
VERTEX
  5
3CBC
  8
0
 10
167.21824226073741
 20
204.5309513442964
 30
0.0
 42
0.0658985238271168
 50
90.0
  0
VERTEX
  5
3CBD
  8
0
 10
167.2970353728376
 20
204.3079093091059
 30
0.0
 42
0.1046205348859841
 70
     2
 50
296.99708196701903
  0
VERTEX
  5
3CBE
  8
0
 10
167.44257252206029
 20
204.1278150893834
 30
0.0
 42
0.1996909920929194
 50
296.99708196701903
  0
VERTEX
  5
3CBF
  8
0
 10
167.56220041578251
 20
204.0923189255065
 30
0.0
 42
0.172337143622725
 50
90.0
  0
SEQEND
  5
3CC0
  8
0
  0
POLYLINE
  5
3CC1
  8
0
 66
     1
 10
0.0
 20
0.0
 30
0.0
  0
VERTEX
  5
3CC2
  8
0
 10
177.68720041578231
 20
204.82839053710879
 30
0.0
 42
-0.0520405140106174
 50
90.0
  0
VERTEX
  5
3CC3
  8
0
 10
177.65615857082739
 20
204.5309513442964
 30
0.0
 42
-0.0658985238271168
 50
90.0
  0
VERTEX
  5
3CC4
  8
0
 10
177.57736545872729
 20
204.3079093091059
 30
0.0
 42
-0.1046205348859841
 70
     2
 50
243.00291803298089
  0
VERTEX
  5
3CC5
  8
0
 10
177.4318283095046
 20
204.1278150893834
 30
0.0
 42
-0.1996909920929194
 50
90.0
  0
VERTEX
  5
3CC6
  8
0
 10
177.3122004157824
 20
204.0923189255065
 30
0.0
 42
-0.172337143622725
 50
90.0
  0
SEQEND
  5
3CC7
  8
0
  0
LINE
  5
3CC8
  8
0
 10
167.56220041578251
 20
200.8877873734761
 30
0.0
 11
177.31220041578251
 21
200.8877873734761
 31
0.0
  0
LINE
  5
3CC9
  8
0
 10
167.56220041578251
 20
204.0923189255065
 30
0.0
 11
177.3464947122385
 21
204.0923189255065
 31
0.0
  0
LINE
  5
3CCA
  8
0
 10
167.56220041578251
 20
184.02464918759219
 30
0.0
 11
177.3122004157824
 21
184.02464918759219
 31
0.0
  0
LINE
  5
3CCB
  8
0
 10
167.56220041578251
 20
184.5321971239629
 30
0.0
 11
177.3122004157824
 21
184.5321971239629
 31
0.0
  0
LINE
  5
3CCC
  8
0
 10
167.56220041578251
 20
185.08087989555409
 30
0.0
 11
177.3122004157824
 21
185.08087989555409
 31
0.0
  0
LINE
  5
3CCD
  8
0
 10
167.56220041578251
 20
186.5538413763598
 30
0.0
 11
177.31220136945669
 21
186.5538413763598
 31
0.0
  0
LINE
  5
3CCE
  8
0
 10
167.56220041578251
 20
187.5974980269612
 30
0.0
 11
177.36265928859919
 21
187.5974980269612
 31
0.0
  0
LINE
  5
3CCF
  8
0
 10
167.56220041578251
 20
189.89168931973441
 30
0.0
 11
177.312202548263
 21
189.89168931973441
 31
0.0
  0
LINE
  5
3CD0
  8
0
 10
167.56220041578251
 20
191.3281594648019
 30
0.0
 11
177.34964169891521
 21
191.3281594648019
 31
0.0
  0
LINE
  5
3CD1
  8
0
 10
167.56220041578251
 20
194.21900914123529
 30
0.0
 11
177.31220136945669
 21
194.21900914123529
 31
0.0
  0
LINE
  5
3CD2
  8
0
 10
167.56220041578251
 20
195.90768107449341
 30
0.0
 11
177.3464947122385
 21
195.90768107449341
 31
0.0
  0
LINE
  5
3CD3
  8
0
 10
167.56220041578251
 20
199.11221262652381
 30
0.0
 11
177.31220041578251
 21
199.11221262652381
 31
0.0
  0
LINE
  5
3CD4
  8
0
 10
167.56220041578251
 20
191.3281594648019
 30
0.0
 11
167.56220041578251
 21
194.21900914123529
 31
0.0
  0
LINE
  5
3CD5
  8
2
 10
166.56220041578251
 20
186.5
 30
0.0
 11
171.46220041578241
 21
189.49999999999989
 31
0.0
  0
LINE
  5
3CD6
  8
0
 10
167.56220041578251
 20
187.5974980269612
 30
0.0
 11
167.56220041578251
 21
189.89168931973441
 31
0.0
  0
POLYLINE
  5
3CD7
  8
0
 66
     1
 10
0.0
 20
0.0
 30
0.0
  0
VERTEX
  5
3CD8
  8
0
 10
167.1872004157826
 20
184.3749999999998
 30
0.0
 42
-0.092572595455409
 50
90.0
  0
VERTEX
  5
3CD9
  8
0
 10
167.33187356860199
 20
184.34798293374229
 30
0.0
 42
-0.0958395211622397
 50
90.0
  0
VERTEX
  5
3CDA
  8
0
 10
167.45236545872751
 20
184.27238462283989
 30
0.0
 42
-0.1008530118927434
 70
     2
 50
316.94630119341338
  0
VERTEX
  5
3CDB
  8
0
 10
167.5408627803406
 20
184.14798716215611
 30
0.0
 42
-0.1236287328816281
 50
90.0
  0
VERTEX
  5
3CDC
  8
0
 10
167.5622004157778
 20
184.02464918759219
 30
0.0
 42
-0.1047089114758273
 50
90.0
  0
SEQEND
  5
3CDD
  8
0
  0
LINE
  5
3CDE
  8
0
 10
167.56220041578251
 20
185.08087989555409
 30
0.0
 11
167.56220041578251
 21
186.5538413763598
 31
0.0
  0
POLYLINE
  5
3CDF
  8
0
 66
     1
 10
0.0
 20
0.0
 30
0.0
  0
VERTEX
  5
3CE0
  8
0
 10
167.1872004157826
 20
185.13974193288729
 30
0.0
 42
-0.0162328826952284
 50
90.0
  0
VERTEX
  5
3CE1
  8
0
 10
167.34213801917821
 20
185.13471043917411
 30
0.0
 42
-0.0226962008047463
 50
90.0
  0
VERTEX
  5
3CE2
  8
0
 10
167.45236545872751
 20
185.12250164130691
 30
0.0
 42
-0.0516790455059756
 70
     2
 50
351.07933085030112
  0
VERTEX
  5
3CE3
  8
0
 10
167.55462147257481
 20
185.0954130402344
 30
0.0
 50
90.0
  0
VERTEX
  5
3CE4
  8
0
 10
167.56220041578251
 20
185.08087989555409
 30
0.0
 50
90.0
  0
SEQEND
  5
3CE5
  8
0
  0
POLYLINE
  5
3CE6
  8
0
 66
     1
 10
0.0
 20
0.0
 30
0.0
  0
VERTEX
  5
3CE7
  8
0
 10
167.56220041578251
 20
184.5321971239629
 30
0.0
 42
-0.1488470320745859
 50
90.0
  0
VERTEX
  5
3CE8
  8
0
 10
167.42942272799621
 20
184.5726198364064
 30
0.0
 42
-0.1070939314374275
 50
90.0
  0
VERTEX
  5
3CE9
  8
0
 10
167.2970353728376
 20
184.71014287862221
 30
0.0
 42
-0.0758177480846394
 70
     2
 50
121.6844788417775
  0
VERTEX
  5
3CEA
  8
0
 10
167.21776977343541
 20
184.8967632354485
 30
0.0
 42
-0.0626584555913342
 50
90.0
  0
VERTEX
  5
3CEB
  8
0
 10
167.1872004157826
 20
185.13974193288729
 30
0.0
 42
-0.0626584555913199
 50
90.0
  0
SEQEND
  5
3CEC
  8
0
  0
POLYLINE
  5
3CED
  8
0
 66
     1
 10
0.0
 20
0.0
 30
0.0
  0
VERTEX
  5
3CEE
  8
0
 10
167.56220041578251
 20
186.5538413763598
 30
0.0
 42
-0.1837701506072527
 50
90.0
  0
VERTEX
  5
3CEF
  8
0
 10
167.43718325259121
 20
186.60139621903579
 30
0.0
 42
-0.1023570990015804
 50
90.0
  0
VERTEX
  5
3CF0
  8
0
 10
167.29703537283419
 20
186.7896989382316
 30
0.0
 42
-0.06139380527182
 70
     2
 50
114.9706150338103
  0
VERTEX
  5
3CF1
  8
0
 10
167.21841598934051
 20
187.0324684285342
 30
0.0
 42
-0.0476740870733025
 50
90.0
  0
VERTEX
  5
3CF2
  8
0
 10
167.18720041577771
 20
187.3591094628907
 30
0.0
 42
-0.0476740870732675
 50
90.0
  0
SEQEND
  5
3CF3
  8
0
  0
POLYLINE
  5
3CF4
  8
0
 66
     1
 10
0.0
 20
0.0
 30
0.0
  0
VERTEX
  5
3CF5
  8
0
 10
167.1872004157826
 20
187.3591094628907
 30
0.0
 42
-0.1453834159301123
 50
90.0
  0
VERTEX
  5
3CF6
  8
0
 10
167.21241754508009
 20
187.44400267915199
 30
0.0
 42
-0.1071699662217274
 50
90.0
  0
VERTEX
  5
3CF7
  8
0
 10
167.2970353728376
 20
187.52767563310229
 30
0.0
 42
-0.077350332773411
 70
     2
 50
32.444236112090998
  0
VERTEX
  5
3CF8
  8
0
 10
167.42549992836561
 20
187.5837954913566
 30
0.0
 42
-0.0789475685392101
 50
90.0
  0
VERTEX
  5
3CF9
  8
0
 10
167.56220041578251
 20
187.59749802695961
 30
0.0
 42
-0.0644571111103437
 50
90.0
  0
SEQEND
  5
3CFA
  8
0
  0
LINE
  5
3CFB
  8
0
 10
167.56220041578251
 20
184.02464918759219
 30
0.0
 11
167.56220041578251
 21
184.5321971239629
 31
0.0
  0
LINE
  5
3CFC
  8
0
 10
167.1872004157926
 20
184.3749999999898
 30
0.0
 11
166.56220041578251
 21
185.0
 31
0.0
  0
POLYLINE
  5
3CFD
  8
0
 66
     1
 10
0.0
 20
0.0
 30
0.0
  0
VERTEX
  5
3CFE
  8
0
 10
167.1872004157826
 20
190.81585543292951
 30
0.0
 42
-0.0737304435607645
 50
90.0
  0
VERTEX
  5
3CFF
  8
0
 10
167.21720874321929
 20
191.01824941957031
 30
0.0
 42
-0.0845717212532976
 50
90.0
  0
VERTEX
  5
3D00
  8
0
 10
167.29703537283751
 20
191.17810908789559
 30
0.0
 42
-0.1063921108588694
 70
     2
 50
53.796349352970111
  0
VERTEX
  5
3D01
  8
0
 10
167.43431247140899
 20
191.3002055178805
 30
0.0
 42
-0.1510088585334486
 50
90.0
  0
VERTEX
  5
3D02
  8
0
 10
167.56220041578251
 20
191.328159464805
 30
0.0
 42
-0.1294534172461018
 50
90.0
  0
SEQEND
  5
3D03
  8
0
  0
POLYLINE
  5
3D04
  8
0
 66
     1
 10
0.0
 20
0.0
 30
0.0
  0
VERTEX
  5
3D05
  8
0
 10
167.56220041578251
 20
189.89168931973441
 30
0.0
 42
-0.2015894264067176
 50
90.0
  0
VERTEX
  5
3D06
  8
0
 10
167.441133395516
 20
189.94256863061759
 30
0.0
 42
-0.0977170379735125
 50
90.0
  0
VERTEX
  5
3D07
  8
0
 10
167.2970353728376
 20
190.1623713073464
 30
0.0
 42
-0.0547927573384048
 70
     2
 50
112.0858977608263
  0
VERTEX
  5
3D08
  8
0
 10
167.21863433896519
 20
190.43918788737309
 30
0.0
 42
-0.0416539519670256
 50
90.0
  0
VERTEX
  5
3D09
  8
0
 10
167.1872004157826
 20
190.81585543292951
 30
0.0
 42
-0.0416539519669881
 50
90.0
  0
SEQEND
  5
3D0A
  8
0
  0
LINE
  5
3D0B
  8
2
 10
171.96220041578241
 20
189.49999999999989
 30
0.0
 11
171.46220041578241
 21
189.49999999999989
 31
0.0
  0
LINE
  5
3D0C
  8
0
 10
167.56220041578251
 20
195.90768107449341
 30
0.0
 11
167.56220041578251
 21
199.11221262652381
 31
0.0
  0
POLYLINE
  5
3D0D
  8
0
 66
     1
 10
0.0
 20
0.0
 30
0.0
  0
VERTEX
  5
3D0E
  8
0
 10
167.56220041578251
 20
194.21900914123529
 30
0.0
 42
-0.2055316714992537
 50
90.0
  0
VERTEX
  5
3D0F
  8
0
 10
167.4420034302716
 20
194.27059695370491
 30
0.0
 42
-0.0965313913509376
 50
90.0
  0
VERTEX
  5
3D10
  8
0
 10
167.29703537283731
 20
194.4980193156878
 30
0.0
 42
-0.0533986296957384
 70
     2
 50
111.4875419756076
  0
VERTEX
  5
3D11
  8
0
 10
167.21867557444739
 20
194.78300169057999
 30
0.0
 42
-0.0404311354471943
 50
90.0
  0
VERTEX
  5
3D12
  8
0
 10
167.1872004157822
 20
195.1716094628911
 30
0.0
 42
-0.0404311354471791
 50
90.0
  0
SEQEND
  5
3D13
  8
0
  0
POLYLINE
  5
3D14
  8
0
 66
     1
 10
0.0
 20
0.0
 30
0.0
  0
VERTEX
  5
3D15
  8
0
 10
167.1872004157826
 20
195.1716094628911
 30
0.0
 42
-0.0520405140106174
 50
90.0
  0
VERTEX
  5
3D16
  8
0
 10
167.21824226073741
 20
195.46904865570349
 30
0.0
 42
-0.0658985238271168
 50
90.0
  0
VERTEX
  5
3D17
  8
0
 10
167.2970353728376
 20
195.69209069089399
 30
0.0
 42
-0.1046205348859841
 70
     2
 50
63.002918032980951
  0
VERTEX
  5
3D18
  8
0
 10
167.44257252206029
 20
195.87218491061651
 30
0.0
 42
-0.1996909920929194
 50
90.0
  0
VERTEX
  5
3D19
  8
0
 10
167.56220041578251
 20
195.90768107449341
 30
0.0
 42
-0.172337143622725
 50
90.0
  0
SEQEND
  5
3D1A
  8
0
  0
POLYLINE
  5
3D1B
  8
0
 66
     1
 10
0.0
 20
0.0
 30
0.0
  0
VERTEX
  5
3D1C
  8
0
 10
167.1872004157826
 20
200.0
 30
0.0
 42
0.0433295665536456
 50
90.0
  0
VERTEX
  5
3D1D
  8
0
 10
167.21857610210839
 20
199.63862112533729
 30
0.0
 42
0.0566743414169658
 50
90.0
  0
VERTEX
  5
3D1E
  8
0
 10
167.2970353728376
 20
199.37223952796319
 30
0.0
 42
0.0992025570697266
 70
     2
 50
292.89911996388048
  0
VERTEX
  5
3D1F
  8
0
 10
167.44744826678561
 20
199.1511612975377
 30
0.0
 42
0.2280338981645266
 50
292.89911996388048
  0
VERTEX
  5
3D20
  8
0
 10
167.56220041578251
 20
199.11221262654129
 30
0.0
 42
0.1963710675046459
 50
90.0
  0
SEQEND
  5
3D21
  8
0
  0
POLYLINE
  5
3D22
  8
0
 66
     1
 10
0.0
 20
0.0
 30
0.0
  0
VERTEX
  5
3D23
  8
0
 10
167.5622004157824
 20
200.8877873734761
 30
0.0
 42
0.1963710675046226
 50
90.0
  0
VERTEX
  5
3D24
  8
0
 10
167.43997929366279
 20
200.83786073828821
 30
0.0
 42
0.0992025570696904
 50
90.0
  0
VERTEX
  5
3D25
  8
0
 10
167.29703537283751
 20
200.6277604720367
 30
0.0
 42
0.0566743414169369
 70
     2
 50
247.10088003612381
  0
VERTEX
  5
3D26
  8
0
 10
167.21857610210839
 20
200.36137887466271
 30
0.0
 42
0.0433295665536664
 50
247.10088003612381
  0
VERTEX
  5
3D27
  8
0
 10
167.1872004157826
 20
200.0
 30
0.0
 42
0.0433295665536456
 50
90.0
  0
SEQEND
  5
3D28
  8
0
  0
LINE
  5
3D29
  8
0
 10
167.56220041578251
 20
204.0923189255065
 30
0.0
 11
167.56220041578251
 21
200.8877873734761
 31
0.0
  0
LINE
  5
3D2A
  8
0
 10
179.5622004157824
 20
191.5
 30
0.0
 11
187.26220041578239
 21
191.5
 31
0.0
  0
LINE
  5
3D2B
  8
0
 10
178.56220041578251
 20
184.0
 30
0.0
 11
179.56220041578251
 21
185.0
 31
0.0
  0
POLYLINE
  5
3D2C
  8
0
 66
     1
 10
0.0
 20
0.0
 30
0.0
  0
VERTEX
  5
3D2D
  8
0
 10
177.3122004157824
 20
184.02464918759219
 30
0.0
 42
-0.0068051090718327
 50
90.0
  0
VERTEX
  5
3D2E
  8
0
 10
177.4674611239943
 20
184.0225359576217
 30
0.0
 42
-0.0096044777403865
 50
90.0
  0
VERTEX
  5
3D2F
  8
0
 10
177.57736545872729
 20
184.01742960769721
 30
0.0
 42
-0.0229390352869734
 70
     2
 50
356.23929148249312
  0
VERTEX
  5
3D30
  8
0
 10
177.68398038160171
 20
184.0054918034798
 30
0.0
 50
90.0
  0
VERTEX
  5
3D31
  8
0
 10
177.6872004157824
 20
184.0
 30
0.0
 50
90.0
  0
SEQEND
  5
3D32
  8
0
  0
POLYLINE
  5
3D33
  8
0
 66
     1
 10
0.0
 20
0.0
 30
0.0
  0
VERTEX
  5
3D34
  8
0
 10
177.68720041578231
 20
187.3591094628907
 30
0.0
 42
0.1453834159301123
 50
90.0
  0
VERTEX
  5
3D35
  8
0
 10
177.6619832864848
 20
187.44400267915199
 30
0.0
 42
0.1071699662217274
 50
90.0
  0
VERTEX
  5
3D36
  8
0
 10
177.57736545872729
 20
187.52767563310229
 30
0.0
 42
0.077350332773411
 70
     2
 50
147.555763887909
  0
VERTEX
  5
3D37
  8
0
 10
177.4489009031993
 20
187.5837954913566
 30
0.0
 42
0.0789475685392101
 50
90.0
  0
VERTEX
  5
3D38
  8
0
 10
177.3122004157824
 20
187.59749802695961
 30
0.0
 42
0.0644571111103437
 50
90.0
  0
SEQEND
  5
3D39
  8
0
  0
POLYLINE
  5
3D3A
  8
0
 66
     1
 10
0.0
 20
0.0
 30
0.0
  0
VERTEX
  5
3D3B
  8
0
 10
177.3122004157824
 20
186.5538413763598
 30
0.0
 42
0.1837701506072527
 50
90.0
  0
VERTEX
  5
3D3C
  8
0
 10
177.4372175789737
 20
186.60139621903579
 30
0.0
 42
0.1023570990015804
 50
90.0
  0
VERTEX
  5
3D3D
  8
0
 10
177.5773654587307
 20
186.7896989382316
 30
0.0
 42
0.06139380527182
 70
     2
 50
65.029384966189681
  0
VERTEX
  5
3D3E
  8
0
 10
177.65598484222431
 20
187.0324684285342
 30
0.0
 42
0.0476740870733025
 50
90.0
  0
VERTEX
  5
3D3F
  8
0
 10
177.68720041578709
 20
187.3591094628907
 30
0.0
 42
0.0476740870732675
 50
90.0
  0
SEQEND
  5
3D40
  8
0
  0
POLYLINE
  5
3D41
  8
0
 66
     1
 10
0.0
 20
0.0
 30
0.0
  0
VERTEX
  5
3D42
  8
0
 10
177.3122004157824
 20
184.5321971239629
 30
0.0
 42
0.1488470320745859
 50
90.0
  0
VERTEX
  5
3D43
  8
0
 10
177.4449781035687
 20
184.5726198364064
 30
0.0
 42
0.1070939314374275
 50
90.0
  0
VERTEX
  5
3D44
  8
0
 10
177.57736545872729
 20
184.71014287862221
 30
0.0
 42
0.0758177480846394
 70
     2
 50
58.315521158222467
  0
VERTEX
  5
3D45
  8
0
 10
177.65663105812951
 20
184.8967632354485
 30
0.0
 42
0.0626584555913342
 50
90.0
  0
VERTEX
  5
3D46
  8
0
 10
177.68720041578231
 20
185.13974193288729
 30
0.0
 42
0.0626584555913199
 50
90.0
  0
SEQEND
  5
3D47
  8
0
  0
POLYLINE
  5
3D48
  8
0
 66
     1
 10
0.0
 20
0.0
 30
0.0
  0
VERTEX
  5
3D49
  8
0
 10
177.68720041578231
 20
185.13974193288729
 30
0.0
 42
0.0162328826952284
 50
90.0
  0
VERTEX
  5
3D4A
  8
0
 10
177.53226281238659
 20
185.13471043917411
 30
0.0
 42
0.0226962008047463
 50
90.0
  0
VERTEX
  5
3D4B
  8
0
 10
177.4220353728374
 20
185.12250164130691
 30
0.0
 42
0.0516790455059756
 70
     2
 50
188.9206691496988
  0
VERTEX
  5
3D4C
  8
0
 10
177.3197793589901
 20
185.0954130402344
 30
0.0
 50
90.0
  0
VERTEX
  5
3D4D
  8
0
 10
177.3122004157824
 20
185.08087989555409
 30
0.0
 50
90.0
  0
SEQEND
  5
3D4E
  8
0
  0
LINE
  5
3D4F
  8
0
 10
177.6872004157824
 20
184.0
 30
0.0
 11
178.56220041578251
 21
184.0
 31
0.0
  0
POLYLINE
  5
3D50
  8
0
 66
     1
 10
0.0
 20
0.0
 30
0.0
  0
VERTEX
  5
3D51
  8
0
 10
177.3122004157824
 20
189.89168931973441
 30
0.0
 42
0.2015894264067176
 50
90.0
  0
VERTEX
  5
3D52
  8
0
 10
177.43326743604891
 20
189.94256863061759
 30
0.0
 42
0.0977170379735125
 50
90.0
  0
VERTEX
  5
3D53
  8
0
 10
177.57736545872729
 20
190.1623713073464
 30
0.0
 42
0.0547927573384048
 70
     2
 50
67.914102239173715
  0
VERTEX
  5
3D54
  8
0
 10
177.6557664925997
 20
190.43918788737309
 30
0.0
 42
0.0416539519670256
 50
90.0
  0
VERTEX
  5
3D55
  8
0
 10
177.68720041578231
 20
190.81585543292951
 30
0.0
 42
0.0416539519669881
 50
90.0
  0
SEQEND
  5
3D56
  8
0
  0
POLYLINE
  5
3D57
  8
0
 66
     1
 10
0.0
 20
0.0
 30
0.0
  0
VERTEX
  5
3D58
  8
0
 10
177.68720041578231
 20
190.81585543292951
 30
0.0
 42
0.0737304435607645
 50
90.0
  0
VERTEX
  5
3D59
  8
0
 10
177.6571920883456
 20
191.01824941957031
 30
0.0
 42
0.0845717212532976
 50
90.0
  0
VERTEX
  5
3D5A
  8
0
 10
177.5773654587274
 20
191.17810908789559
 30
0.0
 42
0.1063921108588694
 70
     2
 50
126.2036506470299
  0
VERTEX
  5
3D5B
  8
0
 10
177.44008836015581
 20
191.3002055178805
 30
0.0
 42
0.1510088585334486
 50
90.0
  0
VERTEX
  5
3D5C
  8
0
 10
177.3122004157824
 20
191.328159464805
 30
0.0
 42
0.1294534172461018
 50
90.0
  0
SEQEND
  5
3D5D
  8
0
  0
POLYLINE
  5
3D5E
  8
0
 66
     1
 10
0.0
 20
0.0
 30
0.0
  0
VERTEX
  5
3D5F
  8
0
 10
177.68720041578231
 20
195.1716094628911
 30
0.0
 42
0.0520405140106174
 50
90.0
  0
VERTEX
  5
3D60
  8
0
 10
177.65615857082739
 20
195.46904865570349
 30
0.0
 42
0.0658985238271168
 50
90.0
  0
VERTEX
  5
3D61
  8
0
 10
177.57736545872729
 20
195.69209069089399
 30
0.0
 42
0.1046205348859841
 70
     2
 50
116.9970819670191
  0
VERTEX
  5
3D62
  8
0
 10
177.4318283095046
 20
195.87218491061651
 30
0.0
 42
0.1996909920929194
 50
90.0
  0
VERTEX
  5
3D63
  8
0
 10
177.3122004157824
 20
195.90768107449341
 30
0.0
 42
0.172337143622725
 50
90.0
  0
SEQEND
  5
3D64
  8
0
  0
POLYLINE
  5
3D65
  8
0
 66
     1
 10
0.0
 20
0.0
 30
0.0
  0
VERTEX
  5
3D66
  8
0
 10
177.3122004157824
 20
194.21900914123529
 30
0.0
 42
0.2055316714992537
 50
90.0
  0
VERTEX
  5
3D67
  8
0
 10
177.43239740129329
 20
194.27059695370491
 30
0.0
 42
0.0965313913509376
 50
90.0
  0
VERTEX
  5
3D68
  8
0
 10
177.57736545872751
 20
194.4980193156878
 30
0.0
 42
0.0533986296957384
 70
     2
 50
68.512458024392416
  0
VERTEX
  5
3D69
  8
0
 10
177.65572525711741
 20
194.78300169057999
 30
0.0
 42
0.0404311354471943
 50
90.0
  0
VERTEX
  5
3D6A
  8
0
 10
177.6872004157826
 20
195.1716094628911
 30
0.0
 42
0.0404311354471791
 50
90.0
  0
SEQEND
  5
3D6B
  8
0
  0
POLYLINE
  5
3D6C
  8
0
 66
     1
 10
0.0
 20
0.0
 30
0.0
  0
VERTEX
  5
3D6D
  8
0
 10
177.3122004157824
 20
200.8877873734761
 30
0.0
 42
-0.1963710675046226
 50
90.0
  0
VERTEX
  5
3D6E
  8
0
 10
177.4344215379021
 20
200.83786073828821
 30
0.0
 42
-0.0992025570696904
 50
90.0
  0
VERTEX
  5
3D6F
  8
0
 10
177.57736545872729
 20
200.6277604720367
 30
0.0
 42
-0.0566743414169369
 70
     2
 50
292.89911996387622
  0
VERTEX
  5
3D70
  8
0
 10
177.6558247294565
 20
200.36137887466271
 30
0.0
 42
-0.0433295665536664
 50
90.0
  0
VERTEX
  5
3D71
  8
0
 10
177.68720041578231
 20
200.0
 30
0.0
 42
-0.0433295665536456
 50
90.0
  0
SEQEND
  5
3D72
  8
0
  0
POLYLINE
  5
3D73
  8
0
 66
     1
 10
0.0
 20
0.0
 30
0.0
  0
VERTEX
  5
3D74
  8
0
 10
177.68720041578231
 20
200.0
 30
0.0
 42
-0.0433295665536456
 50
90.0
  0
VERTEX
  5
3D75
  8
0
 10
177.6558247294565
 20
199.63862112533729
 30
0.0
 42
-0.0566743414169658
 50
90.0
  0
VERTEX
  5
3D76
  8
0
 10
177.57736545872729
 20
199.37223952796319
 30
0.0
 42
-0.0992025570697266
 70
     2
 50
247.10088003611941
  0
VERTEX
  5
3D77
  8
0
 10
177.42695256477921
 20
199.1511612975377
 30
0.0
 42
-0.2280338981645266
 50
90.0
  0
VERTEX
  5
3D78
  8
0
 10
177.3122004157824
 20
199.11221262654129
 30
0.0
 42
-0.1963710675046459
 50
90.0
  0
SEQEND
  5
3D79
  8
0
  0
LINE
  5
3D7A
  8
0
 10
167.56220041578251
 20
205.7809908587646
 30
0.0
 11
177.31220136945669
 21
205.7809908587646
 31
0.0
  0
LINE
  5
3D7B
  8
0
 10
167.56220041578251
 20
208.6718405351981
 30
0.0
 11
177.34964169891521
 21
208.6718405351981
 31
0.0
  0
LINE
  5
3D7C
  8
0
 10
167.56220041578251
 20
210.1083106802655
 30
0.0
 11
177.312202548263
 21
210.1083106802655
 31
0.0
  0
LINE
  5
3D7D
  8
0
 10
167.56220041578251
 20
212.40250197303871
 30
0.0
 11
177.36265928859919
 21
212.40250197303871
 31
0.0
  0
LINE
  5
3D7E
  8
0
 10
167.56220041578251
 20
213.4461586236402
 30
0.0
 11
177.31220136945669
 21
213.4461586236402
 31
0.0
  0
LINE
  5
3D7F
  8
0
 10
167.56220041578251
 20
214.9191201044458
 30
0.0
 11
177.3122004157824
 21
214.9191201044458
 31
0.0
  0
LINE
  5
3D80
  8
0
 10
167.56220041578251
 20
215.46780287603701
 30
0.0
 11
177.3122004157824
 21
215.46780287603701
 31
0.0
  0
LINE
  5
3D81
  8
0
 10
167.56220041578251
 20
215.9753508124077
 30
0.0
 11
177.3122004157824
 21
215.9753508124077
 31
0.0
  0
LINE
  5
3D82
  8
0
 10
167.1872004157926
 20
215.62500000001009
 30
0.0
 11
166.56220041578251
 21
215.0
 31
0.0
  0
POLYLINE
  5
3D83
  8
0
 66
     1
 10
0.0
 20
0.0
 30
0.0
  0
VERTEX
  5
3D84
  8
0
 10
167.56220041578251
 20
215.46780287603701
 30
0.0
 42
0.1488470320745859
 50
90.0
  0
VERTEX
  5
3D85
  8
0
 10
167.42942272799621
 20
215.42738016359351
 30
0.0
 42
0.1070939314374275
 50
90.0
  0
VERTEX
  5
3D86
  8
0
 10
167.2970353728376
 20
215.28985712137779
 30
0.0
 42
0.0758177480846394
 70
     2
 50
238.3155211582224
  0
VERTEX
  5
3D87
  8
0
 10
167.21776977343541
 20
215.10323676455141
 30
0.0
 42
0.0626584555913342
 50
238.3155211582224
  0
VERTEX
  5
3D88
  8
0
 10
167.1872004157826
 20
214.8602580671126
 30
0.0
 42
0.0626584555913199
 50
90.0
  0
SEQEND
  5
3D89
  8
0
  0
POLYLINE
  5
3D8A
  8
0
 66
     1
 10
0.0
 20
0.0
 30
0.0
  0
VERTEX
  5
3D8B
  8
0
 10
167.56220041578251
 20
210.1083106802655
 30
0.0
 42
0.2015894264067176
 50
90.0
  0
VERTEX
  5
3D8C
  8
0
 10
167.441133395516
 20
210.0574313693823
 30
0.0
 42
0.0977170379735125
 50
90.0
  0
VERTEX
  5
3D8D
  8
0
 10
167.2970353728376
 20
209.83762869265351
 30
0.0
 42
0.0547927573384048
 70
     2
 50
247.9141022391737
  0
VERTEX
  5
3D8E
  8
0
 10
167.21863433896519
 20
209.56081211262679
 30
0.0
 42
0.0416539519670256
 50
247.9141022391737
  0
VERTEX
  5
3D8F
  8
0
 10
167.1872004157826
 20
209.18414456707029
 30
0.0
 42
0.0416539519669881
 50
90.0
  0
SEQEND
  5
3D90
  8
0
  0
POLYLINE
  5
3D91
  8
0
 66
     1
 10
0.0
 20
0.0
 30
0.0
  0
VERTEX
  5
3D92
  8
0
 10
167.1872004157826
 20
209.1841445670704
 30
0.0
 42
0.0737304435607645
 50
90.0
  0
VERTEX
  5
3D93
  8
0
 10
167.21720874321929
 20
208.9817505804296
 30
0.0
 42
0.0845717212532976
 50
90.0
  0
VERTEX
  5
3D94
  8
0
 10
167.29703537283751
 20
208.82189091210429
 30
0.0
 42
0.1063921108588694
 70
     2
 50
306.20365064702992
  0
VERTEX
  5
3D95
  8
0
 10
167.43431247140899
 20
208.69979448211939
 30
0.0
 42
0.1510088585334486
 50
306.20365064702992
  0
VERTEX
  5
3D96
  8
0
 10
167.56220041578251
 20
208.67184053519489
 30
0.0
 42
0.1294534172461018
 50
90.0
  0
SEQEND
  5
3D97
  8
0
  0
POLYLINE
  5
3D98
  8
0
 66
     1
 10
0.0
 20
0.0
 30
0.0
  0
VERTEX
  5
3D99
  8
0
 10
167.56220041578251
 20
205.7809908587646
 30
0.0
 42
0.2055316714992537
 50
90.0
  0
VERTEX
  5
3D9A
  8
0
 10
167.4420034302716
 20
205.72940304629509
 30
0.0
 42
0.0965313913509376
 50
90.0
  0
VERTEX
  5
3D9B
  8
0
 10
167.29703537283731
 20
205.50198068431209
 30
0.0
 42
0.0533986296957384
 70
     2
 50
248.5124580243924
  0
VERTEX
  5
3D9C
  8
0
 10
167.21867557444739
 20
205.21699830941989
 30
0.0
 42
0.0404311354471943
 50
248.5124580243924
  0
VERTEX
  5
3D9D
  8
0
 10
167.1872004157822
 20
204.82839053710879
 30
0.0
 42
0.0404311354471791
 50
90.0
  0
SEQEND
  5
3D9E
  8
0
  0
LINE
  5
3D9F
  8
0
 10
167.56220041578251
 20
208.6718405351981
 30
0.0
 11
167.56220041578251
 21
205.7809908587646
 31
0.0
  0
LINE
  5
3DA0
  8
2
 10
166.56220041578251
 20
213.5
 30
0.0
 11
171.46220041578241
 21
210.49999999999989
 31
0.0
  0
POLYLINE
  5
3DA1
  8
0
 66
     1
 10
0.0
 20
0.0
 30
0.0
  0
VERTEX
  5
3DA2
  8
0
 10
167.1872004157826
 20
212.64089053710919
 30
0.0
 42
0.1453834159301123
 50
90.0
  0
VERTEX
  5
3DA3
  8
0
 10
167.21241754508009
 20
212.55599732084789
 30
0.0
 42
0.1071699662217274
 50
90.0
  0
VERTEX
  5
3DA4
  8
0
 10
167.2970353728376
 20
212.4723243668976
 30
0.0
 42
0.077350332773411
 70
     2
 50
327.555763887909
  0
VERTEX
  5
3DA5
  8
0
 10
167.42549992836561
 20
212.41620450864329
 30
0.0
 42
0.0789475685392101
 50
327.555763887909
  0
VERTEX
  5
3DA6
  8
0
 10
167.56220041578251
 20
212.40250197304039
 30
0.0
 42
0.0644571111103437
 50
90.0
  0
SEQEND
  5
3DA7
  8
0
  0
POLYLINE
  5
3DA8
  8
0
 66
     1
 10
0.0
 20
0.0
 30
0.0
  0
VERTEX
  5
3DA9
  8
0
 10
167.56220041578251
 20
213.4461586236402
 30
0.0
 42
0.1837701506072527
 50
90.0
  0
VERTEX
  5
3DAA
  8
0
 10
167.43718325259121
 20
213.39860378096409
 30
0.0
 42
0.1023570990015804
 50
90.0
  0
VERTEX
  5
3DAB
  8
0
 10
167.29703537283419
 20
213.21030106176829
 30
0.0
 42
0.06139380527182
 70
     2
 50
245.0293849661897
  0
VERTEX
  5
3DAC
  8
0
 10
167.21841598934051
 20
212.96753157146571
 30
0.0
 42
0.0476740870733025
 50
245.0293849661897
  0
VERTEX
  5
3DAD
  8
0
 10
167.18720041577771
 20
212.64089053710919
 30
0.0
 42
0.0476740870732675
 50
90.0
  0
SEQEND
  5
3DAE
  8
0
  0
LINE
  5
3DAF
  8
0
 10
167.56220041578251
 20
212.40250197303871
 30
0.0
 11
167.56220041578251
 21
210.1083106802655
 31
0.0
  0
POLYLINE
  5
3DB0
  8
0
 66
     1
 10
0.0
 20
0.0
 30
0.0
  0
VERTEX
  5
3DB1
  8
0
 10
167.1872004157826
 20
214.8602580671126
 30
0.0
 42
0.0162328826952284
 50
90.0
  0
VERTEX
  5
3DB2
  8
0
 10
167.34213801917821
 20
214.8652895608258
 30
0.0
 42
0.0226962008047463
 50
90.0
  0
VERTEX
  5
3DB3
  8
0
 10
167.45236545872751
 20
214.877498358693
 30
0.0
 42
0.0516790455059756
 70
     2
 50
8.9206691496988508
  0
VERTEX
  5
3DB4
  8
0
 10
167.55462147257481
 20
214.90458695976551
 30
0.0
 50
8.9206691496988508
  0
VERTEX
  5
3DB5
  8
0
 10
167.56220041578251
 20
214.9191201044458
 30
0.0
 50
90.0
  0
SEQEND
  5
3DB6
  8
0
  0
LINE
  5
3DB7
  8
0
 10
167.56220041578251
 20
214.9191201044458
 30
0.0
 11
167.56220041578251
 21
213.4461586236402
 31
0.0
  0
LINE
  5
3DB8
  8
2
 10
171.96220041578241
 20
210.49999999999989
 30
0.0
 11
171.46220041578241
 21
210.49999999999989
 31
0.0
  0
LINE
  5
3DB9
  8
0
 10
167.56220041578251
 20
215.9753508124077
 30
0.0
 11
167.56220041578251
 21
215.46780287603701
 31
0.0
  0
POLYLINE
  5
3DBA
  8
0
 66
     1
 10
0.0
 20
0.0
 30
0.0
  0
VERTEX
  5
3DBB
  8
0
 10
167.1872004157826
 20
215.62500000000011
 30
0.0
 42
0.092572595455409
 50
90.0
  0
VERTEX
  5
3DBC
  8
0
 10
167.33187356860199
 20
215.6520170662576
 30
0.0
 42
0.0958395211622397
 50
90.0
  0
VERTEX
  5
3DBD
  8
0
 10
167.45236545872751
 20
215.72761537715999
 30
0.0
 42
0.1008530118927434
 70
     2
 50
43.053698806586652
  0
VERTEX
  5
3DBE
  8
0
 10
167.5408627803406
 20
215.8520128378438
 30
0.0
 42
0.1236287328816281
 50
43.053698806586652
  0
VERTEX
  5
3DBF
  8
0
 10
167.5622004157778
 20
215.9753508124077
 30
0.0
 42
0.1047089114758273
 50
90.0
  0
SEQEND
  5
3DC0
  8
0
  0
LINE
  5
3DC1
  8
0
 10
178.56220041578251
 20
216.0
 30
0.0
 11
179.56220041578251
 21
215.0
 31
0.0
  0
POLYLINE
  5
3DC2
  8
0
 66
     1
 10
0.0
 20
0.0
 30
0.0
  0
VERTEX
  5
3DC3
  8
0
 10
177.3122004157824
 20
215.46780287603701
 30
0.0
 42
-0.1488470320745859
 50
90.0
  0
VERTEX
  5
3DC4
  8
0
 10
177.4449781035687
 20
215.42738016359351
 30
0.0
 42
-0.1070939314374275
 50
90.0
  0
VERTEX
  5
3DC5
  8
0
 10
177.57736545872729
 20
215.28985712137779
 30
0.0
 42
-0.0758177480846394
 70
     2
 50
301.68447884177749
  0
VERTEX
  5
3DC6
  8
0
 10
177.65663105812951
 20
215.10323676455141
 30
0.0
 42
-0.0626584555913342
 50
90.0
  0
VERTEX
  5
3DC7
  8
0
 10
177.68720041578231
 20
214.8602580671126
 30
0.0
 42
-0.0626584555913199
 50
90.0
  0
SEQEND
  5
3DC8
  8
0
  0
LINE
  5
3DC9
  8
0
 10
179.56220041578251
 20
208.49999999999989
 30
0.0
 11
187.26220041578239
 21
208.49999999999989
 31
0.0
  0
POLYLINE
  5
3DCA
  8
0
 66
     1
 10
0.0
 20
0.0
 30
0.0
  0
VERTEX
  5
3DCB
  8
0
 10
177.3122004157824
 20
210.1083106802655
 30
0.0
 42
-0.2015894264067176
 50
90.0
  0
VERTEX
  5
3DCC
  8
0
 10
177.43326743604891
 20
210.0574313693823
 30
0.0
 42
-0.0977170379735125
 50
90.0
  0
VERTEX
  5
3DCD
  8
0
 10
177.57736545872729
 20
209.83762869265351
 30
0.0
 42
-0.0547927573384048
 70
     2
 50
292.08589776082619
  0
VERTEX
  5
3DCE
  8
0
 10
177.6557664925997
 20
209.56081211262679
 30
0.0
 42
-0.0416539519670256
 50
90.0
  0
VERTEX
  5
3DCF
  8
0
 10
177.68720041578231
 20
209.18414456707029
 30
0.0
 42
-0.0416539519669881
 50
90.0
  0
SEQEND
  5
3DD0
  8
0
  0
POLYLINE
  5
3DD1
  8
0
 66
     1
 10
0.0
 20
0.0
 30
0.0
  0
VERTEX
  5
3DD2
  8
0
 10
177.3122004157824
 20
205.7809908587646
 30
0.0
 42
-0.2055316714992537
 50
90.0
  0
VERTEX
  5
3DD3
  8
0
 10
177.43239740129329
 20
205.72940304629509
 30
0.0
 42
-0.0965313913509376
 50
90.0
  0
VERTEX
  5
3DD4
  8
0
 10
177.57736545872751
 20
205.50198068431209
 30
0.0
 42
-0.0533986296957384
 70
     2
 50
291.48754197560748
  0
VERTEX
  5
3DD5
  8
0
 10
177.65572525711741
 20
205.21699830941989
 30
0.0
 42
-0.0404311354471943
 50
90.0
  0
VERTEX
  5
3DD6
  8
0
 10
177.6872004157826
 20
204.82839053710879
 30
0.0
 42
-0.0404311354471791
 50
90.0
  0
SEQEND
  5
3DD7
  8
0
  0
POLYLINE
  5
3DD8
  8
0
 66
     1
 10
0.0
 20
0.0
 30
0.0
  0
VERTEX
  5
3DD9
  8
0
 10
177.68720041578231
 20
209.1841445670704
 30
0.0
 42
-0.0737304435607645
 50
90.0
  0
VERTEX
  5
3DDA
  8
0
 10
177.6571920883456
 20
208.9817505804296
 30
0.0
 42
-0.0845717212532976
 50
90.0
  0
VERTEX
  5
3DDB
  8
0
 10
177.5773654587274
 20
208.82189091210429
 30
0.0
 42
-0.1063921108588694
 70
     2
 50
233.79634935297
  0
VERTEX
  5
3DDC
  8
0
 10
177.44008836015581
 20
208.69979448211939
 30
0.0
 42
-0.1510088585334486
 50
90.0
  0
VERTEX
  5
3DDD
  8
0
 10
177.3122004157824
 20
208.67184053519489
 30
0.0
 42
-0.1294534172461018
 50
90.0
  0
SEQEND
  5
3DDE
  8
0
  0
POLYLINE
  5
3DDF
  8
0
 66
     1
 10
0.0
 20
0.0
 30
0.0
  0
VERTEX
  5
3DE0
  8
0
 10
177.68720041578231
 20
214.8602580671126
 30
0.0
 42
-0.0162328826952284
 50
90.0
  0
VERTEX
  5
3DE1
  8
0
 10
177.53226281238659
 20
214.8652895608258
 30
0.0
 42
-0.0226962008047463
 50
90.0
  0
VERTEX
  5
3DE2
  8
0
 10
177.4220353728374
 20
214.877498358693
 30
0.0
 42
-0.0516790455059756
 70
     2
 50
171.07933085030109
  0
VERTEX
  5
3DE3
  8
0
 10
177.3197793589901
 20
214.90458695976551
 30
0.0
 50
90.0
  0
VERTEX
  5
3DE4
  8
0
 10
177.3122004157824
 20
214.9191201044458
 30
0.0
 50
90.0
  0
SEQEND
  5
3DE5
  8
0
  0
POLYLINE
  5
3DE6
  8
0
 66
     1
 10
0.0
 20
0.0
 30
0.0
  0
VERTEX
  5
3DE7
  8
0
 10
177.3122004157824
 20
213.4461586236402
 30
0.0
 42
-0.1837701506072527
 50
90.0
  0
VERTEX
  5
3DE8
  8
0
 10
177.4372175789737
 20
213.39860378096409
 30
0.0
 42
-0.1023570990015804
 50
90.0
  0
VERTEX
  5
3DE9
  8
0
 10
177.5773654587307
 20
213.21030106176829
 30
0.0
 42
-0.06139380527182
 70
     2
 50
294.9706150338103
  0
VERTEX
  5
3DEA
  8
0
 10
177.65598484222431
 20
212.96753157146571
 30
0.0
 42
-0.0476740870733025
 50
90.0
  0
VERTEX
  5
3DEB
  8
0
 10
177.68720041578709
 20
212.64089053710919
 30
0.0
 42
-0.0476740870732675
 50
90.0
  0
SEQEND
  5
3DEC
  8
0
  0
POLYLINE
  5
3DED
  8
0
 66
     1
 10
0.0
 20
0.0
 30
0.0
  0
VERTEX
  5
3DEE
  8
0
 10
177.68720041578231
 20
212.64089053710919
 30
0.0
 42
-0.1453834159301123
 50
90.0
  0
VERTEX
  5
3DEF
  8
0
 10
177.6619832864848
 20
212.55599732084789
 30
0.0
 42
-0.1071699662217274
 50
90.0
  0
VERTEX
  5
3DF0
  8
0
 10
177.57736545872729
 20
212.4723243668976
 30
0.0
 42
-0.077350332773411
 70
     2
 50
212.44423611209089
  0
VERTEX
  5
3DF1
  8
0
 10
177.4489009031993
 20
212.41620450864329
 30
0.0
 42
-0.0789475685392101
 50
90.0
  0
VERTEX
  5
3DF2
  8
0
 10
177.3122004157824
 20
212.40250197304039
 30
0.0
 42
-0.0644571111103437
 50
90.0
  0
SEQEND
  5
3DF3
  8
0
  0
LINE
  5
3DF4
  8
0
 10
177.6872004157824
 20
216.0
 30
0.0
 11
178.56220041578251
 21
216.0
 31
0.0
  0
POLYLINE
  5
3DF5
  8
0
 66
     1
 10
0.0
 20
0.0
 30
0.0
  0
VERTEX
  5
3DF6
  8
0
 10
177.3122004157824
 20
215.9753508124077
 30
0.0
 42
0.0068051090718327
 50
90.0
  0
VERTEX
  5
3DF7
  8
0
 10
177.4674611239943
 20
215.97746404237819
 30
0.0
 42
0.0096044777403865
 50
90.0
  0
VERTEX
  5
3DF8
  8
0
 10
177.57736545872729
 20
215.9825703923027
 30
0.0
 42
0.0229390352869734
 70
     2
 50
3.7607085175068882
  0
VERTEX
  5
3DF9
  8
0
 10
177.68398038160171
 20
215.99450819652009
 30
0.0
 50
3.7607085175068882
  0
VERTEX
  5
3DFA
  8
0
 10
177.6872004157824
 20
216.0
 30
0.0
 50
90.0
  0
SEQEND
  5
3DFB
  8
0
  0
CIRCLE
  5
3DFC
  8
0
 10
292.5
 20
135.0
 30
0.0
 40
5.0013131671777842
  0
LINE
  5
3DFE
  8
0
 10
188.5622004157824
 20
135.0
 30
0.0
 11
188.5622004157824
 21
140.0013131671777
 31
0.0
  0
LINE
  5
3DFF
  8
1
 10
292.5
 20
156.0
 30
0.0
 11
292.5
 21
114.0
 31
0.0
  0
CIRCLE
  5
3E00
  8
0
 10
292.5
 20
135.0
 30
0.0
 40
7.4999999999999707
  0
CIRCLE
  5
3E01
  8
0
 10
292.5
 20
135.0
 30
0.0
 40
8.4999999999999858
  0
CIRCLE
  5
3E02
  8
0
 10
292.5
 20
135.0
 30
0.0
 40
15.0
  0
CIRCLE
  5
3E03
  8
0
 10
292.5
 20
135.0
 30
0.0
 40
16.0
  0
LINE
  5
3E04
  8
0
 10
188.26220041578239
 20
142.49999999999989
 30
0.0
 11
188.26220041578239
 21
127.5
 31
0.0
  0
LINE
  5
3E0B
  8
1
 10
313.5
 20
135.0
 30
0.0
 11
271.49999999999989
 21
135.0
 31
0.0
  0
LINE
  5
3E10
  8
0
 10
188.5622004157824
 20
73.999999999999943
 30
0.0
 11
217.3622004157827
 21
73.999999999999943
 31
0.0
  0
LINE
  5
3E11
  8
3
 10
190.56220041578251
 20
73.323500000000095
 30
0.0
 11
218.03870041578261
 21
73.323500000000081
 31
0.0
  0
LINE
  5
3E12
  8
0
 10
188.5622004157824
 20
65.999999999999957
 30
0.0
 11
217.3622004157827
 21
65.999999999999943
 31
0.0
  0
LINE
  5
3E13
  8
3
 10
190.5622004157824
 20
66.676499999999905
 30
0.0
 11
218.03870041578261
 21
66.676499999999862
 31
0.0
  0
LINE
  5
3E14
  8
0
 10
190.56220041578251
 20
73.323500000000095
 30
0.0
 11
189.39046804446241
 21
73.999999999999986
 31
0.0
  0
LINE
  5
3E15
  8
0
 10
190.56220041578251
 20
73.999999999999986
 30
0.0
 11
190.5622004157824
 21
65.999999999999957
 31
0.0
  0
LINE
  5
3E16
  8
0
 10
188.5622004157824
 20
69.999999999999986
 30
0.0
 11
188.5622004157824
 21
75.001313167177756
 31
0.0
  0
LINE
  5
3E17
  8
0
 10
188.26220041578239
 20
77.499999999999972
 30
0.0
 11
188.26220041578239
 21
62.5
 31
0.0
  0
LINE
  5
3E18
  8
0
 10
188.5622004157824
 20
69.999999999999986
 30
0.0
 11
188.5622004157824
 21
64.998686832822202
 31
0.0
  0
LINE
  5
3E19
  8
0
 10
190.56220041578251
 20
66.676499999999876
 30
0.0
 11
189.39046804446241
 21
66.000000000000014
 31
0.0
  0
LINE
  5
3E1A
  8
0
 10
188.5622004157824
 20
64.998686832822202
 30
0.0
 11
188.26220041578239
 21
64.998686832822202
 31
0.0
  0
LINE
  5
3E1B
  8
0
 10
188.5622004157824
 20
75.001313167177756
 30
0.0
 11
188.26220041578239
 21
75.001313167177756
 31
0.0
  0
LINE
  5
3E1C
  8
0
 10
217.3622004157827
 20
73.999999999999943
 30
0.0
 11
218.56220041578271
 21
72.799999999999969
 31
0.0
  0
LINE
  5
3E1D
  8
0
 10
217.3622004157827
 20
73.999999999999986
 30
0.0
 11
217.36220041578261
 21
65.999999999999957
 31
0.0
  0
LINE
  5
3E1E
  8
0
 10
218.56220041578271
 20
72.799999999999969
 30
0.0
 11
218.5622004157826
 21
67.199999999999974
 31
0.0
  0
LINE
  5
3E1F
  8
0
 10
218.5622004157826
 20
67.199999999999974
 30
0.0
 11
217.36220041578261
 21
65.999999999999957
 31
0.0
  0
LINE
  5
3E20
  8
3
 10
190.56220041578251
 20
138.32350000000011
 30
0.0
 11
218.0387004157827
 21
138.3235
 31
0.0
  0
LINE
  5
3E21
  8
0
 10
188.5622004157824
 20
138.99999999999989
 30
0.0
 11
217.36220041578281
 21
138.99999999999989
 31
0.0
  0
LINE
  5
3E22
  8
3
 10
190.5622004157824
 20
131.67649999999989
 30
0.0
 11
218.0387004157825
 21
131.67649999999981
 31
0.0
  0
LINE
  5
3E23
  8
0
 10
188.5622004157824
 20
130.99999999999989
 30
0.0
 11
217.3622004157827
 21
130.99999999999989
 31
0.0
  0
LINE
  5
3E24
  8
0
 10
188.5622004157824
 20
135.0
 30
0.0
 11
188.5622004157824
 21
129.99868683282219
 31
0.0
  0
LINE
  5
3E25
  8
0
 10
190.56220041578251
 20
139.0
 30
0.0
 11
190.5622004157824
 21
130.99999999999989
 31
0.0
  0
LINE
  5
3E26
  8
0
 10
188.5622004157824
 20
129.99868683282219
 30
0.0
 11
188.26220041578239
 21
129.99868683282219
 31
0.0
  0
LINE
  5
3E27
  8
0
 10
190.56220041578251
 20
131.67649999999981
 30
0.0
 11
189.39046804446241
 21
131.0
 31
0.0
  0
LINE
  5
3E28
  8
0
 10
190.56220041578251
 20
138.32350000000011
 30
0.0
 11
189.39046804446241
 21
139.0
 31
0.0
  0
LINE
  5
3E29
  8
0
 10
218.56220041578271
 20
137.7999999999999
 30
0.0
 11
218.5622004157826
 21
132.1999999999999
 31
0.0
  0
LINE
  5
3E2A
  8
0
 10
217.3622004157827
 20
139.0
 30
0.0
 11
217.36220041578261
 21
130.99999999999989
 31
0.0
  0
LINE
  5
3E2B
  8
0
 10
218.5622004157826
 20
132.1999999999999
 30
0.0
 11
217.36220041578261
 21
130.99999999999989
 31
0.0
  0
LINE
  5
3E2C
  8
0
 10
217.3622004157827
 20
138.99999999999989
 30
0.0
 11
218.56220041578271
 21
137.7999999999999
 31
0.0
  0
CIRCLE
  5
3E2D
  8
0
 10
292.5
 20
135.0
 30
0.0
 40
4.0
  0
CIRCLE
  5
3E2E
  8
3
 10
292.5
 20
135.0
 30
0.0
 40
3.375
  0
LINE
  5
3E30
  8
0
 10
188.5622004157824
 20
140.0013131671777
 30
0.0
 11
188.26220041578239
 21
140.0013131671777
 31
0.0
  0
LINE
  5
3E31
  8
0
 10
188.5622004157824
 20
203.99999999999989
 30
0.0
 11
217.3622004157827
 21
203.99999999999989
 31
0.0
  0
LINE
  5
3E32
  8
3
 10
190.56220041578251
 20
203.32350000000011
 30
0.0
 11
218.03870041578261
 21
203.3235
 31
0.0
  0
LINE
  5
3E33
  8
3
 10
190.5622004157824
 20
196.67649999999989
 30
0.0
 11
218.0387004157825
 21
196.67649999999981
 31
0.0
  0
LINE
  5
3E34
  8
0
 10
188.5622004157824
 20
195.99999999999989
 30
0.0
 11
217.3622004157827
 21
196.0
 31
0.0
  0
LINE
  5
3E35
  8
0
 10
188.5622004157824
 20
200.0
 30
0.0
 11
188.5622004157824
 21
205.0013131671777
 31
0.0
  0
LINE
  5
3E36
  8
0
 10
188.26220041578239
 20
207.5
 30
0.0
 11
188.26220041578239
 21
192.5
 31
0.0
  0
LINE
  5
3E37
  8
0
 10
188.5622004157824
 20
200.0
 30
0.0
 11
188.5622004157824
 21
194.99868683282219
 31
0.0
  0
LINE
  5
3E38
  8
0
 10
190.56220041578251
 20
204.0
 30
0.0
 11
190.5622004157824
 21
195.99999999999989
 31
0.0
  0
LINE
  5
3E39
  8
0
 10
188.5622004157824
 20
194.99868683282219
 30
0.0
 11
188.26220041578239
 21
194.99868683282219
 31
0.0
  0
LINE
  5
3E3A
  8
0
 10
190.56220041578251
 20
196.67649999999981
 30
0.0
 11
189.39046804446241
 21
196.0
 31
0.0
  0
LINE
  5
3E3B
  8
0
 10
190.56220041578251
 20
203.32350000000011
 30
0.0
 11
189.39046804446241
 21
204.0
 31
0.0
  0
LINE
  5
3E3C
  8
0
 10
188.5622004157824
 20
205.0013131671777
 30
0.0
 11
188.26220041578239
 21
205.0013131671777
 31
0.0
  0
LINE
  5
3E3D
  8
0
 10
217.3622004157827
 20
204.0
 30
0.0
 11
217.36220041578261
 21
195.99999999999989
 31
0.0
  0
LINE
  5
3E3E
  8
0
 10
218.56220041578271
 20
202.80000000000001
 30
0.0
 11
218.5622004157826
 21
197.1999999999999
 31
0.0
  0
LINE
  5
3E3F
  8
0
 10
218.5622004157826
 20
197.1999999999999
 30
0.0
 11
217.36220041578261
 21
195.99999999999989
 31
0.0
  0
LINE
  5
3E40
  8
0
 10
217.3622004157827
 20
203.99999999999989
 30
0.0
 11
218.56220041578271
 21
202.80000000000001
 31
0.0
  0
ENDSEC
  0
EOF
