  0
SECTION
  2
HEADER
  9
$ACADVER
  1
AC1009
  9
$INSBASE
 10
0.0
 20
0.0
 30
0.0
  9
$EXTMIN
 10
15.987396695403559
 20
17.495041228242989
 30
-0.0015258207003583
  9
$EXTMAX
 10
170.01056712762281
 20
122.500305475551
 30
0.0000000349246037
  9
$LIMMIN
 10
0.0
 20
0.0
  9
$LIMMAX
 10
187.5
 20
135.0
  9
$ORTHOMODE
 70
     1
  9
$REGENMODE
 70
     1
  9
$FILLMODE
 70
     1
  9
$QTEXTMODE
 70
     0
  9
$MIRRTEXT
 70
     0
  9
$DRAGMODE
 70
     2
  9
$LTSCALE
 40
5.0
  9
$OSMODE
 70
   231
  9
$ATTMODE
 70
     1
  9
$TEXTSIZE
 40
4.000000000000048
  9
$TRACEWID
 40
0.05
  9
$TEXTSTYLE
  7
STANDARD
  9
$CLAYER
  8
0
  9
$CELTYPE
  6
BYLAYER
  9
$CECOLOR
 62
   256
  9
$DIMSCALE
 40
0.5
  9
$DIMASZ
 40
3.0
  9
$DIMEXO
 40
2.0
  9
$DIMDLI
 40
0.38
  9
$DIMRND
 40
0.0
  9
$DIMDLE
 40
0.0
  9
$DIMEXE
 40
2.0
  9
$DIMTP
 40
0.0
  9
$DIMTM
 40
0.0
  9
$DIMTXT
 40
3.2000000000000002
  9
$DIMCEN
 40
0.09
  9
$DIMTSZ
 40
0.0
  9
$DIMTOL
 70
     0
  9
$DIMLIM
 70
     0
  9
$DIMTIH
 70
     0
  9
$DIMTOH
 70
     0
  9
$DIMSE1
 70
     0
  9
$DIMSE2
 70
     0
  9
$DIMTAD
 70
     1
  9
$DIMZIN
 70
     0
  9
$DIMBLK
  1

  9
$DIMASO
 70
     1
  9
$DIMSHO
 70
     0
  9
$DIMPOST
  1

  9
$DIMAPOST
  1

  9
$DIMALT
 70
     0
  9
$DIMALTD
 70
     2
  9
$DIMALTF
 40
25.399999999999999
  9
$DIMLFAC
 40
1.0
  9
$DIMTOFL
 70
     0
  9
$DIMTVP
 40
1.6000000000000001
  9
$DIMTIX
 70
     1
  9
$DIMSOXD
 70
     0
  9
$DIMSAH
 70
     0
  9
$DIMBLK1
  1

  9
$DIMBLK2
  1

  9
$DIMSTYLE
  2
STANDARD
  9
$DIMCLRD
 70
     0
  9
$DIMCLRE
 70
     0
  9
$DIMCLRT
 70
     0
  9
$DIMTFAC
 40
1.0
  9
$DIMGAP
 40
0.09
  9
$LUNITS
 70
     2
  9
$LUPREC
 70
     4
  9
$SKETCHINC
 40
0.1
  9
$FILLETRAD
 40
1.8999999999999999
  9
$AUNITS
 70
     0
  9
$AUPREC
 70
     0
  9
$MENU
  1
E:\r13\win\SUPPORT\ACAD
  9
$ELEVATION
 40
0.0
  9
$PELEVATION
 40
0.0
  9
$THICKNESS
 40
0.0
  9
$LIMCHECK
 70
     0
  9
$BLIPMODE
 70
     1
  9
$CHAMFERA
 40
0.0
  9
$CHAMFERB
 40
0.0
  9
$SKPOLY
 70
     0
  9
$TDCREATE
 40
2451582.7225791658
  9
$TDUPDATE
 40
2453236.8206922682
  9
$TDINDWG
 40
0.0001586111
  9
$TDUSRTIMER
 40
0.0001586111
  9
$USRTIMER
 70
     1
  9
$ANGBASE
 50
0.0
  9
$ANGDIR
 70
     0
  9
$PDMODE
 70
     0
  9
$PDSIZE
 40
0.0
  9
$PLINEWID
 40
0.0
  9
$COORDS
 70
     0
  9
$SPLFRAME
 70
     0
  9
$SPLINETYPE
 70
     6
  9
$SPLINESEGS
 70
     8
  9
$ATTDIA
 70
     0
  9
$ATTREQ
 70
     1
  9
$HANDLING
 70
-16383
  9
$HANDSEED
  5
252A
  9
$SURFTAB1
 70
     6
  9
$SURFTAB2
 70
     6
  9
$SURFTYPE
 70
     6
  9
$SURFU
 70
     6
  9
$SURFV
 70
     6
  9
$UCSNAME
  2

  9
$UCSORG
 10
0.0
 20
0.0
 30
0.0
  9
$UCSXDIR
 10
1.0
 20
0.0
 30
0.0
  9
$UCSYDIR
 10
0.0
 20
1.0
 30
0.0
  9
$PUCSNAME
  2

  9
$PUCSORG
 10
0.0
 20
0.0
 30
0.0
  9
$PUCSXDIR
 10
1.0
 20
0.0
 30
0.0
  9
$PUCSYDIR
 10
0.0
 20
1.0
 30
0.0
  9
$USERI1
 70
     0
  9
$USERI2
 70
     1
  9
$USERI3
 70
     1
  9
$USERI4
 70
     0
  9
$USERI5
 70
     0
  9
$USERR1
 40
0.0
  9
$USERR2
 40
0.0
  9
$USERR3
 40
0.0
  9
$USERR4
 40
0.0
  9
$USERR5
 40
0.0
  9
$WORLDVIEW
 70
     1
  9
$SHADEDGE
 70
     3
  9
$SHADEDIF
 70
    70
  9
$TILEMODE
 70
     1
  9
$MAXACTVP
 70
    16
  9
$PLIMCHECK
 70
     0
  9
$PEXTMIN
 10
1.0000000000000000E+020
 20
1.0000000000000000E+020
 30
1.0000000000000000E+020
  9
$PEXTMAX
 10
-1.0000000000000000E+020
 20
-1.0000000000000000E+020
 30
-1.0000000000000000E+020
  9
$PLIMMIN
 10
0.0
 20
0.0
  9
$PLIMMAX
 10
12.0
 20
9.0
  9
$UNITMODE
 70
     0
  9
$VISRETAIN
 70
     0
  9
$PLINEGEN
 70
     0
  9
$PSLTSCALE
 70
     0
  0
ENDSEC
  0
SECTION
  2
TABLES
  0
TABLE
  2
VPORT
 70
     3
  0
VPORT
  2
*ACTIVE
 70
     0
 10
0.0
 20
0.0
 11
1.0
 21
1.0
 12
92.998981911513184
 22
69.997673351897021
 13
0.0
 23
0.0
 14
5.0
 24
5.0
 15
5.0
 25
5.0
 16
0.0
 26
0.0
 36
1.0
 17
0.0
 27
0.0
 37
0.0
 40
183.4495437712099
 41
0.9407114624505929
 42
50.0
 43
0.0
 44
0.0
 50
0.0
 51
0.0
 71
     0
 72
   500
 73
     1
 74
     0
 75
     0
 76
     0
 77
     0
 78
     2
  0
ENDTAB
  0
TABLE
  2
LTYPE
 70
     3
  0
LTYPE
  2
CONTINUOUS
 70
     0
  3
Solid Line
 72
    65
 73
     0
 40
0.0
  0
LTYPE
  2
CENTER
 70
     0
  3
____ _ ____ _ ____ _ ____ _ ____ _ ____ _ ____
 72
    65
 73
     4
 40
2.0
 49
1.25
 49
-0.25
 49
0.25
 49
-0.25
  0
LTYPE
  2
HIDDEN
 70
     0
  3
_ _ _ _ _ _ _ _ _ _ _ _ _ _ _ _ _ _ _ _ _ _ _
 72
    65
 73
     2
 40
0.375
 49
0.25
 49
-0.125
  0
ENDTAB
  0
TABLE
  2
LAYER
 70
     4
  0
LAYER
  2
0
 70
     0
 62
     7
  6
CONTINUOUS
  0
LAYER
  2
1
 70
     0
 62
     1
  6
CENTER
  0
LAYER
  2
3
 70
     0
 62
     3
  6
CONTINUOUS
  0
LAYER
  2
2
 70
     0
 62
     2
  6
HIDDEN
  0
ENDTAB
  0
TABLE
  2
STYLE
 70
     1
  0
STYLE
  2
STANDARD
 70
     0
 40
0.0
 41
1.0
 50
0.0
 71
     0
 42
4.000000000000048
  3
TXT
  4
BIGFONT
  0
ENDTAB
  0
TABLE
  2
VIEW
 70
     1
  0
VIEW
  2
ALL
 70
     0
 40
135.0
 10
110.4957983193277
 20
67.5
 41
0.0
 11
0.0
 21
0.0
 31
1.0
 12
0.0
 22
0.0
 32
0.0
 42
0.0
 43
0.0
 44
0.0
 50
0.0
 71
     0
  0
ENDTAB
  0
TABLE
  2
UCS
 70
     0
  0
ENDTAB
  0
TABLE
  2
APPID
 70
     1
  0
APPID
  2
ACAD
 70
     0
  0
ENDTAB
  0
TABLE
  2
DIMSTYLE
 70
     1
  0
DIMSTYLE
  2
STANDARD
 70
     0
  3

  4

  5

  6

  7

 40
1.0
 41
0.18
 42
0.0625
 43
0.38
 44
0.18
 45
0.0
 46
0.0
 47
0.0
 48
0.0
140
0.18
141
0.09
142
0.0
143
25.399999999999999
144
1.0
145
0.0
146
1.0
147
0.09
 71
     0
 72
     0
 73
     1
 74
     1
 75
     0
 76
     0
 77
     0
 78
     0
170
     0
171
     2
172
     0
173
     0
174
     0
175
     0
176
     0
177
     0
178
     0
  0
ENDTAB
  0
ENDSEC
  0
SECTION
  2
BLOCKS
  0
BLOCK
  8
0
  2
$MODEL_SPACE
 70
     0
 10
0.0
 20
0.0
 30
0.0
  3
$MODEL_SPACE
  1

  0
ENDBLK
  5
24D2
  8
0
  0
BLOCK
 67
     1
  8
0
  2
$PAPER_SPACE
 70
     0
 10
0.0
 20
0.0
 30
0.0
  3
$PAPER_SPACE
  1

  0
ENDBLK
  5
24D0
 67
     1
  8
0
  0
BLOCK
  8
0
  2
STDGX5
 70
     0
 10
0.0
 20
0.0
 30
0.0
  3
STDGX5
  1

  0
ENDBLK
  5
3DA
  8
0
  0
ENDSEC
  0
SECTION
  2
ENTITIES
  0
INSERT
  5
404
  8
0
  2
STDGX5
 10
0.0
 20
0.0
 30
0.0
 41
0.125
 42
0.125
 43
0.125
  0
INSERT
  5
405
  8
0
  2
STDGX5
 10
0.0
 20
0.0
 30
0.0
 41
0.125
 42
0.125
 43
0.125
  0
INSERT
  5
406
  8
0
  2
STDGX5
 10
34.375
 20
0.0
 30
0.0
 41
0.125
 42
0.125
 43
0.125
  0
INSERT
  5
407
  8
0
  2
STDGX5
 10
34.375
 20
0.0
 30
0.0
 41
0.125
 42
0.125
 43
0.125
  0
INSERT
  5
408
  8
0
  2
STDGX5
 10
0.0
 20
0.0
 30
0.0
 41
0.25
 42
0.25
 43
0.25
  0
INSERT
  5
409
  8
0
  2
STDGX5
 10
0.0
 20
0.0
 30
0.0
 41
0.25
 42
0.25
 43
0.25
  0
INSERT
  5
40A
  8
0
  2
STDGX5
 10
68.75
 20
0.0
 30
0.0
 41
0.25
 42
0.25
 43
0.25
  0
INSERT
  5
40B
  8
0
  2
STDGX5
 10
68.75
 20
0.0
 30
0.0
 41
0.25
 42
0.25
 43
0.25
  0
INSERT
  5
40D
  8
0
  2
STDGX5
 10
-17.5
 20
-50.0
 30
0.0
 41
0.1666666666666666
 42
0.1666666666666666
 43
0.1666666666666666
  0
INSERT
  5
40E
  8
0
  2
STDGX5
 10
-17.5
 20
-50.0
 30
0.0
 41
0.1666666666666666
 42
0.1666666666666666
 43
0.1666666666666666
  0
INSERT
  5
40F
  8
0
  2
STDGX5
 10
28.333333333333321
 20
-50.0
 30
0.0
 41
0.1666666666666666
 42
0.1666666666666666
 43
0.1666666666666666
  0
INSERT
  5
410
  8
0
  2
STDGX5
 10
28.333333333333321
 20
-50.0
 30
0.0
 41
0.1666666666666666
 42
0.1666666666666666
 43
0.1666666666666666
  0
INSERT
  5
412
  8
0
  2
STDGX5
 10
-17.5
 20
-50.0
 30
0.0
 41
0.1666666666666666
 42
0.1666666666666666
 43
0.1666666666666666
  0
INSERT
  5
413
  8
0
  2
STDGX5
 10
-17.5
 20
-50.0
 30
0.0
 41
0.1666666666666666
 42
0.1666666666666666
 43
0.1666666666666666
  0
INSERT
  5
414
  8
0
  2
STDGX5
 10
28.333333333333329
 20
-50.0
 30
0.0
 41
0.1666666666666666
 42
0.1666666666666666
 43
0.1666666666666666
  0
INSERT
  5
415
  8
0
  2
STDGX5
 10
28.333333333333329
 20
-50.0
 30
0.0
 41
0.1666666666666666
 42
0.1666666666666666
 43
0.1666666666666666
  0
INSERT
  5
416
  8
0
  2
STDGX5
 10
0.0
 20
0.0
 30
0.0
 41
0.5
 42
0.5
 43
0.5
  0
INSERT
  5
417
  8
0
  2
STDGX5
 10
0.0
 20
0.0
 30
0.0
 41
0.5
 42
0.5
 43
0.5
  0
INSERT
  5
418
  8
0
  2
STDGX5
 10
137.5
 20
0.0
 30
0.0
 41
0.5
 42
0.5
 43
0.5
  0
INSERT
  5
419
  8
0
  2
STDGX5
 10
137.5
 20
0.0
 30
0.0
 41
0.5
 42
0.5
 43
0.5
  0
LINE
  5
2174
  8
3
 10
89.445770544071863
 20
27.54149999999991
 30
0.0
 11
116.98727054407181
 21
27.541499999999921
 31
0.0
  0
LINE
  5
2175
  8
3
 10
89.445770544071877
 20
32.458500000000079
 30
0.0
 11
116.98727054407181
 21
32.458500000000079
 31
0.0
  0
LINE
  5
2176
  8
0
 10
87.445770544071891
 20
33.000000000000021
 30
0.0
 11
116.44577054407191
 21
32.999999999999943
 31
0.0
  0
LINE
  5
2177
  8
0
 10
87.445770544071891
 20
27.0
 30
0.0
 11
116.44577054407181
 21
26.999999999999972
 31
0.0
  0
LINE
  5
2178
  8
0
 10
87.445770544071877
 20
73.000000000000043
 30
0.0
 11
116.44577054407191
 21
72.999999999999929
 31
0.0
  0
LINE
  5
2179
  8
3
 10
89.445770544071877
 20
72.4585000000001
 30
0.0
 11
116.98727054407171
 21
72.4585000000001
 31
0.0
  0
LINE
  5
217A
  8
0
 10
87.445770544071877
 20
67.000000000000014
 30
0.0
 11
116.44577054407181
 21
66.999999999999986
 31
0.0
  0
LINE
  5
217B
  8
3
 10
89.445770544071848
 20
67.541499999999914
 30
0.0
 11
116.98727054407181
 21
67.541499999999914
 31
0.0
  0
LINE
  5
217C
  8
0
 10
87.445770544071877
 20
113.0
 30
0.0
 11
116.44577054407191
 21
112.9999999999999
 31
0.0
  0
LINE
  5
217D
  8
3
 10
89.445770544071877
 20
112.4585
 30
0.0
 11
116.98727054407171
 21
112.4585
 31
0.0
  0
LINE
  5
217E
  8
3
 10
89.445770544071848
 20
107.5414999999999
 30
0.0
 11
116.98727054407181
 21
107.5414999999999
 31
0.0
  0
LINE
  5
217F
  8
0
 10
87.445770544071877
 20
107.0
 30
0.0
 11
116.44577054407181
 21
106.9999999999999
 31
0.0
  0
LINE
  5
2180
  8
1
 10
119.94577054407181
 20
29.999999999999989
 30
0.0
 11
65.945770544071863
 21
30.0
 31
0.0
  0
LINE
  5
2181
  8
1
 10
119.94577054407181
 20
109.9999999999999
 30
0.0
 11
65.945770544071877
 21
110.0
 31
0.0
  0
LINE
  5
2182
  8
1
 10
119.94577054407181
 20
70.0
 30
0.0
 11
65.945770544071863
 21
70.0
 31
0.0
  0
LINE
  5
2184
  8
0
 10
87.445770544071877
 20
66.0
 30
0.0
 11
87.445770544071877
 21
70.0
 31
0.0
  0
LINE
  5
2185
  8
0
 10
89.445770544071848
 20
67.0
 30
0.0
 11
89.445770544071905
 21
73.0
 31
0.0
  0
ARC
  5
2186
  8
0
 10
69.926790836422441
 20
69.999999999999844
 30
0.0
 40
0.9810202923517865
 50
119.3620468109286
 51
240.63795318908811
  0
ARC
  5
2187
  8
0
 10
77.464750251719892
 20
69.999999999999844
 30
0.0
 40
0.9810202923517865
 50
299.36204681106381
 51
60.637953189071311
  0
LINE
  5
2188
  8
1
 10
31.000000000000028
 20
55.0
 30
0.0
 11
31.000000000000039
 21
85.0
 31
0.0
  0
LINE
  5
2189
  8
0
 10
68.445770544071848
 20
58.500000000000007
 30
0.0
 11
68.445770544071877
 21
81.5
 31
0.0
  0
LINE
  5
218A
  8
0
 10
78.445770544071877
 20
82.5
 30
0.0
 11
78.445770544071877
 21
57.5
 31
0.0
  0
LINE
  5
218B
  8
0
 10
86.145770544071866
 20
78.0
 30
0.0
 11
86.145770544071866
 21
62.000000000000007
 31
0.0
  0
LINE
  5
218C
  8
0
 10
79.445770544071877
 20
81.5
 30
0.0
 11
79.445770544071877
 21
58.500000000000021
 31
0.0
  0
LINE
  5
218D
  8
0
 10
87.145770544071866
 20
77.0
 30
0.0
 11
87.145770544071866
 21
63.0
 31
0.0
  0
CIRCLE
  5
218E
  8
0
 10
31.00000000000006
 20
70.0
 30
0.0
 40
7.7000000000000002
  0
CIRCLE
  5
218F
  8
0
 10
31.00000000000006
 20
70.0
 30
0.0
 40
10.749999999999989
  0
CIRCLE
  5
2190
  8
0
 10
31.00000000000006
 20
70.0
 30
0.0
 40
11.5
  0
CIRCLE
  5
2191
  8
0
 10
31.00000000000006
 20
70.0
 30
0.0
 40
12.5
  0
ARC
  5
2192
  8
0
 10
44.45000000000033
 20
70.0
 30
0.0
 40
1.3
 50
138.87604944110379
 51
221.1239505588961
  0
ARC
  5
2193
  8
0
 10
17.550000000000061
 20
70.000000000000014
 30
0.0
 40
1.3
 50
318.87604944110382
 51
41.123950558896091
  0
LINE
  5
2194
  8
2
 10
72.645770544071894
 20
62.299999999999997
 30
0.0
 11
72.645770544071951
 21
77.699999999999989
 31
0.0
  0
LINE
  5
2195
  8
2
 10
72.145770544071894
 20
62.299999999999997
 30
0.0
 11
72.145770544071922
 21
77.699999999999989
 31
0.0
  0
ARC
  5
2196
  8
0
 10
36.14709216531066
 20
57.573820287723073
 30
0.0
 40
1.3
 50
71.376049441103845
 51
153.6239505588961
  0
ARC
  5
2197
  8
0
 10
18.573820287723319
 20
64.852907834689503
 30
0.0
 40
1.3
 50
341.37604944110387
 51
63.623950558896219
  0
ARC
  5
2198
  8
0
 10
25.852907834689749
 20
57.573820287723073
 30
0.0
 40
1.3
 50
26.376049441103952
 51
108.6239505588962
  0
ARC
  5
2199
  8
0
 10
31.00000000000006
 20
56.549999999999891
 30
0.0
 40
1.3
 50
48.876049441103874
 51
131.1239505588961
  0
ARC
  5
219A
  8
0
 10
21.489413793041031
 20
60.489413793040832
 30
0.0
 40
1.3
 50
3.8760494411039268
 51
86.123950558896141
  0
LINE
  5
219B
  8
0
 10
87.445770544071891
 20
25.999999999999979
 30
0.0
 11
87.445770544071891
 21
29.999999999999979
 31
0.0
  0
LINE
  5
219C
  8
2
 10
72.145770544071894
 20
22.29999999999999
 30
0.0
 11
72.145770544071922
 21
37.699999999999989
 31
0.0
  0
LINE
  5
219D
  8
2
 10
72.645770544071894
 20
22.29999999999999
 30
0.0
 11
72.645770544071951
 21
37.699999999999989
 31
0.0
  0
LINE
  5
219E
  8
0
 10
87.145770544071866
 20
37.0
 30
0.0
 11
87.145770544071866
 21
23.0
 31
0.0
  0
LINE
  5
219F
  8
0
 10
79.445770544071877
 20
41.500000000000007
 30
0.0
 11
79.445770544071877
 21
18.500000000000011
 31
0.0
  0
LINE
  5
21A0
  8
0
 10
86.145770544071866
 20
38.0
 30
0.0
 11
86.145770544071866
 21
22.0
 31
0.0
  0
LINE
  5
21A1
  8
0
 10
78.445770544071877
 20
42.5
 30
0.0
 11
78.445770544071877
 21
17.499999999999989
 31
0.0
  0
LINE
  5
21A2
  8
0
 10
68.445770544071848
 20
18.5
 30
0.0
 11
68.445770544071877
 21
41.500000000000007
 31
0.0
  0
LINE
  5
21A3
  8
0
 10
69.445770544071905
 20
26.017574645327951
 30
0.0
 11
69.445770544071877
 21
29.145002753014271
 31
0.0
  0
LINE
  5
21A4
  8
0
 10
78.445770544071877
 20
17.5
 30
0.0
 11
79.445770544071877
 21
18.5
 31
0.0
  0
LINE
  5
21A5
  8
2
 10
68.445770544071877
 20
19.749999999999979
 30
0.0
 11
72.145770544071894
 21
22.29999999999999
 31
0.0
  0
LINE
  5
21A6
  8
0
 10
69.445770544071877
 20
17.529275092936778
 30
0.0
 11
77.945770544066534
 21
17.529275092936778
 31
0.0
  0
LINE
  5
21A7
  8
0
 10
69.445770544071877
 20
26.017574645327951
 30
0.0
 11
77.945770544070456
 21
26.017574645327951
 31
0.0
  0
LINE
  5
21A8
  8
0
 10
69.445770544071877
 20
24.43774573164055
 30
0.0
 11
77.945770544070456
 21
24.437745731640572
 31
0.0
  0
LINE
  5
21A9
  8
0
 10
69.445770544071877
 20
21.786440203143108
 30
0.0
 11
77.945770544070456
 21
21.786440203143108
 31
0.0
  0
LINE
  5
21AA
  8
0
 10
69.445770544071877
 20
20.577291500664131
 30
0.0
 11
77.945770544070456
 21
20.577291500664131
 31
0.0
  0
LINE
  5
21AB
  8
0
 10
69.445770544071877
 20
18.805745783924859
 30
0.0
 11
77.945770544070456
 21
18.805745783924831
 31
0.0
  0
LINE
  5
21AC
  8
0
 10
69.445770544071877
 20
18.15135922164637
 30
0.0
 11
77.945770544070456
 21
18.15135922164637
 31
0.0
  0
POLYLINE
  5
21AD
  8
0
 66
     1
 10
0.0
 20
0.0
 30
0.0
  0
VERTEX
  5
21AE
  8
0
 10
68.945770544070456
 20
21.40865260858331
 30
0.0
 42
0.061112938037691
 50
90.0
  0
VERTEX
  5
21AF
  8
0
 10
68.986626974114273
 20
21.075631147698061
 30
0.0
 42
0.0744665224447995
 50
90.0
  0
VERTEX
  5
21B0
  8
0
 10
69.092217153477606
 20
20.820791531558879
 30
0.0
 42
0.1069586370034828
 70
     2
 50
301.02368442810138
  0
VERTEX
  5
21B1
  8
0
 10
69.269643712702162
 20
20.63207479289235
 30
0.0
 42
0.1519322921768495
 50
90.0
  0
VERTEX
  5
21B2
  8
0
 10
69.445770544071905
 20
20.577291500664131
 30
0.0
 42
0.1519322921768134
 50
90.0
  0
SEQEND
  5
21B3
  8
0
  0
POLYLINE
  5
21B4
  8
0
 66
     1
 10
0.0
 20
0.0
 30
0.0
  0
VERTEX
  5
21B5
  8
0
 10
68.944977610964287
 20
18.00079293310759
 30
0.0
 42
-0.0932326856578775
 50
90.0
  0
VERTEX
  5
21B6
  8
0
 10
69.138009302564399
 20
17.96448359416809
 30
0.0
 42
-0.0961553825390117
 50
90.0
  0
VERTEX
  5
21B7
  8
0
 10
69.299091689934954
 20
17.862688555171989
 30
0.0
 42
-0.1005995558164784
 70
     2
 50
316.72458511625121
  0
VERTEX
  5
21B8
  8
0
 10
69.408126909430379
 20
17.708323726759339
 30
0.0
 42
-0.1039846014298173
 50
90.0
  0
VERTEX
  5
21B9
  8
0
 10
69.445770544071877
 20
17.529275092936778
 30
0.0
 42
-0.1039846014297789
 50
90.0
  0
SEQEND
  5
21BA
  8
0
  0
LINE
  5
21BB
  8
0
 10
69.445770544071863
 20
17.529275092936778
 30
0.0
 11
69.445770544071905
 21
18.15135922164637
 31
0.0
  0
LINE
  5
21BC
  8
0
 10
69.445770544071905
 20
18.805745783924831
 30
0.0
 11
69.445770544071877
 21
20.577291500664131
 31
0.0
  0
POLYLINE
  5
21BD
  8
0
 66
     1
 10
0.0
 20
0.0
 30
0.0
  0
VERTEX
  5
21BE
  8
0
 10
69.445770544071905
 20
18.805745783924831
 30
0.0
 42
0.0063945854363995
 50
90.0
  0
VERTEX
  5
21BF
  8
0
 10
69.23874545429868
 20
18.803097996406908
 30
0.0
 42
0.0090272087772587
 50
90.0
  0
VERTEX
  5
21C0
  8
0
 10
69.092217153477634
 20
18.796700625099131
 30
0.0
 42
0.021587231382142
 70
     2
 50
183.5343387134001
  0
VERTEX
  5
21C1
  8
0
 10
68.949802946604478
 20
18.781713015747869
 30
0.0
 50
90.0
  0
VERTEX
  5
21C2
  8
0
 10
68.945770544070683
 20
18.77486367998776
 30
0.0
 50
90.0
  0
SEQEND
  5
21C3
  8
0
  0
POLYLINE
  5
21C4
  8
0
 66
     1
 10
0.0
 20
0.0
 30
0.0
  0
VERTEX
  5
21C5
  8
0
 10
68.945770544070456
 20
18.774863679987732
 30
0.0
 42
0.0803470550416908
 50
90.0
  0
VERTEX
  5
21C6
  8
0
 10
68.985295097153539
 20
18.53049009086806
 30
0.0
 42
0.0890368192332178
 50
90.0
  0
VERTEX
  5
21C7
  8
0
 10
69.092217153477606
 20
18.333979449394519
 30
0.0
 42
0.1049083465716828
 70
     2
 50
308.72678456122611
  0
VERTEX
  5
21C8
  8
0
 10
69.260294518941151
 20
18.196432165218681
 30
0.0
 42
0.1197633248391211
 50
90.0
  0
VERTEX
  5
21C9
  8
0
 10
69.445770544071877
 20
18.15135922164637
 30
0.0
 42
0.119763324839129
 50
90.0
  0
SEQEND
  5
21CA
  8
0
  0
LINE
  5
21CB
  8
0
 10
68.445770544071877
 20
18.5
 30
0.0
 11
68.94497761096838
 21
18.000792933103501
 31
0.0
  0
LINE
  5
21CC
  8
0
 10
69.445770544071877
 20
21.786440203143108
 30
0.0
 11
69.445770544071877
 21
24.437745731640572
 31
0.0
  0
POLYLINE
  5
21CD
  8
0
 66
     1
 10
0.0
 20
0.0
 30
0.0
  0
VERTEX
  5
21CE
  8
0
 10
69.445770544071905
 20
21.786440203143108
 30
0.0
 42
0.0759738029860677
 50
90.0
  0
VERTEX
  5
21CF
  8
0
 10
69.248759696075069
 20
21.756331086051379
 30
0.0
 42
0.0861489681664724
 50
90.0
  0
VERTEX
  5
21D0
  8
0
 10
69.092217153477634
 20
21.675788778544732
 30
0.0
 42
0.1059611842089019
 70
     2
 50
217.07378942606809
  0
VERTEX
  5
21D1
  8
0
 10
68.973250192043224
 20
21.538105628153719
 30
0.0
 42
0.1471982240755334
 50
90.0
  0
VERTEX
  5
21D2
  8
0
 10
68.945770544070655
 20
21.408652608583338
 30
0.0
 42
0.1260278403512851
 50
90.0
  0
SEQEND
  5
21D3
  8
0
  0
POLYLINE
  5
21D4
  8
0
 66
     1
 10
0.0
 20
0.0
 30
0.0
  0
VERTEX
  5
21D5
  8
0
 10
69.445770544071877
 20
26.017574645327951
 30
0.0
 42
0.126904853429963
 50
90.0
  0
VERTEX
  5
21D6
  8
0
 10
69.262334604995402
 20
25.97025474387533
 30
0.0
 42
0.1060810122797594
 50
90.0
  0
VERTEX
  5
21D7
  8
0
 10
69.092217153477606
 20
25.822162631294422
 30
0.0
 42
0.085744797149215
 70
     2
 50
233.15120038294131
  0
VERTEX
  5
21D8
  8
0
 10
68.974660206527233
 20
25.59191268299276
 30
0.0
 42
0.0912209683726037
 50
90.0
  0
VERTEX
  5
21D9
  8
0
 10
68.945770544071479
 20
25.350396296764099
 30
0.0
 42
0.0753899821444356
 50
90.0
  0
SEQEND
  5
21DA
  8
0
  0
POLYLINE
  5
21DB
  8
0
 66
     1
 10
0.0
 20
0.0
 30
0.0
  0
VERTEX
  5
21DC
  8
0
 10
68.945770544073696
 20
25.350396296764082
 30
0.0
 42
0.0558453538950165
 50
90.0
  0
VERTEX
  5
21DD
  8
0
 10
68.986944463096535
 20
24.982903686255039
 30
0.0
 42
0.0696234494827605
 50
90.0
  0
VERTEX
  5
21DE
  8
0
 10
69.092217153479879
 20
24.705054893311509
 30
0.0
 42
0.1059514344510999
 70
     2
 50
298.71634323813601
  0
VERTEX
  5
21DF
  8
0
 10
69.272999549717639
 20
24.495707759474719
 30
0.0
 42
0.1632707906765774
 50
90.0
  0
VERTEX
  5
21E0
  8
0
 10
69.445770544071905
 20
24.437745731640572
 30
0.0
 42
0.1632707906765776
 50
90.0
  0
SEQEND
  5
21E1
  8
0
  0
POLYLINE
  5
21E2
  8
0
 66
     1
 10
0.0
 20
0.0
 30
0.0
  0
VERTEX
  5
21E3
  8
0
 10
78.445770544071877
 20
21.40865260858331
 30
0.0
 42
-0.061112938037691
 50
90.0
  0
VERTEX
  5
21E4
  8
0
 10
78.40491411402806
 20
21.075631147698061
 30
0.0
 42
-0.0744665224447995
 50
90.0
  0
VERTEX
  5
21E5
  8
0
 10
78.299323934664727
 20
20.820791531558879
 30
0.0
 42
-0.1069586370034828
 70
     2
 50
238.9763155718984
  0
VERTEX
  5
21E6
  8
0
 10
78.12189737544017
 20
20.63207479289235
 30
0.0
 42
-0.1519322921768495
 50
90.0
  0
VERTEX
  5
21E7
  8
0
 10
77.945770544070456
 20
20.577291500664131
 30
0.0
 42
-0.1519322921768134
 50
90.0
  0
SEQEND
  5
21E8
  8
0
  0
POLYLINE
  5
21E9
  8
0
 66
     1
 10
0.0
 20
0.0
 30
0.0
  0
VERTEX
  5
21EA
  8
0
 10
77.94577054407047
 20
17.529275092936778
 30
0.0
 42
-0.0060619562265407
 50
90.0
  0
VERTEX
  5
21EB
  8
0
 10
78.152803903355561
 20
17.526764946372712
 30
0.0
 42
-0.008559181375748
 50
90.0
  0
VERTEX
  5
21EC
  8
0
 10
78.299323934664741
 20
17.520700616735301
 30
0.0
 42
-0.0204875976357465
 70
     2
 50
356.64914701241759
  0
VERTEX
  5
21ED
  8
0
 10
78.441949680875283
 20
17.506469123745351
 30
0.0
 50
90.0
  0
VERTEX
  5
21EE
  8
0
 10
78.44577054407209
 20
17.5
 30
0.0
 50
90.0
  0
SEQEND
  5
21EF
  8
0
  0
POLYLINE
  5
21F0
  8
0
 66
     1
 10
0.0
 20
0.0
 30
0.0
  0
VERTEX
  5
21F1
  8
0
 10
78.445770544071877
 20
18.774863679987732
 30
0.0
 42
-0.0803470550416908
 50
90.0
  0
VERTEX
  5
21F2
  8
0
 10
78.406245990988793
 20
18.53049009086806
 30
0.0
 42
-0.0890368192332178
 50
90.0
  0
VERTEX
  5
21F3
  8
0
 10
78.299323934664756
 20
18.333979449394519
 30
0.0
 42
-0.1049083465716828
 70
     2
 50
231.2732154387738
  0
VERTEX
  5
21F4
  8
0
 10
78.131246569201181
 20
18.196432165218681
 30
0.0
 42
-0.1197633248391211
 50
90.0
  0
VERTEX
  5
21F5
  8
0
 10
77.945770544070456
 20
18.15135922164637
 30
0.0
 42
-0.119763324839129
 50
90.0
  0
SEQEND
  5
21F6
  8
0
  0
POLYLINE
  5
21F7
  8
0
 66
     1
 10
0.0
 20
0.0
 30
0.0
  0
VERTEX
  5
21F8
  8
0
 10
77.945770544070456
 20
18.805745783924831
 30
0.0
 42
-0.0063945854363995
 50
90.0
  0
VERTEX
  5
21F9
  8
0
 10
78.152795633843652
 20
18.803097996406908
 30
0.0
 42
-0.0090272087772587
 50
90.0
  0
VERTEX
  5
21FA
  8
0
 10
78.299323934664727
 20
18.796700625099131
 30
0.0
 42
-0.021587231382142
 70
     2
 50
356.46566128659993
  0
VERTEX
  5
21FB
  8
0
 10
78.441738141537854
 20
18.781713015747869
 30
0.0
 50
90.0
  0
VERTEX
  5
21FC
  8
0
 10
78.44577054407165
 20
18.77486367998776
 30
0.0
 50
90.0
  0
SEQEND
  5
21FD
  8
0
  0
LINE
  5
21FE
  8
2
 10
72.645770544071894
 20
22.29999999999999
 30
0.0
 11
72.145770544071894
 21
22.29999999999999
 31
0.0
  0
POLYLINE
  5
21FF
  8
0
 66
     1
 10
0.0
 20
0.0
 30
0.0
  0
VERTEX
  5
2200
  8
0
 10
77.945770544070456
 20
21.786440203143108
 30
0.0
 42
-0.0759738029860677
 50
90.0
  0
VERTEX
  5
2201
  8
0
 10
78.142781392067263
 20
21.756331086051379
 30
0.0
 42
-0.0861489681664724
 50
90.0
  0
VERTEX
  5
2202
  8
0
 10
78.299323934664727
 20
21.675788778544732
 30
0.0
 42
-0.1059611842089019
 70
     2
 50
322.92621057393188
  0
VERTEX
  5
2203
  8
0
 10
78.418290896099137
 20
21.538105628153719
 30
0.0
 42
-0.1471982240755334
 50
90.0
  0
VERTEX
  5
2204
  8
0
 10
78.445770544071706
 20
21.408652608583338
 30
0.0
 42
-0.1260278403512851
 50
90.0
  0
SEQEND
  5
2205
  8
0
  0
POLYLINE
  5
2206
  8
0
 66
     1
 10
0.0
 20
0.0
 30
0.0
  0
VERTEX
  5
2207
  8
0
 10
78.445770544068665
 20
25.350396296764082
 30
0.0
 42
-0.0558453538950165
 50
90.0
  0
VERTEX
  5
2208
  8
0
 10
78.404596625045798
 20
24.982903686255039
 30
0.0
 42
-0.0696234494827605
 50
90.0
  0
VERTEX
  5
2209
  8
0
 10
78.299323934662453
 20
24.705054893311509
 30
0.0
 42
-0.1059514344510999
 70
     2
 50
241.28365676186399
  0
VERTEX
  5
220A
  8
0
 10
78.118541538424694
 20
24.495707759474719
 30
0.0
 42
-0.1632707906765774
 50
90.0
  0
VERTEX
  5
220B
  8
0
 10
77.945770544070456
 20
24.437745731640572
 30
0.0
 42
-0.1632707906765776
 50
90.0
  0
SEQEND
  5
220C
  8
0
  0
POLYLINE
  5
220D
  8
0
 66
     1
 10
0.0
 20
0.0
 30
0.0
  0
VERTEX
  5
220E
  8
0
 10
77.945770544070456
 20
26.017574645327951
 30
0.0
 42
-0.126904853429963
 50
90.0
  0
VERTEX
  5
220F
  8
0
 10
78.129206483146959
 20
25.97025474387533
 30
0.0
 42
-0.1060810122797594
 50
90.0
  0
VERTEX
  5
2210
  8
0
 10
78.299323934664727
 20
25.822162631294422
 30
0.0
 42
-0.085744797149215
 70
     2
 50
306.84879961705872
  0
VERTEX
  5
2211
  8
0
 10
78.4168808816151
 20
25.59191268299276
 30
0.0
 42
-0.0912209683726037
 50
90.0
  0
VERTEX
  5
2212
  8
0
 10
78.445770544070854
 20
25.350396296764099
 30
0.0
 42
-0.0753899821444356
 50
90.0
  0
SEQEND
  5
2213
  8
0
  0
LINE
  5
2214
  8
0
 10
86.145770544071866
 20
22.0
 30
0.0
 11
87.145770544071866
 21
23.0
 31
0.0
  0
LINE
  5
2215
  8
0
 10
79.445770544071848
 20
22.0
 30
0.0
 11
86.145770544071866
 21
22.0
 31
0.0
  0
LINE
  5
2216
  8
0
 10
87.445770544071891
 20
25.999999999999979
 30
0.0
 11
87.145770544071894
 21
25.999999999999979
 31
0.0
  0
ARC
  5
2217
  8
0
 10
43.426179712277069
 20
64.852907834689489
 30
0.0
 40
1.3
 50
116.3760494411038
 51
198.6239505588961
  0
ARC
  5
2218
  8
0
 10
40.510586206959353
 20
60.489413793040832
 30
0.0
 40
1.3
 50
93.876049441103845
 51
176.1239505588961
  0
LINE
  5
2219
  8
0
 10
79.445770544071877
 20
41.500000000000007
 30
0.0
 11
78.445770544071877
 21
42.5
 31
0.0
  0
LINE
  5
221A
  8
0
 10
69.445770544071877
 20
38.213559796856892
 30
0.0
 11
69.445770544071877
 21
35.562254268359432
 31
0.0
  0
LINE
  5
221B
  8
0
 10
69.445770544071877
 20
35.56225426835946
 30
0.0
 11
77.945770544070456
 21
35.562254268359432
 31
0.0
  0
LINE
  5
221C
  8
0
 10
69.445770544071877
 20
33.982425354672053
 30
0.0
 11
77.945770544070456
 21
33.982425354672053
 31
0.0
  0
LINE
  5
221D
  8
0
 10
69.445770544071877
 20
30.854997246985761
 30
0.0
 11
77.945770544070456
 21
30.854997246985729
 31
0.0
  0
LINE
  5
221E
  8
0
 10
69.445770544071877
 20
29.145002753014239
 30
0.0
 11
77.945770544070456
 21
29.145002753014271
 31
0.0
  0
LINE
  5
221F
  8
0
 10
69.445770544071905
 20
33.982425354672053
 30
0.0
 11
69.445770544071877
 21
30.854997246985729
 31
0.0
  0
ARC
  5
2220
  8
0
 10
69.926790836422441
 20
29.999999999999861
 30
0.0
 40
0.9810202923517865
 50
119.3620468109286
 51
240.63795318908811
  0
POLYLINE
  5
2221
  8
0
 66
     1
 10
0.0
 20
0.0
 30
0.0
  0
VERTEX
  5
2222
  8
0
 10
69.445770544071877
 20
33.982425354672053
 30
0.0
 42
-0.126904853429963
 50
180.0
  0
VERTEX
  5
2223
  8
0
 10
69.262334604995402
 20
34.02974525612467
 30
0.0
 42
-0.1060810122797594
 50
180.0
  0
VERTEX
  5
2224
  8
0
 10
69.092217153477606
 20
34.177837368705589
 30
0.0
 42
-0.085744797149215
 70
     2
 50
126.8487996170587
  0
VERTEX
  5
2225
  8
0
 10
68.974660206527233
 20
34.408087317007251
 30
0.0
 42
-0.0912209683726037
 50
180.0
  0
VERTEX
  5
2226
  8
0
 10
68.945770544071479
 20
34.649603703235897
 30
0.0
 42
-0.0753899821444356
 50
180.0
  0
SEQEND
  5
2227
  8
0
  0
POLYLINE
  5
2228
  8
0
 66
     1
 10
0.0
 20
0.0
 30
0.0
  0
VERTEX
  5
2229
  8
0
 10
68.945770544073696
 20
34.649603703235933
 30
0.0
 42
-0.0558453538950165
 50
180.0
  0
VERTEX
  5
222A
  8
0
 10
68.986944463096535
 20
35.017096313744958
 30
0.0
 42
-0.0696234494827605
 50
180.0
  0
VERTEX
  5
222B
  8
0
 10
69.092217153479879
 20
35.294945106688488
 30
0.0
 42
-0.1059514344510999
 70
     2
 50
61.283656761864009
  0
VERTEX
  5
222C
  8
0
 10
69.272999549717639
 20
35.504292240525281
 30
0.0
 42
-0.1632707906765774
 50
180.0
  0
VERTEX
  5
222D
  8
0
 10
69.445770544071905
 20
35.562254268359432
 30
0.0
 42
-0.1632707906765776
 50
180.0
  0
SEQEND
  5
222E
  8
0
  0
ARC
  5
222F
  8
0
 10
77.464750251719892
 20
29.999999999999861
 30
0.0
 40
0.9810202923517865
 50
299.36204681106381
 51
60.637953189071311
  0
POLYLINE
  5
2230
  8
0
 66
     1
 10
0.0
 20
0.0
 30
0.0
  0
VERTEX
  5
2231
  8
0
 10
77.945770544070456
 20
33.982425354672053
 30
0.0
 42
0.126904853429963
 50
180.0
  0
VERTEX
  5
2232
  8
0
 10
78.129206483146959
 20
34.02974525612467
 30
0.0
 42
0.1060810122797594
 50
180.0
  0
VERTEX
  5
2233
  8
0
 10
78.299323934664727
 20
34.177837368705589
 30
0.0
 42
0.085744797149215
 70
     2
 50
53.151200382941283
  0
VERTEX
  5
2234
  8
0
 10
78.4168808816151
 20
34.408087317007251
 30
0.0
 42
0.0912209683726037
 50
53.151200382941283
  0
VERTEX
  5
2235
  8
0
 10
78.445770544070854
 20
34.649603703235897
 30
0.0
 42
0.0753899821444356
 50
180.0
  0
SEQEND
  5
2236
  8
0
  0
POLYLINE
  5
2237
  8
0
 66
     1
 10
0.0
 20
0.0
 30
0.0
  0
VERTEX
  5
2238
  8
0
 10
78.445770544068665
 20
34.649603703235933
 30
0.0
 42
0.0558453538950165
 50
180.0
  0
VERTEX
  5
2239
  8
0
 10
78.404596625045798
 20
35.017096313744958
 30
0.0
 42
0.0696234494827605
 50
180.0
  0
VERTEX
  5
223A
  8
0
 10
78.299323934662453
 20
35.294945106688488
 30
0.0
 42
0.1059514344510999
 70
     2
 50
118.71634323813591
  0
VERTEX
  5
223B
  8
0
 10
78.118541538424694
 20
35.504292240525281
 30
0.0
 42
0.1632707906765774
 50
118.71634323813591
  0
VERTEX
  5
223C
  8
0
 10
77.945770544070456
 20
35.562254268359432
 30
0.0
 42
0.1632707906765776
 50
180.0
  0
SEQEND
  5
223D
  8
0
  0
LINE
  5
223E
  8
0
 10
69.445770544071877
 20
41.848640778353627
 30
0.0
 11
77.945770544070456
 21
41.848640778353627
 31
0.0
  0
LINE
  5
223F
  8
0
 10
69.445770544071877
 20
41.194254216075137
 30
0.0
 11
77.945770544070456
 21
41.194254216075173
 31
0.0
  0
LINE
  5
2240
  8
0
 10
69.445770544071877
 20
39.422708499335869
 30
0.0
 11
77.945770544070456
 21
39.422708499335869
 31
0.0
  0
LINE
  5
2241
  8
0
 10
69.445770544071877
 20
38.213559796856892
 30
0.0
 11
77.945770544070456
 21
38.213559796856892
 31
0.0
  0
LINE
  5
2242
  8
0
 10
69.445770544071877
 20
42.470724907063207
 30
0.0
 11
77.945770544066534
 21
42.470724907063207
 31
0.0
  0
LINE
  5
2243
  8
2
 10
68.445770544071877
 20
40.250000000000007
 30
0.0
 11
72.145770544071894
 21
37.699999999999989
 31
0.0
  0
LINE
  5
2244
  8
0
 10
69.445770544071863
 20
42.470724907063207
 30
0.0
 11
69.445770544071905
 21
41.848640778353627
 31
0.0
  0
POLYLINE
  5
2245
  8
0
 66
     1
 10
0.0
 20
0.0
 30
0.0
  0
VERTEX
  5
2246
  8
0
 10
68.944977610964287
 20
41.99920706689241
 30
0.0
 42
0.0932326856578775
 50
90.0
  0
VERTEX
  5
2247
  8
0
 10
69.138009302564399
 20
42.035516405831913
 30
0.0
 42
0.0961553825390117
 50
90.0
  0
VERTEX
  5
2248
  8
0
 10
69.299091689934954
 20
42.137311444828022
 30
0.0
 42
0.1005995558164784
 70
     2
 50
43.275414883748788
  0
VERTEX
  5
2249
  8
0
 10
69.408126909430379
 20
42.291676273240647
 30
0.0
 42
0.1039846014298173
 50
43.275414883748788
  0
VERTEX
  5
224A
  8
0
 10
69.445770544071877
 20
42.470724907063207
 30
0.0
 42
0.1039846014297789
 50
90.0
  0
SEQEND
  5
224B
  8
0
  0
LINE
  5
224C
  8
0
 10
69.445770544071905
 20
41.194254216075173
 30
0.0
 11
69.445770544071877
 21
39.422708499335869
 31
0.0
  0
POLYLINE
  5
224D
  8
0
 66
     1
 10
0.0
 20
0.0
 30
0.0
  0
VERTEX
  5
224E
  8
0
 10
68.945770544070456
 20
38.59134739141669
 30
0.0
 42
-0.061112938037691
 50
180.0
  0
VERTEX
  5
224F
  8
0
 10
68.986626974114273
 20
38.924368852301939
 30
0.0
 42
-0.0744665224447995
 50
180.0
  0
VERTEX
  5
2250
  8
0
 10
69.092217153477606
 20
39.179208468441118
 30
0.0
 42
-0.1069586370034828
 70
     2
 50
58.976315571898532
  0
VERTEX
  5
2251
  8
0
 10
69.269643712702162
 20
39.367925207107653
 30
0.0
 42
-0.1519322921768495
 50
180.0
  0
VERTEX
  5
2252
  8
0
 10
69.445770544071905
 20
39.422708499335869
 30
0.0
 42
-0.1519322921768134
 50
180.0
  0
SEQEND
  5
2253
  8
0
  0
POLYLINE
  5
2254
  8
0
 66
     1
 10
0.0
 20
0.0
 30
0.0
  0
VERTEX
  5
2255
  8
0
 10
69.445770544071905
 20
38.213559796856892
 30
0.0
 42
-0.0759738029860677
 50
180.0
  0
VERTEX
  5
2256
  8
0
 10
69.248759696075069
 20
38.243668913948632
 30
0.0
 42
-0.0861489681664724
 50
180.0
  0
VERTEX
  5
2257
  8
0
 10
69.092217153477634
 20
38.324211221455272
 30
0.0
 42
-0.1059611842089019
 70
     2
 50
142.92621057393191
  0
VERTEX
  5
2258
  8
0
 10
68.973250192043224
 20
38.461894371846292
 30
0.0
 42
-0.1471982240755334
 50
180.0
  0
VERTEX
  5
2259
  8
0
 10
68.945770544070655
 20
38.591347391416669
 30
0.0
 42
-0.1260278403512851
 50
180.0
  0
SEQEND
  5
225A
  8
0
  0
LINE
  5
225B
  8
0
 10
68.445770544071877
 20
41.500000000000007
 30
0.0
 11
68.94497761096838
 21
41.99920706689651
 31
0.0
  0
POLYLINE
  5
225C
  8
0
 66
     1
 10
0.0
 20
0.0
 30
0.0
  0
VERTEX
  5
225D
  8
0
 10
68.945770544070456
 20
41.225136320012268
 30
0.0
 42
-0.0803470550416908
 50
180.0
  0
VERTEX
  5
225E
  8
0
 10
68.985295097153539
 20
41.469509909131951
 30
0.0
 42
-0.0890368192332178
 50
180.0
  0
VERTEX
  5
225F
  8
0
 10
69.092217153477606
 20
41.666020550605488
 30
0.0
 42
-0.1049083465716828
 70
     2
 50
51.27321543877386
  0
VERTEX
  5
2260
  8
0
 10
69.260294518941151
 20
41.803567834781319
 30
0.0
 42
-0.1197633248391211
 50
180.0
  0
VERTEX
  5
2261
  8
0
 10
69.445770544071877
 20
41.848640778353627
 30
0.0
 42
-0.119763324839129
 50
180.0
  0
SEQEND
  5
2262
  8
0
  0
POLYLINE
  5
2263
  8
0
 66
     1
 10
0.0
 20
0.0
 30
0.0
  0
VERTEX
  5
2264
  8
0
 10
69.445770544071905
 20
41.194254216075173
 30
0.0
 42
-0.0063945854363995
 50
180.0
  0
VERTEX
  5
2265
  8
0
 10
69.23874545429868
 20
41.196902003593102
 30
0.0
 42
-0.0090272087772587
 50
180.0
  0
VERTEX
  5
2266
  8
0
 10
69.092217153477634
 20
41.203299374900872
 30
0.0
 42
-0.021587231382142
 70
     2
 50
176.4656612865999
  0
VERTEX
  5
2267
  8
0
 10
68.949802946604478
 20
41.218286984252138
 30
0.0
 50
180.0
  0
VERTEX
  5
2268
  8
0
 10
68.945770544070683
 20
41.225136320012247
 30
0.0
 50
180.0
  0
SEQEND
  5
2269
  8
0
  0
LINE
  5
226A
  8
2
 10
72.645770544071894
 20
37.699999999999989
 30
0.0
 11
72.145770544071894
 21
37.699999999999989
 31
0.0
  0
POLYLINE
  5
226B
  8
0
 66
     1
 10
0.0
 20
0.0
 30
0.0
  0
VERTEX
  5
226C
  8
0
 10
77.945770544070456
 20
38.213559796856892
 30
0.0
 42
0.0759738029860677
 50
180.0
  0
VERTEX
  5
226D
  8
0
 10
78.142781392067263
 20
38.243668913948632
 30
0.0
 42
0.0861489681664724
 50
180.0
  0
VERTEX
  5
226E
  8
0
 10
78.299323934664727
 20
38.324211221455272
 30
0.0
 42
0.1059611842089019
 70
     2
 50
37.073789426068082
  0
VERTEX
  5
226F
  8
0
 10
78.418290896099137
 20
38.461894371846292
 30
0.0
 42
0.1471982240755334
 50
37.073789426068082
  0
VERTEX
  5
2270
  8
0
 10
78.445770544071706
 20
38.591347391416669
 30
0.0
 42
0.1260278403512851
 50
180.0
  0
SEQEND
  5
2271
  8
0
  0
POLYLINE
  5
2272
  8
0
 66
     1
 10
0.0
 20
0.0
 30
0.0
  0
VERTEX
  5
2273
  8
0
 10
78.445770544071877
 20
38.59134739141669
 30
0.0
 42
0.061112938037691
 50
180.0
  0
VERTEX
  5
2274
  8
0
 10
78.40491411402806
 20
38.924368852301939
 30
0.0
 42
0.0744665224447995
 50
180.0
  0
VERTEX
  5
2275
  8
0
 10
78.299323934664727
 20
39.179208468441118
 30
0.0
 42
0.1069586370034828
 70
     2
 50
121.0236844281015
  0
VERTEX
  5
2276
  8
0
 10
78.12189737544017
 20
39.367925207107653
 30
0.0
 42
0.1519322921768495
 50
121.0236844281015
  0
VERTEX
  5
2277
  8
0
 10
77.945770544070456
 20
39.422708499335869
 30
0.0
 42
0.1519322921768134
 50
180.0
  0
SEQEND
  5
2278
  8
0
  0
POLYLINE
  5
2279
  8
0
 66
     1
 10
0.0
 20
0.0
 30
0.0
  0
VERTEX
  5
227A
  8
0
 10
77.945770544070456
 20
41.194254216075173
 30
0.0
 42
0.0063945854363995
 50
180.0
  0
VERTEX
  5
227B
  8
0
 10
78.152795633843652
 20
41.196902003593102
 30
0.0
 42
0.0090272087772587
 50
180.0
  0
VERTEX
  5
227C
  8
0
 10
78.299323934664727
 20
41.203299374900872
 30
0.0
 42
0.021587231382142
 70
     2
 50
3.5343387134001181
  0
VERTEX
  5
227D
  8
0
 10
78.441738141537854
 20
41.218286984252138
 30
0.0
 50
3.5343387134001181
  0
VERTEX
  5
227E
  8
0
 10
78.44577054407165
 20
41.225136320012247
 30
0.0
 50
180.0
  0
SEQEND
  5
227F
  8
0
  0
POLYLINE
  5
2280
  8
0
 66
     1
 10
0.0
 20
0.0
 30
0.0
  0
VERTEX
  5
2281
  8
0
 10
78.445770544071877
 20
41.225136320012268
 30
0.0
 42
0.0803470550416908
 50
180.0
  0
VERTEX
  5
2282
  8
0
 10
78.406245990988793
 20
41.469509909131951
 30
0.0
 42
0.0890368192332178
 50
180.0
  0
VERTEX
  5
2283
  8
0
 10
78.299323934664756
 20
41.666020550605488
 30
0.0
 42
0.1049083465716828
 70
     2
 50
128.7267845612262
  0
VERTEX
  5
2284
  8
0
 10
78.131246569201181
 20
41.803567834781319
 30
0.0
 42
0.1197633248391211
 50
128.7267845612262
  0
VERTEX
  5
2285
  8
0
 10
77.945770544070456
 20
41.848640778353627
 30
0.0
 42
0.119763324839129
 50
180.0
  0
SEQEND
  5
2286
  8
0
  0
POLYLINE
  5
2287
  8
0
 66
     1
 10
0.0
 20
0.0
 30
0.0
  0
VERTEX
  5
2288
  8
0
 10
77.94577054407047
 20
42.470724907063207
 30
0.0
 42
0.0060619562265407
 50
90.0
  0
VERTEX
  5
2289
  8
0
 10
78.152803903355561
 20
42.473235053627299
 30
0.0
 42
0.008559181375748
 50
90.0
  0
VERTEX
  5
228A
  8
0
 10
78.299323934664741
 20
42.479299383264703
 30
0.0
 42
0.0204875976357465
 70
     2
 50
3.3508529875824729
  0
VERTEX
  5
228B
  8
0
 10
78.441949680875283
 20
42.49353087625466
 30
0.0
 50
3.3508529875824729
  0
VERTEX
  5
228C
  8
0
 10
78.44577054407209
 20
42.5
 30
0.0
 50
90.0
  0
SEQEND
  5
228D
  8
0
  0
LINE
  5
228E
  8
0
 10
87.445770544071891
 20
33.999999999999979
 30
0.0
 11
87.445770544071891
 21
29.999999999999979
 31
0.0
  0
LINE
  5
228F
  8
0
 10
89.445770544071863
 20
26.999999999999979
 30
0.0
 11
89.44577054407192
 21
32.999999999999979
 31
0.0
  0
LINE
  5
2290
  8
3
 10
89.44577054407192
 20
27.541499999999971
 30
0.0
 11
88.507865031773534
 21
27.000000000000039
 31
0.0
  0
LINE
  5
2291
  8
0
 10
87.445770544071891
 20
33.999999999999979
 30
0.0
 11
87.145770544071894
 21
33.999999999999979
 31
0.0
  0
LINE
  5
2292
  8
3
 10
89.44577054407192
 20
32.458500000000079
 30
0.0
 11
88.507865031773534
 21
33.000000000000007
 31
0.0
  0
LINE
  5
2293
  8
0
 10
87.145770544071866
 20
37.0
 30
0.0
 11
86.145770544071866
 21
38.0
 31
0.0
  0
LINE
  5
2294
  8
0
 10
79.445770544071877
 20
38.0
 30
0.0
 11
86.145770544071866
 21
38.0
 31
0.0
  0
LINE
  5
2295
  8
0
 10
78.445770544071877
 20
57.5
 30
0.0
 11
79.445770544071877
 21
58.500000000000007
 31
0.0
  0
POLYLINE
  5
2296
  8
0
 66
     1
 10
0.0
 20
0.0
 30
0.0
  0
VERTEX
  5
2297
  8
0
 10
78.445770544071877
 20
58.774863679987732
 30
0.0
 42
-0.0803470550416908
 50
90.0
  0
VERTEX
  5
2298
  8
0
 10
78.406245990988793
 20
58.530490090868057
 30
0.0
 42
-0.0890368192332178
 50
90.0
  0
VERTEX
  5
2299
  8
0
 10
78.299323934664756
 20
58.333979449394519
 30
0.0
 42
-0.1049083465716828
 70
     2
 50
231.2732154387738
  0
VERTEX
  5
229A
  8
0
 10
78.131246569201181
 20
58.196432165218688
 30
0.0
 42
-0.1197633248391211
 50
90.0
  0
VERTEX
  5
229B
  8
0
 10
77.945770544070456
 20
58.151359221646381
 30
0.0
 42
-0.119763324839129
 50
90.0
  0
SEQEND
  5
229C
  8
0
  0
POLYLINE
  5
229D
  8
0
 66
     1
 10
0.0
 20
0.0
 30
0.0
  0
VERTEX
  5
229E
  8
0
 10
68.945770544070456
 20
58.774863679987732
 30
0.0
 42
0.0803470550416908
 50
90.0
  0
VERTEX
  5
229F
  8
0
 10
68.985295097153539
 20
58.530490090868057
 30
0.0
 42
0.0890368192332178
 50
90.0
  0
VERTEX
  5
22A0
  8
0
 10
69.092217153477606
 20
58.333979449394519
 30
0.0
 42
0.1049083465716828
 70
     2
 50
308.72678456122611
  0
VERTEX
  5
22A1
  8
0
 10
69.260294518941151
 20
58.196432165218688
 30
0.0
 42
0.1197633248391211
 50
90.0
  0
VERTEX
  5
22A2
  8
0
 10
69.445770544071877
 20
58.151359221646381
 30
0.0
 42
0.119763324839129
 50
90.0
  0
SEQEND
  5
22A3
  8
0
  0
LINE
  5
22A4
  8
0
 10
69.445770544071877
 20
58.151359221646381
 30
0.0
 11
77.945770544070456
 21
58.151359221646381
 31
0.0
  0
LINE
  5
22A5
  8
0
 10
69.445770544071877
 20
57.529275092936793
 30
0.0
 11
77.945770544066534
 21
57.529275092936793
 31
0.0
  0
LINE
  5
22A6
  8
0
 10
68.445770544071877
 20
58.500000000000007
 30
0.0
 11
68.94497761096838
 21
58.000792933103497
 31
0.0
  0
LINE
  5
22A7
  8
0
 10
69.445770544071863
 20
57.529275092936793
 30
0.0
 11
69.445770544071905
 21
58.151359221646381
 31
0.0
  0
POLYLINE
  5
22A8
  8
0
 66
     1
 10
0.0
 20
0.0
 30
0.0
  0
VERTEX
  5
22A9
  8
0
 10
68.944977610964287
 20
58.00079293310759
 30
0.0
 42
-0.0932326856578775
 50
90.0
  0
VERTEX
  5
22AA
  8
0
 10
69.138009302564399
 20
57.964483594168087
 30
0.0
 42
-0.0961553825390117
 50
90.0
  0
VERTEX
  5
22AB
  8
0
 10
69.299091689934954
 20
57.862688555171992
 30
0.0
 42
-0.1005995558164784
 70
     2
 50
316.72458511625121
  0
VERTEX
  5
22AC
  8
0
 10
69.408126909430379
 20
57.708323726759353
 30
0.0
 42
-0.1039846014298173
 50
90.0
  0
VERTEX
  5
22AD
  8
0
 10
69.445770544071877
 20
57.529275092936793
 30
0.0
 42
-0.1039846014297789
 50
90.0
  0
SEQEND
  5
22AE
  8
0
  0
POLYLINE
  5
22AF
  8
0
 66
     1
 10
0.0
 20
0.0
 30
0.0
  0
VERTEX
  5
22B0
  8
0
 10
77.94577054407047
 20
57.529275092936793
 30
0.0
 42
-0.0060619562265407
 50
90.0
  0
VERTEX
  5
22B1
  8
0
 10
78.152803903355561
 20
57.526764946372708
 30
0.0
 42
-0.008559181375748
 50
90.0
  0
VERTEX
  5
22B2
  8
0
 10
78.299323934664741
 20
57.520700616735297
 30
0.0
 42
-0.0204875976357465
 70
     2
 50
356.64914701241759
  0
VERTEX
  5
22B3
  8
0
 10
78.441949680875283
 20
57.506469123745347
 30
0.0
 50
90.0
  0
VERTEX
  5
22B4
  8
0
 10
78.44577054407209
 20
57.5
 30
0.0
 50
90.0
  0
SEQEND
  5
22B5
  8
0
  0
LINE
  5
22B6
  8
0
 10
69.445770544071877
 20
58.805745783924863
 30
0.0
 11
77.945770544070456
 21
58.805745783924841
 31
0.0
  0
LINE
  5
22B7
  8
0
 10
69.445770544071877
 20
60.577291500664138
 30
0.0
 11
77.945770544070456
 21
60.577291500664138
 31
0.0
  0
LINE
  5
22B8
  8
0
 10
69.445770544071877
 20
61.786440203143123
 30
0.0
 11
77.945770544070456
 21
61.786440203143123
 31
0.0
  0
LINE
  5
22B9
  8
0
 10
69.445770544071877
 20
64.437745731640547
 30
0.0
 11
77.945770544070456
 21
64.437745731640575
 31
0.0
  0
LINE
  5
22BA
  8
0
 10
69.445770544071877
 20
66.017574645327954
 30
0.0
 11
77.945770544070456
 21
66.017574645327954
 31
0.0
  0
LINE
  5
22BB
  8
0
 10
69.445770544071877
 20
69.145002753014239
 30
0.0
 11
77.945770544070456
 21
69.145002753014268
 31
0.0
  0
LINE
  5
22BC
  8
2
 10
68.445770544071877
 20
59.749999999999993
 30
0.0
 11
72.145770544071894
 21
62.299999999999997
 31
0.0
  0
LINE
  5
22BD
  8
0
 10
69.445770544071877
 20
61.786440203143123
 30
0.0
 11
69.445770544071877
 21
64.437745731640575
 31
0.0
  0
POLYLINE
  5
22BE
  8
0
 66
     1
 10
0.0
 20
0.0
 30
0.0
  0
VERTEX
  5
22BF
  8
0
 10
68.945770544070456
 20
61.408652608583317
 30
0.0
 42
0.061112938037691
 50
90.0
  0
VERTEX
  5
22C0
  8
0
 10
68.986626974114273
 20
61.075631147698061
 30
0.0
 42
0.0744665224447995
 50
90.0
  0
VERTEX
  5
22C1
  8
0
 10
69.092217153477606
 20
60.820791531558889
 30
0.0
 42
0.1069586370034828
 70
     2
 50
301.02368442810138
  0
VERTEX
  5
22C2
  8
0
 10
69.269643712702162
 20
60.632074792892361
 30
0.0
 42
0.1519322921768495
 50
90.0
  0
VERTEX
  5
22C3
  8
0
 10
69.445770544071905
 20
60.577291500664138
 30
0.0
 42
0.1519322921768134
 50
90.0
  0
SEQEND
  5
22C4
  8
0
  0
POLYLINE
  5
22C5
  8
0
 66
     1
 10
0.0
 20
0.0
 30
0.0
  0
VERTEX
  5
22C6
  8
0
 10
69.445770544071905
 20
58.805745783924841
 30
0.0
 42
0.0063945854363995
 50
90.0
  0
VERTEX
  5
22C7
  8
0
 10
69.23874545429868
 20
58.803097996406912
 30
0.0
 42
0.0090272087772587
 50
90.0
  0
VERTEX
  5
22C8
  8
0
 10
69.092217153477634
 20
58.796700625099142
 30
0.0
 42
0.021587231382142
 70
     2
 50
183.5343387134001
  0
VERTEX
  5
22C9
  8
0
 10
68.949802946604478
 20
58.781713015747883
 30
0.0
 50
90.0
  0
VERTEX
  5
22CA
  8
0
 10
68.945770544070683
 20
58.774863679987767
 30
0.0
 50
90.0
  0
SEQEND
  5
22CB
  8
0
  0
LINE
  5
22CC
  8
0
 10
69.445770544071905
 20
58.805745783924841
 30
0.0
 11
69.445770544071877
 21
60.577291500664138
 31
0.0
  0
POLYLINE
  5
22CD
  8
0
 66
     1
 10
0.0
 20
0.0
 30
0.0
  0
VERTEX
  5
22CE
  8
0
 10
69.445770544071905
 20
61.786440203143123
 30
0.0
 42
0.0759738029860677
 50
90.0
  0
VERTEX
  5
22CF
  8
0
 10
69.248759696075069
 20
61.756331086051382
 30
0.0
 42
0.0861489681664724
 50
90.0
  0
VERTEX
  5
22D0
  8
0
 10
69.092217153477634
 20
61.675788778544742
 30
0.0
 42
0.1059611842089019
 70
     2
 50
217.07378942606809
  0
VERTEX
  5
22D1
  8
0
 10
68.973250192043224
 20
61.538105628153723
 30
0.0
 42
0.1471982240755334
 50
90.0
  0
VERTEX
  5
22D2
  8
0
 10
68.945770544070655
 20
61.408652608583338
 30
0.0
 42
0.1260278403512851
 50
90.0
  0
SEQEND
  5
22D3
  8
0
  0
LINE
  5
22D4
  8
0
 10
69.445770544071905
 20
66.017574645327954
 30
0.0
 11
69.445770544071877
 21
69.145002753014268
 31
0.0
  0
POLYLINE
  5
22D5
  8
0
 66
     1
 10
0.0
 20
0.0
 30
0.0
  0
VERTEX
  5
22D6
  8
0
 10
68.945770544073696
 20
65.350396296764075
 30
0.0
 42
0.0558453538950165
 50
90.0
  0
VERTEX
  5
22D7
  8
0
 10
68.986944463096535
 20
64.982903686255042
 30
0.0
 42
0.0696234494827605
 50
90.0
  0
VERTEX
  5
22D8
  8
0
 10
69.092217153479879
 20
64.705054893311512
 30
0.0
 42
0.1059514344510999
 70
     2
 50
298.71634323813601
  0
VERTEX
  5
22D9
  8
0
 10
69.272999549717639
 20
64.495707759474726
 30
0.0
 42
0.1632707906765774
 50
90.0
  0
VERTEX
  5
22DA
  8
0
 10
69.445770544071905
 20
64.437745731640575
 30
0.0
 42
0.1632707906765776
 50
90.0
  0
SEQEND
  5
22DB
  8
0
  0
POLYLINE
  5
22DC
  8
0
 66
     1
 10
0.0
 20
0.0
 30
0.0
  0
VERTEX
  5
22DD
  8
0
 10
69.445770544071877
 20
66.017574645327954
 30
0.0
 42
0.126904853429963
 50
90.0
  0
VERTEX
  5
22DE
  8
0
 10
69.262334604995402
 20
65.97025474387533
 30
0.0
 42
0.1060810122797594
 50
90.0
  0
VERTEX
  5
22DF
  8
0
 10
69.092217153477606
 20
65.822162631294418
 30
0.0
 42
0.085744797149215
 70
     2
 50
233.15120038294131
  0
VERTEX
  5
22E0
  8
0
 10
68.974660206527233
 20
65.591912682992756
 30
0.0
 42
0.0912209683726037
 50
90.0
  0
VERTEX
  5
22E1
  8
0
 10
68.945770544071479
 20
65.350396296764103
 30
0.0
 42
0.0753899821444356
 50
90.0
  0
SEQEND
  5
22E2
  8
0
  0
LINE
  5
22E3
  8
2
 10
72.645770544071894
 20
62.299999999999997
 30
0.0
 11
72.145770544071894
 21
62.299999999999997
 31
0.0
  0
POLYLINE
  5
22E4
  8
0
 66
     1
 10
0.0
 20
0.0
 30
0.0
  0
VERTEX
  5
22E5
  8
0
 10
78.445770544071877
 20
61.408652608583317
 30
0.0
 42
-0.061112938037691
 50
90.0
  0
VERTEX
  5
22E6
  8
0
 10
78.40491411402806
 20
61.075631147698061
 30
0.0
 42
-0.0744665224447995
 50
90.0
  0
VERTEX
  5
22E7
  8
0
 10
78.299323934664727
 20
60.820791531558889
 30
0.0
 42
-0.1069586370034828
 70
     2
 50
238.9763155718984
  0
VERTEX
  5
22E8
  8
0
 10
78.12189737544017
 20
60.632074792892361
 30
0.0
 42
-0.1519322921768495
 50
90.0
  0
VERTEX
  5
22E9
  8
0
 10
77.945770544070456
 20
60.577291500664138
 30
0.0
 42
-0.1519322921768134
 50
90.0
  0
SEQEND
  5
22EA
  8
0
  0
POLYLINE
  5
22EB
  8
0
 66
     1
 10
0.0
 20
0.0
 30
0.0
  0
VERTEX
  5
22EC
  8
0
 10
77.945770544070456
 20
58.805745783924841
 30
0.0
 42
-0.0063945854363995
 50
90.0
  0
VERTEX
  5
22ED
  8
0
 10
78.152795633843652
 20
58.803097996406912
 30
0.0
 42
-0.0090272087772587
 50
90.0
  0
VERTEX
  5
22EE
  8
0
 10
78.299323934664727
 20
58.796700625099142
 30
0.0
 42
-0.021587231382142
 70
     2
 50
356.46566128659993
  0
VERTEX
  5
22EF
  8
0
 10
78.441738141537854
 20
58.781713015747883
 30
0.0
 50
90.0
  0
VERTEX
  5
22F0
  8
0
 10
78.44577054407165
 20
58.774863679987767
 30
0.0
 50
90.0
  0
SEQEND
  5
22F1
  8
0
  0
POLYLINE
  5
22F2
  8
0
 66
     1
 10
0.0
 20
0.0
 30
0.0
  0
VERTEX
  5
22F3
  8
0
 10
77.945770544070456
 20
61.786440203143123
 30
0.0
 42
-0.0759738029860677
 50
90.0
  0
VERTEX
  5
22F4
  8
0
 10
78.142781392067263
 20
61.756331086051382
 30
0.0
 42
-0.0861489681664724
 50
90.0
  0
VERTEX
  5
22F5
  8
0
 10
78.299323934664727
 20
61.675788778544742
 30
0.0
 42
-0.1059611842089019
 70
     2
 50
322.92621057393188
  0
VERTEX
  5
22F6
  8
0
 10
78.418290896099137
 20
61.538105628153723
 30
0.0
 42
-0.1471982240755334
 50
90.0
  0
VERTEX
  5
22F7
  8
0
 10
78.445770544071706
 20
61.408652608583338
 30
0.0
 42
-0.1260278403512851
 50
90.0
  0
SEQEND
  5
22F8
  8
0
  0
POLYLINE
  5
22F9
  8
0
 66
     1
 10
0.0
 20
0.0
 30
0.0
  0
VERTEX
  5
22FA
  8
0
 10
77.945770544070456
 20
66.017574645327954
 30
0.0
 42
-0.126904853429963
 50
90.0
  0
VERTEX
  5
22FB
  8
0
 10
78.129206483146959
 20
65.97025474387533
 30
0.0
 42
-0.1060810122797594
 50
90.0
  0
VERTEX
  5
22FC
  8
0
 10
78.299323934664727
 20
65.822162631294418
 30
0.0
 42
-0.085744797149215
 70
     2
 50
306.84879961705872
  0
VERTEX
  5
22FD
  8
0
 10
78.4168808816151
 20
65.591912682992756
 30
0.0
 42
-0.0912209683726037
 50
90.0
  0
VERTEX
  5
22FE
  8
0
 10
78.445770544070854
 20
65.350396296764103
 30
0.0
 42
-0.0753899821444356
 50
90.0
  0
SEQEND
  5
22FF
  8
0
  0
POLYLINE
  5
2300
  8
0
 66
     1
 10
0.0
 20
0.0
 30
0.0
  0
VERTEX
  5
2301
  8
0
 10
78.445770544068665
 20
65.350396296764075
 30
0.0
 42
-0.0558453538950165
 50
90.0
  0
VERTEX
  5
2302
  8
0
 10
78.404596625045798
 20
64.982903686255042
 30
0.0
 42
-0.0696234494827605
 50
90.0
  0
VERTEX
  5
2303
  8
0
 10
78.299323934662453
 20
64.705054893311512
 30
0.0
 42
-0.1059514344510999
 70
     2
 50
241.28365676186399
  0
VERTEX
  5
2304
  8
0
 10
78.118541538424694
 20
64.495707759474726
 30
0.0
 42
-0.1632707906765774
 50
90.0
  0
VERTEX
  5
2305
  8
0
 10
77.945770544070456
 20
64.437745731640575
 30
0.0
 42
-0.1632707906765776
 50
90.0
  0
SEQEND
  5
2306
  8
0
  0
LINE
  5
2307
  8
0
 10
86.145770544071866
 20
62.000000000000007
 30
0.0
 11
87.145770544071866
 21
63.0
 31
0.0
  0
LINE
  5
2308
  8
0
 10
79.445770544071848
 20
62.000000000000007
 30
0.0
 11
86.145770544071866
 21
62.000000000000007
 31
0.0
  0
LINE
  5
2309
  8
0
 10
87.445770544071877
 20
66.0
 30
0.0
 11
87.14577054407188
 21
66.0
 31
0.0
  0
LINE
  5
230A
  8
3
 10
89.445770544071905
 20
67.541499999999985
 30
0.0
 11
88.507865031773505
 21
67.000000000000057
 31
0.0
  0
LINE
  5
230B
  8
1
 10
46.0
 20
70.0
 30
0.0
 11
16.00000000000011
 21
70.000000000000014
 31
0.0
  0
ARC
  5
230C
  8
0
 10
36.14709216531066
 20
82.426179712276962
 30
0.0
 40
1.3
 50
206.37604944110379
 51
288.62395055889618
  0
ARC
  5
230D
  8
0
 10
18.573820287723319
 20
75.147092165310553
 30
0.0
 40
1.3
 50
296.37604944110382
 51
18.623950558896169
  0
ARC
  5
230E
  8
0
 10
21.489413793041031
 20
79.510586206959189
 30
0.0
 40
1.3
 50
273.87604944110382
 51
356.12395055889613
  0
ARC
  5
230F
  8
0
 10
25.852907834689749
 20
82.426179712276962
 30
0.0
 40
1.3
 50
251.37604944110379
 51
333.62395055889613
  0
ARC
  5
2310
  8
0
 10
31.00000000000006
 20
83.450000000000131
 30
0.0
 40
1.3
 50
228.8760494411039
 51
311.12395055889618
  0
LINE
  5
2311
  8
0
 10
87.445770544071877
 20
113.9999999999999
 30
0.0
 11
87.445770544071877
 21
109.9999999999999
 31
0.0
  0
LINE
  5
2312
  8
3
 10
89.445770544071905
 20
112.4585
 30
0.0
 11
88.507865031773505
 21
113.0
 31
0.0
  0
LINE
  5
2313
  8
0
 10
89.445770544071848
 20
106.9999999999999
 30
0.0
 11
89.445770544071905
 21
112.9999999999999
 31
0.0
  0
LINE
  5
2314
  8
2
 10
72.145770544071894
 20
102.3
 30
0.0
 11
72.145770544071937
 21
117.6999999999999
 31
0.0
  0
LINE
  5
2315
  8
2
 10
72.645770544071894
 20
102.3
 30
0.0
 11
72.645770544071965
 21
117.6999999999999
 31
0.0
  0
LINE
  5
2316
  8
0
 10
87.14577054407188
 20
117.0
 30
0.0
 11
87.14577054407188
 21
103.0
 31
0.0
  0
LINE
  5
2317
  8
0
 10
79.445770544071891
 20
121.5
 30
0.0
 11
79.445770544071891
 21
98.500000000000014
 31
0.0
  0
LINE
  5
2318
  8
0
 10
86.14577054407188
 20
118.0
 30
0.0
 11
86.14577054407188
 21
102.0
 31
0.0
  0
LINE
  5
2319
  8
0
 10
78.445770544071891
 20
122.5
 30
0.0
 11
78.445770544071891
 21
97.5
 31
0.0
  0
LINE
  5
231A
  8
0
 10
68.445770544071863
 20
98.500000000000014
 30
0.0
 11
68.445770544071891
 21
121.5
 31
0.0
  0
LINE
  5
231B
  8
0
 10
69.44577054407192
 20
113.982425354672
 30
0.0
 11
69.445770544071891
 21
110.8549972469857
 31
0.0
  0
ARC
  5
231C
  8
0
 10
43.426179712277069
 20
75.147092165310539
 30
0.0
 40
1.3
 50
161.37604944110379
 51
243.6239505588961
  0
ARC
  5
231D
  8
0
 10
40.510586206959367
 20
79.510586206959175
 30
0.0
 40
1.3
 50
183.87604944110379
 51
266.12395055889613
  0
LINE
  5
231E
  8
0
 10
79.445770544071877
 20
81.5
 30
0.0
 11
78.445770544071877
 21
82.5
 31
0.0
  0
LINE
  5
231F
  8
0
 10
69.445770544071905
 20
81.194254216075166
 30
0.0
 11
69.445770544071877
 21
79.422708499335869
 31
0.0
  0
LINE
  5
2320
  8
2
 10
68.445770544071877
 20
80.25
 30
0.0
 11
72.145770544071894
 21
77.699999999999989
 31
0.0
  0
LINE
  5
2321
  8
0
 10
69.445770544071877
 20
70.854997246985761
 30
0.0
 11
77.945770544070456
 21
70.854997246985732
 31
0.0
  0
LINE
  5
2322
  8
0
 10
69.445770544071877
 20
73.982425354672046
 30
0.0
 11
77.945770544070456
 21
73.982425354672046
 31
0.0
  0
LINE
  5
2323
  8
0
 10
69.445770544071877
 20
75.562254268359453
 30
0.0
 11
77.945770544070456
 21
75.562254268359425
 31
0.0
  0
LINE
  5
2324
  8
0
 10
69.445770544071877
 20
78.213559796856885
 30
0.0
 11
77.945770544070456
 21
78.213559796856885
 31
0.0
  0
LINE
  5
2325
  8
0
 10
69.445770544071877
 20
79.422708499335869
 30
0.0
 11
77.945770544070456
 21
79.422708499335869
 31
0.0
  0
POLYLINE
  5
2326
  8
0
 66
     1
 10
0.0
 20
0.0
 30
0.0
  0
VERTEX
  5
2327
  8
0
 10
68.945770544073696
 20
74.649603703235925
 30
0.0
 42
-0.0558453538950165
 50
180.0
  0
VERTEX
  5
2328
  8
0
 10
68.986944463096535
 20
75.017096313744943
 30
0.0
 42
-0.0696234494827605
 50
180.0
  0
VERTEX
  5
2329
  8
0
 10
69.092217153479879
 20
75.294945106688488
 30
0.0
 42
-0.1059514344510999
 70
     2
 50
61.283656761864009
  0
VERTEX
  5
232A
  8
0
 10
69.272999549717639
 20
75.504292240525274
 30
0.0
 42
-0.1632707906765774
 50
180.0
  0
VERTEX
  5
232B
  8
0
 10
69.445770544071905
 20
75.562254268359425
 30
0.0
 42
-0.1632707906765776
 50
180.0
  0
SEQEND
  5
232C
  8
0
  0
LINE
  5
232D
  8
0
 10
69.445770544071905
 20
73.982425354672046
 30
0.0
 11
69.445770544071877
 21
70.854997246985732
 31
0.0
  0
POLYLINE
  5
232E
  8
0
 66
     1
 10
0.0
 20
0.0
 30
0.0
  0
VERTEX
  5
232F
  8
0
 10
69.445770544071877
 20
73.982425354672046
 30
0.0
 42
-0.126904853429963
 50
180.0
  0
VERTEX
  5
2330
  8
0
 10
69.262334604995402
 20
74.02974525612467
 30
0.0
 42
-0.1060810122797594
 50
180.0
  0
VERTEX
  5
2331
  8
0
 10
69.092217153477606
 20
74.177837368705582
 30
0.0
 42
-0.085744797149215
 70
     2
 50
126.8487996170587
  0
VERTEX
  5
2332
  8
0
 10
68.974660206527233
 20
74.408087317007244
 30
0.0
 42
-0.0912209683726037
 50
180.0
  0
VERTEX
  5
2333
  8
0
 10
68.945770544071479
 20
74.649603703235897
 30
0.0
 42
-0.0753899821444356
 50
180.0
  0
SEQEND
  5
2334
  8
0
  0
LINE
  5
2335
  8
0
 10
69.445770544071877
 20
78.213559796856885
 30
0.0
 11
69.445770544071877
 21
75.562254268359425
 31
0.0
  0
POLYLINE
  5
2336
  8
0
 66
     1
 10
0.0
 20
0.0
 30
0.0
  0
VERTEX
  5
2337
  8
0
 10
69.445770544071905
 20
78.213559796856885
 30
0.0
 42
-0.0759738029860677
 50
180.0
  0
VERTEX
  5
2338
  8
0
 10
69.248759696075069
 20
78.243668913948625
 30
0.0
 42
-0.0861489681664724
 50
180.0
  0
VERTEX
  5
2339
  8
0
 10
69.092217153477634
 20
78.324211221455272
 30
0.0
 42
-0.1059611842089019
 70
     2
 50
142.92621057393191
  0
VERTEX
  5
233A
  8
0
 10
68.973250192043224
 20
78.461894371846284
 30
0.0
 42
-0.1471982240755334
 50
180.0
  0
VERTEX
  5
233B
  8
0
 10
68.945770544070655
 20
78.591347391416662
 30
0.0
 42
-0.1260278403512851
 50
180.0
  0
SEQEND
  5
233C
  8
0
  0
POLYLINE
  5
233D
  8
0
 66
     1
 10
0.0
 20
0.0
 30
0.0
  0
VERTEX
  5
233E
  8
0
 10
68.945770544070456
 20
78.59134739141669
 30
0.0
 42
-0.061112938037691
 50
180.0
  0
VERTEX
  5
233F
  8
0
 10
68.986626974114273
 20
78.924368852301939
 30
0.0
 42
-0.0744665224447995
 50
180.0
  0
VERTEX
  5
2340
  8
0
 10
69.092217153477606
 20
79.179208468441104
 30
0.0
 42
-0.1069586370034828
 70
     2
 50
58.976315571898532
  0
VERTEX
  5
2341
  8
0
 10
69.269643712702162
 20
79.367925207107646
 30
0.0
 42
-0.1519322921768495
 50
180.0
  0
VERTEX
  5
2342
  8
0
 10
69.445770544071905
 20
79.422708499335869
 30
0.0
 42
-0.1519322921768134
 50
180.0
  0
SEQEND
  5
2343
  8
0
  0
POLYLINE
  5
2344
  8
0
 66
     1
 10
0.0
 20
0.0
 30
0.0
  0
VERTEX
  5
2345
  8
0
 10
78.445770544068665
 20
74.649603703235925
 30
0.0
 42
0.0558453538950165
 50
180.0
  0
VERTEX
  5
2346
  8
0
 10
78.404596625045798
 20
75.017096313744943
 30
0.0
 42
0.0696234494827605
 50
180.0
  0
VERTEX
  5
2347
  8
0
 10
78.299323934662453
 20
75.294945106688488
 30
0.0
 42
0.1059514344510999
 70
     2
 50
118.71634323813591
  0
VERTEX
  5
2348
  8
0
 10
78.118541538424694
 20
75.504292240525274
 30
0.0
 42
0.1632707906765774
 50
118.71634323813591
  0
VERTEX
  5
2349
  8
0
 10
77.945770544070456
 20
75.562254268359425
 30
0.0
 42
0.1632707906765776
 50
180.0
  0
SEQEND
  5
234A
  8
0
  0
POLYLINE
  5
234B
  8
0
 66
     1
 10
0.0
 20
0.0
 30
0.0
  0
VERTEX
  5
234C
  8
0
 10
77.945770544070456
 20
73.982425354672046
 30
0.0
 42
0.126904853429963
 50
180.0
  0
VERTEX
  5
234D
  8
0
 10
78.129206483146959
 20
74.02974525612467
 30
0.0
 42
0.1060810122797594
 50
180.0
  0
VERTEX
  5
234E
  8
0
 10
78.299323934664727
 20
74.177837368705582
 30
0.0
 42
0.085744797149215
 70
     2
 50
53.151200382941283
  0
VERTEX
  5
234F
  8
0
 10
78.4168808816151
 20
74.408087317007244
 30
0.0
 42
0.0912209683726037
 50
53.151200382941283
  0
VERTEX
  5
2350
  8
0
 10
78.445770544070854
 20
74.649603703235897
 30
0.0
 42
0.0753899821444356
 50
180.0
  0
SEQEND
  5
2351
  8
0
  0
LINE
  5
2352
  8
2
 10
72.645770544071894
 20
77.699999999999989
 30
0.0
 11
72.145770544071894
 21
77.699999999999989
 31
0.0
  0
POLYLINE
  5
2353
  8
0
 66
     1
 10
0.0
 20
0.0
 30
0.0
  0
VERTEX
  5
2354
  8
0
 10
78.445770544071877
 20
78.59134739141669
 30
0.0
 42
0.061112938037691
 50
180.0
  0
VERTEX
  5
2355
  8
0
 10
78.40491411402806
 20
78.924368852301939
 30
0.0
 42
0.0744665224447995
 50
180.0
  0
VERTEX
  5
2356
  8
0
 10
78.299323934664727
 20
79.179208468441104
 30
0.0
 42
0.1069586370034828
 70
     2
 50
121.0236844281015
  0
VERTEX
  5
2357
  8
0
 10
78.12189737544017
 20
79.367925207107646
 30
0.0
 42
0.1519322921768495
 50
121.0236844281015
  0
VERTEX
  5
2358
  8
0
 10
77.945770544070456
 20
79.422708499335869
 30
0.0
 42
0.1519322921768134
 50
180.0
  0
SEQEND
  5
2359
  8
0
  0
POLYLINE
  5
235A
  8
0
 66
     1
 10
0.0
 20
0.0
 30
0.0
  0
VERTEX
  5
235B
  8
0
 10
77.945770544070456
 20
78.213559796856885
 30
0.0
 42
0.0759738029860677
 50
180.0
  0
VERTEX
  5
235C
  8
0
 10
78.142781392067263
 20
78.243668913948625
 30
0.0
 42
0.0861489681664724
 50
180.0
  0
VERTEX
  5
235D
  8
0
 10
78.299323934664727
 20
78.324211221455272
 30
0.0
 42
0.1059611842089019
 70
     2
 50
37.073789426068082
  0
VERTEX
  5
235E
  8
0
 10
78.418290896099137
 20
78.461894371846284
 30
0.0
 42
0.1471982240755334
 50
37.073789426068082
  0
VERTEX
  5
235F
  8
0
 10
78.445770544071706
 20
78.591347391416662
 30
0.0
 42
0.1260278403512851
 50
180.0
  0
SEQEND
  5
2360
  8
0
  0
LINE
  5
2361
  8
0
 10
69.445770544071877
 20
82.470724907063214
 30
0.0
 11
77.945770544066534
 21
82.470724907063214
 31
0.0
  0
LINE
  5
2362
  8
0
 10
69.445770544071877
 20
81.194254216075137
 30
0.0
 11
77.945770544070456
 21
81.194254216075166
 31
0.0
  0
LINE
  5
2363
  8
0
 10
69.445770544071877
 20
81.848640778353627
 30
0.0
 11
77.945770544070456
 21
81.848640778353627
 31
0.0
  0
POLYLINE
  5
2364
  8
0
 66
     1
 10
0.0
 20
0.0
 30
0.0
  0
VERTEX
  5
2365
  8
0
 10
68.944977610964287
 20
81.99920706689241
 30
0.0
 42
0.0932326856578775
 50
90.0
  0
VERTEX
  5
2366
  8
0
 10
69.138009302564399
 20
82.035516405831899
 30
0.0
 42
0.0961553825390117
 50
90.0
  0
VERTEX
  5
2367
  8
0
 10
69.299091689934954
 20
82.137311444828015
 30
0.0
 42
0.1005995558164784
 70
     2
 50
43.275414883748788
  0
VERTEX
  5
2368
  8
0
 10
69.408126909430379
 20
82.291676273240654
 30
0.0
 42
0.1039846014298173
 50
43.275414883748788
  0
VERTEX
  5
2369
  8
0
 10
69.445770544071877
 20
82.470724907063214
 30
0.0
 42
0.1039846014297789
 50
90.0
  0
SEQEND
  5
236A
  8
0
  0
POLYLINE
  5
236B
  8
0
 66
     1
 10
0.0
 20
0.0
 30
0.0
  0
VERTEX
  5
236C
  8
0
 10
69.445770544071905
 20
81.194254216075166
 30
0.0
 42
-0.0063945854363995
 50
180.0
  0
VERTEX
  5
236D
  8
0
 10
69.23874545429868
 20
81.196902003593095
 30
0.0
 42
-0.0090272087772587
 50
180.0
  0
VERTEX
  5
236E
  8
0
 10
69.092217153477634
 20
81.203299374900865
 30
0.0
 42
-0.021587231382142
 70
     2
 50
176.4656612865999
  0
VERTEX
  5
236F
  8
0
 10
68.949802946604478
 20
81.218286984252131
 30
0.0
 50
180.0
  0
VERTEX
  5
2370
  8
0
 10
68.945770544070683
 20
81.22513632001224
 30
0.0
 50
180.0
  0
SEQEND
  5
2371
  8
0
  0
POLYLINE
  5
2372
  8
0
 66
     1
 10
0.0
 20
0.0
 30
0.0
  0
VERTEX
  5
2373
  8
0
 10
68.945770544070456
 20
81.225136320012268
 30
0.0
 42
-0.0803470550416908
 50
180.0
  0
VERTEX
  5
2374
  8
0
 10
68.985295097153539
 20
81.469509909131943
 30
0.0
 42
-0.0890368192332178
 50
180.0
  0
VERTEX
  5
2375
  8
0
 10
69.092217153477606
 20
81.666020550605495
 30
0.0
 42
-0.1049083465716828
 70
     2
 50
51.27321543877386
  0
VERTEX
  5
2376
  8
0
 10
69.260294518941151
 20
81.803567834781305
 30
0.0
 42
-0.1197633248391211
 50
180.0
  0
VERTEX
  5
2377
  8
0
 10
69.445770544071877
 20
81.848640778353627
 30
0.0
 42
-0.119763324839129
 50
180.0
  0
SEQEND
  5
2378
  8
0
  0
LINE
  5
2379
  8
0
 10
69.445770544071863
 20
82.470724907063214
 30
0.0
 11
69.445770544071905
 21
81.848640778353627
 31
0.0
  0
LINE
  5
237A
  8
0
 10
68.445770544071877
 20
81.5
 30
0.0
 11
68.94497761096838
 21
81.999207066896517
 31
0.0
  0
POLYLINE
  5
237B
  8
0
 66
     1
 10
0.0
 20
0.0
 30
0.0
  0
VERTEX
  5
237C
  8
0
 10
77.94577054407047
 20
82.470724907063214
 30
0.0
 42
0.0060619562265407
 50
90.0
  0
VERTEX
  5
237D
  8
0
 10
78.152803903355561
 20
82.473235053627292
 30
0.0
 42
0.008559181375748
 50
90.0
  0
VERTEX
  5
237E
  8
0
 10
78.299323934664741
 20
82.479299383264689
 30
0.0
 42
0.0204875976357465
 70
     2
 50
3.3508529875824729
  0
VERTEX
  5
237F
  8
0
 10
78.441949680875283
 20
82.493530876254653
 30
0.0
 50
3.3508529875824729
  0
VERTEX
  5
2380
  8
0
 10
78.44577054407209
 20
82.5
 30
0.0
 50
90.0
  0
SEQEND
  5
2381
  8
0
  0
POLYLINE
  5
2382
  8
0
 66
     1
 10
0.0
 20
0.0
 30
0.0
  0
VERTEX
  5
2383
  8
0
 10
78.445770544071877
 20
81.225136320012268
 30
0.0
 42
0.0803470550416908
 50
180.0
  0
VERTEX
  5
2384
  8
0
 10
78.406245990988793
 20
81.469509909131943
 30
0.0
 42
0.0890368192332178
 50
180.0
  0
VERTEX
  5
2385
  8
0
 10
78.299323934664756
 20
81.666020550605495
 30
0.0
 42
0.1049083465716828
 70
     2
 50
128.7267845612262
  0
VERTEX
  5
2386
  8
0
 10
78.131246569201181
 20
81.803567834781305
 30
0.0
 42
0.1197633248391211
 50
128.7267845612262
  0
VERTEX
  5
2387
  8
0
 10
77.945770544070456
 20
81.848640778353627
 30
0.0
 42
0.119763324839129
 50
180.0
  0
SEQEND
  5
2388
  8
0
  0
POLYLINE
  5
2389
  8
0
 66
     1
 10
0.0
 20
0.0
 30
0.0
  0
VERTEX
  5
238A
  8
0
 10
77.945770544070456
 20
81.194254216075166
 30
0.0
 42
0.0063945854363995
 50
180.0
  0
VERTEX
  5
238B
  8
0
 10
78.152795633843652
 20
81.196902003593095
 30
0.0
 42
0.0090272087772587
 50
180.0
  0
VERTEX
  5
238C
  8
0
 10
78.299323934664727
 20
81.203299374900865
 30
0.0
 42
0.021587231382142
 70
     2
 50
3.5343387134001181
  0
VERTEX
  5
238D
  8
0
 10
78.441738141537854
 20
81.218286984252131
 30
0.0
 50
3.5343387134001181
  0
VERTEX
  5
238E
  8
0
 10
78.44577054407165
 20
81.22513632001224
 30
0.0
 50
180.0
  0
SEQEND
  5
238F
  8
0
  0
LINE
  5
2390
  8
0
 10
87.145770544071866
 20
77.0
 30
0.0
 11
86.145770544071866
 21
78.0
 31
0.0
  0
LINE
  5
2391
  8
0
 10
79.445770544071877
 20
78.0
 30
0.0
 11
86.145770544071866
 21
78.0
 31
0.0
  0
LINE
  5
2392
  8
0
 10
87.445770544071877
 20
74.0
 30
0.0
 11
87.445770544071877
 21
70.0
 31
0.0
  0
LINE
  5
2393
  8
0
 10
87.445770544071877
 20
74.0
 30
0.0
 11
87.14577054407188
 21
74.0
 31
0.0
  0
LINE
  5
2394
  8
3
 10
89.445770544071905
 20
72.4585000000001
 30
0.0
 11
88.507865031773505
 21
73.000000000000028
 31
0.0
  0
LINE
  5
2395
  8
0
 10
78.445770544071891
 20
97.5
 30
0.0
 11
79.445770544071891
 21
98.500000000000014
 31
0.0
  0
LINE
  5
2396
  8
2
 10
68.445770544071891
 20
99.750000000000014
 30
0.0
 11
72.145770544071894
 21
102.3
 31
0.0
  0
LINE
  5
2397
  8
0
 10
69.445770544071891
 20
101.7864402031431
 30
0.0
 11
69.445770544071891
 21
104.4377457316405
 31
0.0
  0
LINE
  5
2398
  8
0
 10
69.445770544071891
 20
97.529275092936786
 30
0.0
 11
77.945770544066548
 21
97.529275092936786
 31
0.0
  0
LINE
  5
2399
  8
0
 10
69.445770544071891
 20
101.7864402031431
 30
0.0
 11
77.94577054407047
 21
101.7864402031431
 31
0.0
  0
LINE
  5
239A
  8
0
 10
69.445770544071891
 20
100.5772915006641
 30
0.0
 11
77.94577054407047
 21
100.5772915006641
 31
0.0
  0
LINE
  5
239B
  8
0
 10
69.445770544071891
 20
98.805745783924863
 30
0.0
 11
77.94577054407047
 21
98.805745783924834
 31
0.0
  0
LINE
  5
239C
  8
0
 10
69.445770544071891
 20
98.151359221646373
 30
0.0
 11
77.94577054407047
 21
98.151359221646373
 31
0.0
  0
LINE
  5
239D
  8
0
 10
69.44577054407192
 20
98.805745783924834
 30
0.0
 11
69.445770544071891
 21
100.5772915006641
 31
0.0
  0
POLYLINE
  5
239E
  8
0
 66
     1
 10
0.0
 20
0.0
 30
0.0
  0
VERTEX
  5
239F
  8
0
 10
68.944977610964301
 20
98.000792933107576
 30
0.0
 42
-0.0932326856578775
 50
90.0
  0
VERTEX
  5
23A0
  8
0
 10
69.138009302564413
 20
97.964483594168087
 30
0.0
 42
-0.0961553825390117
 50
90.0
  0
VERTEX
  5
23A1
  8
0
 10
69.299091689934983
 20
97.862688555171985
 30
0.0
 42
-0.1005995558164784
 70
     2
 50
316.72458511625121
  0
VERTEX
  5
23A2
  8
0
 10
69.408126909430393
 20
97.708323726759346
 30
0.0
 42
-0.1039846014298173
 50
90.0
  0
VERTEX
  5
23A3
  8
0
 10
69.445770544071891
 20
97.529275092936786
 30
0.0
 42
-0.1039846014297789
 50
90.0
  0
SEQEND
  5
23A4
  8
0
  0
POLYLINE
  5
23A5
  8
0
 66
     1
 10
0.0
 20
0.0
 30
0.0
  0
VERTEX
  5
23A6
  8
0
 10
69.44577054407192
 20
98.805745783924834
 30
0.0
 42
0.0063945854363995
 50
90.0
  0
VERTEX
  5
23A7
  8
0
 10
69.238745454298694
 20
98.803097996406905
 30
0.0
 42
0.0090272087772587
 50
90.0
  0
VERTEX
  5
23A8
  8
0
 10
69.092217153477648
 20
98.796700625099135
 30
0.0
 42
0.021587231382142
 70
     2
 50
183.5343387134001
  0
VERTEX
  5
23A9
  8
0
 10
68.949802946604493
 20
98.781713015747883
 30
0.0
 50
90.0
  0
VERTEX
  5
23AA
  8
0
 10
68.945770544070683
 20
98.774863679987774
 30
0.0
 50
90.0
  0
SEQEND
  5
23AB
  8
0
  0
POLYLINE
  5
23AC
  8
0
 66
     1
 10
0.0
 20
0.0
 30
0.0
  0
VERTEX
  5
23AD
  8
0
 10
68.94577054407047
 20
98.774863679987732
 30
0.0
 42
0.0803470550416908
 50
90.0
  0
VERTEX
  5
23AE
  8
0
 10
68.985295097153553
 20
98.530490090868057
 30
0.0
 42
0.0890368192332178
 50
90.0
  0
VERTEX
  5
23AF
  8
0
 10
69.092217153477606
 20
98.333979449394519
 30
0.0
 42
0.1049083465716828
 70
     2
 50
308.72678456122611
  0
VERTEX
  5
23B0
  8
0
 10
69.260294518941166
 20
98.196432165218681
 30
0.0
 42
0.1197633248391211
 50
90.0
  0
VERTEX
  5
23B1
  8
0
 10
69.445770544071891
 20
98.151359221646373
 30
0.0
 42
0.119763324839129
 50
90.0
  0
SEQEND
  5
23B2
  8
0
  0
LINE
  5
23B3
  8
0
 10
69.445770544071877
 20
97.529275092936786
 30
0.0
 11
69.44577054407192
 21
98.151359221646373
 31
0.0
  0
LINE
  5
23B4
  8
0
 10
68.445770544071891
 20
98.500000000000014
 30
0.0
 11
68.944977610968394
 21
98.000792933103497
 31
0.0
  0
POLYLINE
  5
23B5
  8
0
 66
     1
 10
0.0
 20
0.0
 30
0.0
  0
VERTEX
  5
23B6
  8
0
 10
69.44577054407192
 20
101.7864402031431
 30
0.0
 42
0.0759738029860677
 50
90.0
  0
VERTEX
  5
23B7
  8
0
 10
69.248759696075084
 20
101.7563310860513
 30
0.0
 42
0.0861489681664724
 50
90.0
  0
VERTEX
  5
23B8
  8
0
 10
69.092217153477648
 20
101.6757887785447
 30
0.0
 42
0.1059611842089019
 70
     2
 50
217.07378942606809
  0
VERTEX
  5
23B9
  8
0
 10
68.973250192043224
 20
101.5381056281537
 30
0.0
 42
0.1471982240755334
 50
90.0
  0
VERTEX
  5
23BA
  8
0
 10
68.945770544070669
 20
101.4086526085833
 30
0.0
 42
0.1260278403512851
 50
90.0
  0
SEQEND
  5
23BB
  8
0
  0
POLYLINE
  5
23BC
  8
0
 66
     1
 10
0.0
 20
0.0
 30
0.0
  0
VERTEX
  5
23BD
  8
0
 10
68.94577054407047
 20
101.4086526085833
 30
0.0
 42
0.061112938037691
 50
90.0
  0
VERTEX
  5
23BE
  8
0
 10
68.986626974114273
 20
101.075631147698
 30
0.0
 42
0.0744665224447995
 50
90.0
  0
VERTEX
  5
23BF
  8
0
 10
69.092217153477606
 20
100.8207915315588
 30
0.0
 42
0.1069586370034828
 70
     2
 50
301.02368442810138
  0
VERTEX
  5
23C0
  8
0
 10
69.269643712702177
 20
100.6320747928923
 30
0.0
 42
0.1519322921768495
 50
90.0
  0
VERTEX
  5
23C1
  8
0
 10
69.44577054407192
 20
100.5772915006641
 30
0.0
 42
0.1519322921768134
 50
90.0
  0
SEQEND
  5
23C2
  8
0
  0
POLYLINE
  5
23C3
  8
0
 66
     1
 10
0.0
 20
0.0
 30
0.0
  0
VERTEX
  5
23C4
  8
0
 10
77.945770544070484
 20
97.529275092936786
 30
0.0
 42
-0.0060619562265407
 50
90.0
  0
VERTEX
  5
23C5
  8
0
 10
78.152803903355576
 20
97.526764946372694
 30
0.0
 42
-0.008559181375748
 50
90.0
  0
VERTEX
  5
23C6
  8
0
 10
78.299323934664756
 20
97.520700616735297
 30
0.0
 42
-0.0204875976357465
 70
     2
 50
356.64914701241759
  0
VERTEX
  5
23C7
  8
0
 10
78.441949680875297
 20
97.506469123745333
 30
0.0
 50
90.0
  0
VERTEX
  5
23C8
  8
0
 10
78.445770544072104
 20
97.5
 30
0.0
 50
90.0
  0
SEQEND
  5
23C9
  8
0
  0
POLYLINE
  5
23CA
  8
0
 66
     1
 10
0.0
 20
0.0
 30
0.0
  0
VERTEX
  5
23CB
  8
0
 10
78.445770544071891
 20
98.774863679987732
 30
0.0
 42
-0.0803470550416908
 50
90.0
  0
VERTEX
  5
23CC
  8
0
 10
78.406245990988793
 20
98.530490090868057
 30
0.0
 42
-0.0890368192332178
 50
90.0
  0
VERTEX
  5
23CD
  8
0
 10
78.29932393466477
 20
98.333979449394519
 30
0.0
 42
-0.1049083465716828
 70
     2
 50
231.2732154387738
  0
VERTEX
  5
23CE
  8
0
 10
78.131246569201195
 20
98.196432165218681
 30
0.0
 42
-0.1197633248391211
 50
90.0
  0
VERTEX
  5
23CF
  8
0
 10
77.94577054407047
 20
98.151359221646373
 30
0.0
 42
-0.119763324839129
 50
90.0
  0
SEQEND
  5
23D0
  8
0
  0
POLYLINE
  5
23D1
  8
0
 66
     1
 10
0.0
 20
0.0
 30
0.0
  0
VERTEX
  5
23D2
  8
0
 10
77.94577054407047
 20
98.805745783924834
 30
0.0
 42
-0.0063945854363995
 50
90.0
  0
VERTEX
  5
23D3
  8
0
 10
78.152795633843667
 20
98.803097996406905
 30
0.0
 42
-0.0090272087772587
 50
90.0
  0
VERTEX
  5
23D4
  8
0
 10
78.299323934664741
 20
98.796700625099135
 30
0.0
 42
-0.021587231382142
 70
     2
 50
356.46566128659993
  0
VERTEX
  5
23D5
  8
0
 10
78.441738141537869
 20
98.781713015747883
 30
0.0
 50
90.0
  0
VERTEX
  5
23D6
  8
0
 10
78.445770544071664
 20
98.774863679987774
 30
0.0
 50
90.0
  0
SEQEND
  5
23D7
  8
0
  0
POLYLINE
  5
23D8
  8
0
 66
     1
 10
0.0
 20
0.0
 30
0.0
  0
VERTEX
  5
23D9
  8
0
 10
78.445770544071891
 20
101.4086526085833
 30
0.0
 42
-0.061112938037691
 50
90.0
  0
VERTEX
  5
23DA
  8
0
 10
78.404914114028074
 20
101.075631147698
 30
0.0
 42
-0.0744665224447995
 50
90.0
  0
VERTEX
  5
23DB
  8
0
 10
78.299323934664741
 20
100.8207915315588
 30
0.0
 42
-0.1069586370034828
 70
     2
 50
238.9763155718984
  0
VERTEX
  5
23DC
  8
0
 10
78.121897375440184
 20
100.6320747928923
 30
0.0
 42
-0.1519322921768495
 50
90.0
  0
VERTEX
  5
23DD
  8
0
 10
77.94577054407047
 20
100.5772915006641
 30
0.0
 42
-0.1519322921768134
 50
90.0
  0
SEQEND
  5
23DE
  8
0
  0
POLYLINE
  5
23DF
  8
0
 66
     1
 10
0.0
 20
0.0
 30
0.0
  0
VERTEX
  5
23E0
  8
0
 10
77.94577054407047
 20
101.7864402031431
 30
0.0
 42
-0.0759738029860677
 50
90.0
  0
VERTEX
  5
23E1
  8
0
 10
78.142781392067263
 20
101.7563310860513
 30
0.0
 42
-0.0861489681664724
 50
90.0
  0
VERTEX
  5
23E2
  8
0
 10
78.299323934664741
 20
101.6757887785447
 30
0.0
 42
-0.1059611842089019
 70
     2
 50
322.92621057393188
  0
VERTEX
  5
23E3
  8
0
 10
78.418290896099151
 20
101.5381056281537
 30
0.0
 42
-0.1471982240755334
 50
90.0
  0
VERTEX
  5
23E4
  8
0
 10
78.445770544071721
 20
101.4086526085833
 30
0.0
 42
-0.1260278403512851
 50
90.0
  0
SEQEND
  5
23E5
  8
0
  0
LINE
  5
23E6
  8
0
 10
69.445770544071891
 20
110.8549972469857
 30
0.0
 11
77.94577054407047
 21
110.8549972469857
 31
0.0
  0
LINE
  5
23E7
  8
0
 10
69.445770544071891
 20
109.1450027530142
 30
0.0
 11
77.94577054407047
 21
109.1450027530142
 31
0.0
  0
LINE
  5
23E8
  8
0
 10
69.445770544071891
 20
106.0175746453279
 30
0.0
 11
77.94577054407047
 21
106.0175746453279
 31
0.0
  0
LINE
  5
23E9
  8
0
 10
69.445770544071891
 20
104.4377457316405
 30
0.0
 11
77.94577054407047
 21
104.4377457316405
 31
0.0
  0
LINE
  5
23EA
  8
0
 10
69.44577054407192
 20
106.0175746453279
 30
0.0
 11
69.445770544071891
 21
109.1450027530142
 31
0.0
  0
POLYLINE
  5
23EB
  8
0
 66
     1
 10
0.0
 20
0.0
 30
0.0
  0
VERTEX
  5
23EC
  8
0
 10
68.94577054407371
 20
105.350396296764
 30
0.0
 42
0.0558453538950165
 50
90.0
  0
VERTEX
  5
23ED
  8
0
 10
68.986944463096535
 20
104.982903686255
 30
0.0
 42
0.0696234494827605
 50
90.0
  0
VERTEX
  5
23EE
  8
0
 10
69.092217153479893
 20
104.7050548933115
 30
0.0
 42
0.1059514344510999
 70
     2
 50
298.71634323813601
  0
VERTEX
  5
23EF
  8
0
 10
69.272999549717653
 20
104.4957077594747
 30
0.0
 42
0.1632707906765774
 50
90.0
  0
VERTEX
  5
23F0
  8
0
 10
69.44577054407192
 20
104.4377457316405
 30
0.0
 42
0.1632707906765776
 50
90.0
  0
SEQEND
  5
23F1
  8
0
  0
POLYLINE
  5
23F2
  8
0
 66
     1
 10
0.0
 20
0.0
 30
0.0
  0
VERTEX
  5
23F3
  8
0
 10
69.445770544071891
 20
106.0175746453279
 30
0.0
 42
0.126904853429963
 50
90.0
  0
VERTEX
  5
23F4
  8
0
 10
69.262334604995416
 20
105.9702547438753
 30
0.0
 42
0.1060810122797594
 50
90.0
  0
VERTEX
  5
23F5
  8
0
 10
69.092217153477606
 20
105.8221626312944
 30
0.0
 42
0.085744797149215
 70
     2
 50
233.15120038294131
  0
VERTEX
  5
23F6
  8
0
 10
68.974660206527247
 20
105.5919126829927
 30
0.0
 42
0.0912209683726037
 50
90.0
  0
VERTEX
  5
23F7
  8
0
 10
68.945770544071493
 20
105.3503962967641
 30
0.0
 42
0.0753899821444356
 50
90.0
  0
SEQEND
  5
23F8
  8
0
  0
ARC
  5
23F9
  8
0
 10
69.926790836422455
 20
109.9999999999998
 30
0.0
 40
0.9810202923517865
 50
119.3620468109286
 51
240.63795318908811
  0
LINE
  5
23FA
  8
2
 10
72.645770544071894
 20
102.3
 30
0.0
 11
72.145770544071894
 21
102.3
 31
0.0
  0
POLYLINE
  5
23FB
  8
0
 66
     1
 10
0.0
 20
0.0
 30
0.0
  0
VERTEX
  5
23FC
  8
0
 10
78.445770544068679
 20
105.350396296764
 30
0.0
 42
-0.0558453538950165
 50
90.0
  0
VERTEX
  5
23FD
  8
0
 10
78.404596625045812
 20
104.982903686255
 30
0.0
 42
-0.0696234494827605
 50
90.0
  0
VERTEX
  5
23FE
  8
0
 10
78.299323934662468
 20
104.7050548933115
 30
0.0
 42
-0.1059514344510999
 70
     2
 50
241.28365676186399
  0
VERTEX
  5
23FF
  8
0
 10
78.118541538424708
 20
104.4957077594747
 30
0.0
 42
-0.1632707906765774
 50
90.0
  0
VERTEX
  5
2400
  8
0
 10
77.94577054407047
 20
104.4377457316405
 30
0.0
 42
-0.1632707906765776
 50
90.0
  0
SEQEND
  5
2401
  8
0
  0
POLYLINE
  5
2402
  8
0
 66
     1
 10
0.0
 20
0.0
 30
0.0
  0
VERTEX
  5
2403
  8
0
 10
77.94577054407047
 20
106.0175746453279
 30
0.0
 42
-0.126904853429963
 50
90.0
  0
VERTEX
  5
2404
  8
0
 10
78.129206483146973
 20
105.9702547438753
 30
0.0
 42
-0.1060810122797594
 50
90.0
  0
VERTEX
  5
2405
  8
0
 10
78.299323934664741
 20
105.8221626312944
 30
0.0
 42
-0.085744797149215
 70
     2
 50
306.84879961705872
  0
VERTEX
  5
2406
  8
0
 10
78.416880881615114
 20
105.5919126829927
 30
0.0
 42
-0.0912209683726037
 50
90.0
  0
VERTEX
  5
2407
  8
0
 10
78.445770544070854
 20
105.3503962967641
 30
0.0
 42
-0.0753899821444356
 50
90.0
  0
SEQEND
  5
2408
  8
0
  0
ARC
  5
2409
  8
0
 10
77.464750251719906
 20
109.9999999999998
 30
0.0
 40
0.9810202923517865
 50
299.36204681106381
 51
60.637953189071311
  0
LINE
  5
240A
  8
0
 10
86.14577054407188
 20
102.0
 30
0.0
 11
87.14577054407188
 21
103.0
 31
0.0
  0
LINE
  5
240B
  8
0
 10
79.445770544071863
 20
102.0
 30
0.0
 11
86.14577054407188
 21
102.0
 31
0.0
  0
LINE
  5
240C
  8
0
 10
87.445770544071877
 20
105.9999999999999
 30
0.0
 11
87.445770544071877
 21
109.9999999999999
 31
0.0
  0
LINE
  5
240D
  8
3
 10
89.445770544071905
 20
107.5414999999999
 30
0.0
 11
88.507865031773505
 21
107.0
 31
0.0
  0
LINE
  5
240E
  8
0
 10
87.445770544071877
 20
105.9999999999999
 30
0.0
 11
87.14577054407188
 21
105.9999999999999
 31
0.0
  0
LINE
  5
240F
  8
0
 10
79.445770544071891
 20
121.5
 30
0.0
 11
78.445770544071891
 21
122.5
 31
0.0
  0
LINE
  5
2410
  8
0
 10
69.445770544071891
 20
121.8486407783536
 30
0.0
 11
77.94577054407047
 21
121.8486407783536
 31
0.0
  0
LINE
  5
2411
  8
0
 10
69.445770544071891
 20
121.19425421607509
 30
0.0
 11
77.94577054407047
 21
121.19425421607509
 31
0.0
  0
LINE
  5
2412
  8
0
 10
69.445770544071891
 20
119.4227084993358
 30
0.0
 11
77.94577054407047
 21
119.4227084993358
 31
0.0
  0
LINE
  5
2413
  8
0
 10
69.445770544071891
 20
118.2135597968568
 30
0.0
 11
77.94577054407047
 21
118.2135597968568
 31
0.0
  0
LINE
  5
2414
  8
0
 10
69.445770544071891
 20
115.5622542683594
 30
0.0
 11
77.94577054407047
 21
115.5622542683594
 31
0.0
  0
LINE
  5
2415
  8
0
 10
69.445770544071891
 20
113.982425354672
 30
0.0
 11
77.94577054407047
 21
113.982425354672
 31
0.0
  0
LINE
  5
2416
  8
0
 10
69.445770544071891
 20
122.4707249070632
 30
0.0
 11
77.945770544066548
 21
122.4707249070632
 31
0.0
  0
LINE
  5
2417
  8
2
 10
68.445770544071891
 20
120.25
 30
0.0
 11
72.145770544071894
 21
117.6999999999999
 31
0.0
  0
POLYLINE
  5
2418
  8
0
 66
     1
 10
0.0
 20
0.0
 30
0.0
  0
VERTEX
  5
2419
  8
0
 10
69.44577054407192
 20
118.2135597968568
 30
0.0
 42
-0.0759738029860677
 50
180.0
  0
VERTEX
  5
241A
  8
0
 10
69.248759696075084
 20
118.2436689139486
 30
0.0
 42
-0.0861489681664724
 50
180.0
  0
VERTEX
  5
241B
  8
0
 10
69.092217153477648
 20
118.3242112214552
 30
0.0
 42
-0.1059611842089019
 70
     2
 50
142.92621057393191
  0
VERTEX
  5
241C
  8
0
 10
68.973250192043224
 20
118.4618943718462
 30
0.0
 42
-0.1471982240755334
 50
180.0
  0
VERTEX
  5
241D
  8
0
 10
68.945770544070669
 20
118.5913473914166
 30
0.0
 42
-0.1260278403512851
 50
180.0
  0
SEQEND
  5
241E
  8
0
  0
LINE
  5
241F
  8
0
 10
69.445770544071891
 20
118.2135597968568
 30
0.0
 11
69.445770544071891
 21
115.5622542683594
 31
0.0
  0
POLYLINE
  5
2420
  8
0
 66
     1
 10
0.0
 20
0.0
 30
0.0
  0
VERTEX
  5
2421
  8
0
 10
68.94577054407371
 20
114.6496037032359
 30
0.0
 42
-0.0558453538950165
 50
180.0
  0
VERTEX
  5
2422
  8
0
 10
68.986944463096535
 20
115.0170963137449
 30
0.0
 42
-0.0696234494827605
 50
180.0
  0
VERTEX
  5
2423
  8
0
 10
69.092217153479893
 20
115.2949451066884
 30
0.0
 42
-0.1059514344510999
 70
     2
 50
61.283656761864009
  0
VERTEX
  5
2424
  8
0
 10
69.272999549717653
 20
115.5042922405252
 30
0.0
 42
-0.1632707906765774
 50
180.0
  0
VERTEX
  5
2425
  8
0
 10
69.44577054407192
 20
115.5622542683594
 30
0.0
 42
-0.1632707906765776
 50
180.0
  0
SEQEND
  5
2426
  8
0
  0
POLYLINE
  5
2427
  8
0
 66
     1
 10
0.0
 20
0.0
 30
0.0
  0
VERTEX
  5
2428
  8
0
 10
69.445770544071891
 20
113.982425354672
 30
0.0
 42
-0.126904853429963
 50
180.0
  0
VERTEX
  5
2429
  8
0
 10
69.262334604995416
 20
114.0297452561246
 30
0.0
 42
-0.1060810122797594
 50
180.0
  0
VERTEX
  5
242A
  8
0
 10
69.092217153477606
 20
114.1778373687055
 30
0.0
 42
-0.085744797149215
 70
     2
 50
126.8487996170587
  0
VERTEX
  5
242B
  8
0
 10
68.974660206527247
 20
114.4080873170072
 30
0.0
 42
-0.0912209683726037
 50
180.0
  0
VERTEX
  5
242C
  8
0
 10
68.945770544071493
 20
114.6496037032358
 30
0.0
 42
-0.0753899821444356
 50
180.0
  0
SEQEND
  5
242D
  8
0
  0
LINE
  5
242E
  8
0
 10
69.44577054407192
 20
121.19425421607509
 30
0.0
 11
69.445770544071891
 21
119.4227084993358
 31
0.0
  0
POLYLINE
  5
242F
  8
0
 66
     1
 10
0.0
 20
0.0
 30
0.0
  0
VERTEX
  5
2430
  8
0
 10
68.94577054407047
 20
118.5913473914167
 30
0.0
 42
-0.061112938037691
 50
180.0
  0
VERTEX
  5
2431
  8
0
 10
68.986626974114273
 20
118.9243688523019
 30
0.0
 42
-0.0744665224447995
 50
180.0
  0
VERTEX
  5
2432
  8
0
 10
69.092217153477606
 20
119.1792084684411
 30
0.0
 42
-0.1069586370034828
 70
     2
 50
58.976315571898532
  0
VERTEX
  5
2433
  8
0
 10
69.269643712702177
 20
119.3679252071076
 30
0.0
 42
-0.1519322921768495
 50
180.0
  0
VERTEX
  5
2434
  8
0
 10
69.44577054407192
 20
119.4227084993358
 30
0.0
 42
-0.1519322921768134
 50
180.0
  0
SEQEND
  5
2435
  8
0
  0
LINE
  5
2436
  8
0
 10
68.445770544071891
 20
121.5
 30
0.0
 11
68.944977610968394
 21
121.9992070668965
 31
0.0
  0
LINE
  5
2437
  8
0
 10
69.445770544071877
 20
122.4707249070632
 30
0.0
 11
69.44577054407192
 21
121.8486407783536
 31
0.0
  0
POLYLINE
  5
2438
  8
0
 66
     1
 10
0.0
 20
0.0
 30
0.0
  0
VERTEX
  5
2439
  8
0
 10
68.94577054407047
 20
121.2251363200122
 30
0.0
 42
-0.0803470550416908
 50
180.0
  0
VERTEX
  5
243A
  8
0
 10
68.985295097153553
 20
121.4695099091319
 30
0.0
 42
-0.0890368192332178
 50
180.0
  0
VERTEX
  5
243B
  8
0
 10
69.092217153477606
 20
121.6660205506054
 30
0.0
 42
-0.1049083465716828
 70
     2
 50
51.27321543877386
  0
VERTEX
  5
243C
  8
0
 10
69.260294518941166
 20
121.8035678347813
 30
0.0
 42
-0.1197633248391211
 50
180.0
  0
VERTEX
  5
243D
  8
0
 10
69.445770544071891
 20
121.8486407783536
 30
0.0
 42
-0.119763324839129
 50
180.0
  0
SEQEND
  5
243E
  8
0
  0
POLYLINE
  5
243F
  8
0
 66
     1
 10
0.0
 20
0.0
 30
0.0
  0
VERTEX
  5
2440
  8
0
 10
69.44577054407192
 20
121.19425421607509
 30
0.0
 42
-0.0063945854363995
 50
180.0
  0
VERTEX
  5
2441
  8
0
 10
69.238745454298694
 20
121.196902003593
 30
0.0
 42
-0.0090272087772587
 50
180.0
  0
VERTEX
  5
2442
  8
0
 10
69.092217153477648
 20
121.20329937490079
 30
0.0
 42
-0.021587231382142
 70
     2
 50
176.4656612865999
  0
VERTEX
  5
2443
  8
0
 10
68.949802946604493
 20
121.2182869842521
 30
0.0
 50
180.0
  0
VERTEX
  5
2444
  8
0
 10
68.945770544070683
 20
121.2251363200122
 30
0.0
 50
180.0
  0
SEQEND
  5
2445
  8
0
  0
POLYLINE
  5
2446
  8
0
 66
     1
 10
0.0
 20
0.0
 30
0.0
  0
VERTEX
  5
2447
  8
0
 10
68.944977610964301
 20
121.9992070668924
 30
0.0
 42
0.0932326856578775
 50
90.0
  0
VERTEX
  5
2448
  8
0
 10
69.138009302564413
 20
122.0355164058319
 30
0.0
 42
0.0961553825390117
 50
90.0
  0
VERTEX
  5
2449
  8
0
 10
69.299091689934983
 20
122.137311444828
 30
0.0
 42
0.1005995558164784
 70
     2
 50
43.275414883748788
  0
VERTEX
  5
244A
  8
0
 10
69.408126909430393
 20
122.2916762732406
 30
0.0
 42
0.1039846014298173
 50
43.275414883748788
  0
VERTEX
  5
244B
  8
0
 10
69.445770544071891
 20
122.4707249070632
 30
0.0
 42
0.1039846014297789
 50
90.0
  0
SEQEND
  5
244C
  8
0
  0
POLYLINE
  5
244D
  8
0
 66
     1
 10
0.0
 20
0.0
 30
0.0
  0
VERTEX
  5
244E
  8
0
 10
77.94577054407047
 20
118.2135597968568
 30
0.0
 42
0.0759738029860677
 50
180.0
  0
VERTEX
  5
244F
  8
0
 10
78.142781392067263
 20
118.2436689139486
 30
0.0
 42
0.0861489681664724
 50
180.0
  0
VERTEX
  5
2450
  8
0
 10
78.299323934664741
 20
118.3242112214552
 30
0.0
 42
0.1059611842089019
 70
     2
 50
37.073789426068082
  0
VERTEX
  5
2451
  8
0
 10
78.418290896099151
 20
118.4618943718462
 30
0.0
 42
0.1471982240755334
 50
37.073789426068082
  0
VERTEX
  5
2452
  8
0
 10
78.445770544071721
 20
118.5913473914166
 30
0.0
 42
0.1260278403512851
 50
180.0
  0
SEQEND
  5
2453
  8
0
  0
LINE
  5
2454
  8
2
 10
72.645770544071894
 20
117.6999999999999
 30
0.0
 11
72.145770544071894
 21
117.6999999999999
 31
0.0
  0
POLYLINE
  5
2455
  8
0
 66
     1
 10
0.0
 20
0.0
 30
0.0
  0
VERTEX
  5
2456
  8
0
 10
77.94577054407047
 20
113.982425354672
 30
0.0
 42
0.126904853429963
 50
180.0
  0
VERTEX
  5
2457
  8
0
 10
78.129206483146973
 20
114.0297452561246
 30
0.0
 42
0.1060810122797594
 50
180.0
  0
VERTEX
  5
2458
  8
0
 10
78.299323934664741
 20
114.1778373687055
 30
0.0
 42
0.085744797149215
 70
     2
 50
53.151200382941283
  0
VERTEX
  5
2459
  8
0
 10
78.416880881615114
 20
114.4080873170072
 30
0.0
 42
0.0912209683726037
 50
53.151200382941283
  0
VERTEX
  5
245A
  8
0
 10
78.445770544070854
 20
114.6496037032358
 30
0.0
 42
0.0753899821444356
 50
180.0
  0
SEQEND
  5
245B
  8
0
  0
POLYLINE
  5
245C
  8
0
 66
     1
 10
0.0
 20
0.0
 30
0.0
  0
VERTEX
  5
245D
  8
0
 10
78.445770544068679
 20
114.6496037032359
 30
0.0
 42
0.0558453538950165
 50
180.0
  0
VERTEX
  5
245E
  8
0
 10
78.404596625045812
 20
115.0170963137449
 30
0.0
 42
0.0696234494827605
 50
180.0
  0
VERTEX
  5
245F
  8
0
 10
78.299323934662468
 20
115.2949451066884
 30
0.0
 42
0.1059514344510999
 70
     2
 50
118.71634323813591
  0
VERTEX
  5
2460
  8
0
 10
78.118541538424708
 20
115.5042922405252
 30
0.0
 42
0.1632707906765774
 50
118.71634323813591
  0
VERTEX
  5
2461
  8
0
 10
77.94577054407047
 20
115.5622542683594
 30
0.0
 42
0.1632707906765776
 50
180.0
  0
SEQEND
  5
2462
  8
0
  0
POLYLINE
  5
2463
  8
0
 66
     1
 10
0.0
 20
0.0
 30
0.0
  0
VERTEX
  5
2464
  8
0
 10
78.445770544071891
 20
118.5913473914167
 30
0.0
 42
0.061112938037691
 50
180.0
  0
VERTEX
  5
2465
  8
0
 10
78.404914114028074
 20
118.9243688523019
 30
0.0
 42
0.0744665224447995
 50
180.0
  0
VERTEX
  5
2466
  8
0
 10
78.299323934664741
 20
119.1792084684411
 30
0.0
 42
0.1069586370034828
 70
     2
 50
121.0236844281015
  0
VERTEX
  5
2467
  8
0
 10
78.121897375440184
 20
119.3679252071076
 30
0.0
 42
0.1519322921768495
 50
121.0236844281015
  0
VERTEX
  5
2468
  8
0
 10
77.94577054407047
 20
119.4227084993358
 30
0.0
 42
0.1519322921768134
 50
180.0
  0
SEQEND
  5
2469
  8
0
  0
POLYLINE
  5
246A
  8
0
 66
     1
 10
0.0
 20
0.0
 30
0.0
  0
VERTEX
  5
246B
  8
0
 10
77.94577054407047
 20
121.19425421607509
 30
0.0
 42
0.0063945854363995
 50
180.0
  0
VERTEX
  5
246C
  8
0
 10
78.152795633843667
 20
121.196902003593
 30
0.0
 42
0.0090272087772587
 50
180.0
  0
VERTEX
  5
246D
  8
0
 10
78.299323934664741
 20
121.20329937490079
 30
0.0
 42
0.021587231382142
 70
     2
 50
3.5343387134001181
  0
VERTEX
  5
246E
  8
0
 10
78.441738141537869
 20
121.2182869842521
 30
0.0
 50
3.5343387134001181
  0
VERTEX
  5
246F
  8
0
 10
78.445770544071664
 20
121.2251363200122
 30
0.0
 50
180.0
  0
SEQEND
  5
2470
  8
0
  0
POLYLINE
  5
2471
  8
0
 66
     1
 10
0.0
 20
0.0
 30
0.0
  0
VERTEX
  5
2472
  8
0
 10
78.445770544071891
 20
121.2251363200122
 30
0.0
 42
0.0803470550416908
 50
180.0
  0
VERTEX
  5
2473
  8
0
 10
78.406245990988793
 20
121.4695099091319
 30
0.0
 42
0.0890368192332178
 50
180.0
  0
VERTEX
  5
2474
  8
0
 10
78.29932393466477
 20
121.6660205506054
 30
0.0
 42
0.1049083465716828
 70
     2
 50
128.7267845612262
  0
VERTEX
  5
2475
  8
0
 10
78.131246569201195
 20
121.8035678347813
 30
0.0
 42
0.1197633248391211
 50
128.7267845612262
  0
VERTEX
  5
2476
  8
0
 10
77.94577054407047
 20
121.8486407783536
 30
0.0
 42
0.119763324839129
 50
180.0
  0
SEQEND
  5
2477
  8
0
  0
POLYLINE
  5
2478
  8
0
 66
     1
 10
0.0
 20
0.0
 30
0.0
  0
VERTEX
  5
2479
  8
0
 10
77.945770544070484
 20
122.4707249070632
 30
0.0
 42
0.0060619562265407
 50
90.0
  0
VERTEX
  5
247A
  8
0
 10
78.152803903355576
 20
122.47323505362731
 30
0.0
 42
0.008559181375748
 50
90.0
  0
VERTEX
  5
247B
  8
0
 10
78.299323934664756
 20
122.4792993832646
 30
0.0
 42
0.0204875976357465
 70
     2
 50
3.3508529875824729
  0
VERTEX
  5
247C
  8
0
 10
78.441949680875297
 20
122.4935308762546
 30
0.0
 50
3.3508529875824729
  0
VERTEX
  5
247D
  8
0
 10
78.445770544072104
 20
122.5
 30
0.0
 50
90.0
  0
SEQEND
  5
247E
  8
0
  0
LINE
  5
247F
  8
0
 10
87.14577054407188
 20
117.0
 30
0.0
 11
86.14577054407188
 21
118.0
 31
0.0
  0
LINE
  5
2480
  8
0
 10
79.445770544071891
 20
118.0
 30
0.0
 11
86.14577054407188
 21
118.0
 31
0.0
  0
LINE
  5
2481
  8
0
 10
87.445770544071877
 20
113.9999999999999
 30
0.0
 11
87.14577054407188
 21
113.9999999999999
 31
0.0
  0
CIRCLE
  5
2483
  8
0
 10
155.0
 20
70.0
 30
0.0
 40
4.0
  0
CIRCLE
  5
2484
  8
0
 10
155.0
 20
70.0
 30
0.0
 40
3.0
  0
CIRCLE
  5
2485
  8
3
 10
155.0
 20
70.0
 30
0.0
 40
2.5
  0
LINE
  5
2486
  8
0
 10
117.44577054407191
 20
72.0
 30
0.0
 11
117.44577054407181
 21
68.0
 31
0.0
  0
LINE
  5
2487
  8
0
 10
116.44577054407181
 20
67.0
 30
0.0
 11
116.44577054407191
 21
73.0
 31
0.0
  0
CIRCLE
  5
2488
  8
0
 10
155.0
 20
70.0
 30
0.0
 40
7.0000000000000142
  0
CIRCLE
  5
2489
  8
0
 10
155.0
 20
70.0
 30
0.0
 40
8.0
  0
CIRCLE
  5
248A
  8
0
 10
155.0
 20
70.0
 30
0.0
 40
11.5
  0
LINE
  5
248B
  8
1
 10
155.0
 20
55.0
 30
0.0
 11
155.0
 21
85.0
 31
0.0
  0
CIRCLE
  5
248C
  8
0
 10
155.0
 20
70.0
 30
0.0
 40
12.5
  0
LINE
  5
2497
  8
0
 10
117.44577054407191
 20
31.999999999999979
 30
0.0
 11
117.44577054407191
 21
27.999999999999979
 31
0.0
  0
LINE
  5
2498
  8
0
 10
116.44577054407191
 20
26.999999999999979
 30
0.0
 11
116.44577054407191
 21
32.999999999999979
 31
0.0
  0
LINE
  5
2499
  8
0
 10
117.44577054407191
 20
27.999999999999979
 30
0.0
 11
116.44577054407191
 21
26.999999999999979
 31
0.0
  0
LINE
  5
249A
  8
0
 10
116.44577054407191
 20
32.999999999999979
 30
0.0
 11
117.44577054407191
 21
31.999999999999979
 31
0.0
  0
LINE
  5
249B
  8
0
 10
117.44577054407181
 20
68.0
 30
0.0
 11
116.44577054407181
 21
67.0
 31
0.0
  0
LINE
  5
249D
  8
1
 10
170.0
 20
70.0
 30
0.0
 11
140.00000000000011
 21
70.0
 31
0.0
  0
LINE
  5
249E
  8
0
 10
116.44577054407181
 20
106.9999999999999
 30
0.0
 11
116.44577054407191
 21
112.9999999999999
 31
0.0
  0
LINE
  5
249F
  8
0
 10
116.44577054407191
 20
112.9999999999999
 30
0.0
 11
117.44577054407191
 21
111.9999999999999
 31
0.0
  0
LINE
  5
24A0
  8
0
 10
116.44577054407191
 20
73.0
 30
0.0
 11
117.44577054407191
 21
72.0
 31
0.0
  0
LINE
  5
24A1
  8
0
 10
117.44577054407181
 20
107.9999999999999
 30
0.0
 11
116.44577054407181
 21
106.9999999999999
 31
0.0
  0
LINE
  5
24A2
  8
0
 10
117.44577054407191
 20
111.9999999999999
 30
0.0
 11
117.44577054407181
 21
107.9999999999999
 31
0.0
  0
ENDSEC
  0
EOF
