  0
SECTION
  2
HEADER
  9
$ACADVER
  1
AC1009
  9
$INSBASE
 10
0.0
 20
0.0
 30
0.0
  9
$EXTMIN
 10
-0.0062216246052458
 20
-0.0046195739878954
 30
-0.0015258207003583
  9
$EXTMAX
 10
162.01394001260181
 20
80.003611257988723
 30
0.0000000349246037
  9
$LIMMIN
 10
0.0
 20
0.0
  9
$LIMMAX
 10
187.5
 20
135.0
  9
$ORTHOMODE
 70
     1
  9
$REGENMODE
 70
     1
  9
$FILLMODE
 70
     1
  9
$QTEXTMODE
 70
     0
  9
$MIRRTEXT
 70
     0
  9
$DRAGMODE
 70
     2
  9
$LTSCALE
 40
5.0
  9
$OSMODE
 70
   231
  9
$ATTMODE
 70
     1
  9
$TEXTSIZE
 40
5.0
  9
$TRACEWID
 40
0.05
  9
$TEXTSTYLE
  7
STANDARD
  9
$CLAYER
  8
0
  9
$CELTYPE
  6
BYLAYER
  9
$CECOLOR
 62
   256
  9
$DIMSCALE
 40
0.5
  9
$DIMASZ
 40
3.0
  9
$DIMEXO
 40
2.0
  9
$DIMDLI
 40
0.38
  9
$DIMRND
 40
0.0
  9
$DIMDLE
 40
0.0
  9
$DIMEXE
 40
2.0
  9
$DIMTP
 40
0.0
  9
$DIMTM
 40
0.0
  9
$DIMTXT
 40
3.0
  9
$DIMCEN
 40
0.09
  9
$DIMTSZ
 40
0.0
  9
$DIMTOL
 70
     0
  9
$DIMLIM
 70
     0
  9
$DIMTIH
 70
     0
  9
$DIMTOH
 70
     0
  9
$DIMSE1
 70
     0
  9
$DIMSE2
 70
     0
  9
$DIMTAD
 70
     1
  9
$DIMZIN
 70
     0
  9
$DIMBLK
  1

  9
$DIMASO
 70
     1
  9
$DIMSHO
 70
     0
  9
$DIMPOST
  1

  9
$DIMAPOST
  1

  9
$DIMALT
 70
     0
  9
$DIMALTD
 70
     2
  9
$DIMALTF
 40
25.399999999999999
  9
$DIMLFAC
 40
1.0
  9
$DIMTOFL
 70
     0
  9
$DIMTVP
 40
1.6000000000000001
  9
$DIMTIX
 70
     1
  9
$DIMSOXD
 70
     0
  9
$DIMSAH
 70
     0
  9
$DIMBLK1
  1

  9
$DIMBLK2
  1

  9
$DIMSTYLE
  2
STANDARD
  9
$DIMCLRD
 70
     0
  9
$DIMCLRE
 70
     0
  9
$DIMCLRT
 70
     0
  9
$DIMTFAC
 40
1.0
  9
$DIMGAP
 40
0.09
  9
$LUNITS
 70
     2
  9
$LUPREC
 70
     4
  9
$SKETCHINC
 40
0.1
  9
$FILLETRAD
 40
1.8999999999999999
  9
$AUNITS
 70
     0
  9
$AUPREC
 70
     0
  9
$MENU
  1
E:\r13\win\SUPPORT\ACAD
  9
$ELEVATION
 40
0.0
  9
$PELEVATION
 40
0.0
  9
$THICKNESS
 40
0.0
  9
$LIMCHECK
 70
     0
  9
$BLIPMODE
 70
     1
  9
$CHAMFERA
 40
0.0
  9
$CHAMFERB
 40
0.0
  9
$SKPOLY
 70
     0
  9
$TDCREATE
 40
2449839.7837037039
  9
$TDUPDATE
 40
2453236.8202848262
  9
$TDINDWG
 40
0.0057090394
  9
$TDUSRTIMER
 40
0.0057090394
  9
$USRTIMER
 70
     1
  9
$ANGBASE
 50
0.0
  9
$ANGDIR
 70
     0
  9
$PDMODE
 70
     0
  9
$PDSIZE
 40
0.0
  9
$PLINEWID
 40
0.0
  9
$COORDS
 70
     0
  9
$SPLFRAME
 70
     0
  9
$SPLINETYPE
 70
     6
  9
$SPLINESEGS
 70
     8
  9
$ATTDIA
 70
     0
  9
$ATTREQ
 70
     1
  9
$HANDLING
 70
-16383
  9
$HANDSEED
  5
6D4
  9
$SURFTAB1
 70
     6
  9
$SURFTAB2
 70
     6
  9
$SURFTYPE
 70
     6
  9
$SURFU
 70
     6
  9
$SURFV
 70
     6
  9
$UCSNAME
  2

  9
$UCSORG
 10
0.0
 20
0.0
 30
0.0
  9
$UCSXDIR
 10
1.0
 20
0.0
 30
0.0
  9
$UCSYDIR
 10
0.0
 20
1.0
 30
0.0
  9
$PUCSNAME
  2

  9
$PUCSORG
 10
0.0
 20
0.0
 30
0.0
  9
$PUCSXDIR
 10
1.0
 20
0.0
 30
0.0
  9
$PUCSYDIR
 10
0.0
 20
1.0
 30
0.0
  9
$USERI1
 70
     0
  9
$USERI2
 70
     1
  9
$USERI3
 70
     1
  9
$USERI4
 70
     0
  9
$USERI5
 70
     0
  9
$USERR1
 40
0.0
  9
$USERR2
 40
0.0
  9
$USERR3
 40
0.0
  9
$USERR4
 40
0.0
  9
$USERR5
 40
0.0
  9
$WORLDVIEW
 70
     1
  9
$SHADEDGE
 70
     3
  9
$SHADEDIF
 70
    70
  9
$TILEMODE
 70
     1
  9
$MAXACTVP
 70
    16
  9
$PLIMCHECK
 70
     0
  9
$PEXTMIN
 10
1.0000000000000000E+020
 20
1.0000000000000000E+020
 30
1.0000000000000000E+020
  9
$PEXTMAX
 10
-1.0000000000000000E+020
 20
-1.0000000000000000E+020
 30
-1.0000000000000000E+020
  9
$PLIMMIN
 10
0.0
 20
0.0
  9
$PLIMMAX
 10
12.0
 20
9.0
  9
$UNITMODE
 70
     0
  9
$VISRETAIN
 70
     0
  9
$PLINEGEN
 70
     0
  9
$PSLTSCALE
 70
     0
  0
ENDSEC
  0
SECTION
  2
TABLES
  0
TABLE
  2
VPORT
 70
     3
  0
VPORT
  2
*ACTIVE
 70
     0
 10
0.0
 20
0.0
 11
1.0
 21
1.0
 12
81.003859193998309
 22
39.999495842000407
 13
0.0
 23
0.0
 14
5.0
 24
5.0
 15
5.0
 25
5.0
 16
0.0
 26
0.0
 36
1.0
 17
0.0
 27
0.0
 37
0.0
 40
192.97437295100531
 41
0.9407114624505929
 42
50.0
 43
0.0
 44
0.0
 50
0.0
 51
0.0
 71
     0
 72
   500
 73
     1
 74
     0
 75
     0
 76
     0
 77
     0
 78
     2
  0
ENDTAB
  0
TABLE
  2
LTYPE
 70
     3
  0
LTYPE
  2
CONTINUOUS
 70
     0
  3
Solid Line
 72
    65
 73
     0
 40
0.0
  0
LTYPE
  2
CENTER
 70
     0
  3
____ _ ____ _ ____ _ ____ _ ____ _ ____ _ ____
 72
    65
 73
     4
 40
2.0
 49
1.25
 49
-0.25
 49
0.25
 49
-0.25
  0
LTYPE
  2
HIDDEN
 70
     0
  3
_ _ _ _ _ _ _ _ _ _ _ _ _ _ _ _ _ _ _ _ _ _ _
 72
    65
 73
     2
 40
0.375
 49
0.25
 49
-0.125
  0
ENDTAB
  0
TABLE
  2
LAYER
 70
     5
  0
LAYER
  2
0
 70
     0
 62
     7
  6
CONTINUOUS
  0
LAYER
  2
1
 70
     0
 62
     1
  6
CENTER
  0
LAYER
  2
3
 70
     0
 62
     3
  6
CONTINUOUS
  0
LAYER
  2
2
 70
     0
 62
     2
  6
HIDDEN
  0
LAYER
  2
ITTEN
 70
     0
 62
     1
  6
CENTER
  0
ENDTAB
  0
TABLE
  2
STYLE
 70
     1
  0
STYLE
  2
STANDARD
 70
     0
 40
0.0
 41
1.0
 50
0.0
 71
     0
 42
5.0
  3
TXT
  4
BIGFONT
  0
ENDTAB
  0
TABLE
  2
VIEW
 70
     1
  0
VIEW
  2
ALL
 70
     0
 40
135.0
 10
110.4957983193277
 20
67.5
 41
0.0
 11
0.0
 21
0.0
 31
1.0
 12
0.0
 22
0.0
 32
0.0
 42
0.0
 43
0.0
 44
0.0
 50
0.0
 71
     0
  0
ENDTAB
  0
TABLE
  2
UCS
 70
     0
  0
ENDTAB
  0
TABLE
  2
APPID
 70
     1
  0
APPID
  2
ACAD
 70
     0
  0
ENDTAB
  0
TABLE
  2
DIMSTYLE
 70
     1
  0
DIMSTYLE
  2
STANDARD
 70
     0
  3

  4

  5

  6

  7

 40
1.0
 41
0.18
 42
0.0625
 43
0.38
 44
0.18
 45
0.0
 46
0.0
 47
0.0
 48
0.0
140
0.18
141
0.09
142
0.0
143
25.399999999999999
144
1.0
145
0.0
146
1.0
147
0.09
 71
     0
 72
     0
 73
     1
 74
     1
 75
     0
 76
     0
 77
     0
 78
     0
170
     0
171
     2
172
     0
173
     0
174
     0
175
     0
176
     0
177
     0
178
     0
  0
ENDTAB
  0
ENDSEC
  0
SECTION
  2
BLOCKS
  0
BLOCK
  8
0
  2
$MODEL_SPACE
 70
     0
 10
0.0
 20
0.0
 30
0.0
  3
$MODEL_SPACE
  1

  0
ENDBLK
  5
3BD
  8
0
  0
BLOCK
 67
     1
  8
0
  2
$PAPER_SPACE
 70
     0
 10
0.0
 20
0.0
 30
0.0
  3
$PAPER_SPACE
  1

  0
ENDBLK
  5
3BB
 67
     1
  8
0
  0
BLOCK
  8
0
  2
BATU
 70
     0
 10
0.0
 20
0.0
 30
0.0
  3
BATU
  1

  0
LINE
  5
3C8
  8
ITTEN
 10
0.5
 20
0.0
 30
0.0
 11
-0.5
 21
0.0
 31
0.0
  0
LINE
  5
3C9
  8
ITTEN
 10
0.0
 20
0.5
 30
0.0
 11
0.0
 21
-0.5
 31
0.0
  0
ENDBLK
  5
3CB
  8
0
  0
ENDSEC
  0
SECTION
  2
ENTITIES
  0
LINE
  5
3E
  8
1
 10
115.5771105732166
 20
67.5
 30
0.0
 11
78.577110573216629
 21
67.5
 31
0.0
  0
LINE
  5
3F
  8
1
 10
43.499999999999993
 20
55.0
 30
0.0
 11
43.499999999999993
 21
79.999999999999986
 31
0.0
  0
LINE
  5
40
  8
1
 10
31.00000000000006
 20
67.500000000000014
 30
0.0
 11
55.999999999999908
 21
67.499999999999986
 31
0.0
  0
LINE
  5
41
  8
0
 10
81.927110573216623
 20
77.5
 30
0.0
 11
90.227110573216635
 21
77.499999999999986
 31
0.0
  0
LINE
  5
42
  8
0
 10
91.077110573216629
 20
76.649999999999991
 30
0.0
 11
91.077110573216615
 21
58.349999999999987
 31
0.0
  0
LINE
  5
43
  8
0
 10
91.077110573216629
 20
73.499999999999986
 30
0.0
 11
95.927110573216623
 21
73.499999999999986
 31
0.0
  0
LINE
  5
44
  8
0
 10
96.777110573216646
 20
72.649999999999991
 30
0.0
 11
96.777110573216646
 21
62.349999999999987
 31
0.0
  0
LINE
  5
47
  8
0
 10
91.077110573216615
 20
61.499999999999972
 30
0.0
 11
95.927110573216623
 21
61.5
 31
0.0
  0
LINE
  5
48
  8
0
 10
90.227110573216635
 20
57.499999999999979
 30
0.0
 11
91.077110573216615
 21
58.349999999999973
 31
0.0
  0
LINE
  5
49
  8
0
 10
95.927110573216623
 20
61.5
 30
0.0
 11
96.777110573216646
 21
62.349999999999987
 31
0.0
  0
LINE
  5
4A
  8
0
 10
96.777110573216646
 20
72.649999999999991
 30
0.0
 11
95.927110573216623
 21
73.499999999999986
 31
0.0
  0
LINE
  5
4B
  8
0
 10
91.077110573216629
 20
76.649999999999991
 30
0.0
 11
90.227110573216635
 21
77.499999999999986
 31
0.0
  0
LINE
  5
4C
  8
0
 10
81.077110573216629
 20
76.650000000000006
 30
0.0
 11
81.56175910126268
 21
77.134648528046057
 31
0.0
  0
LINE
  5
4D
  8
0
 10
95.927110573216623
 20
73.499999999999986
 30
0.0
 11
95.927110573216623
 21
61.500000000000021
 31
0.0
  0
LINE
  5
4E
  8
0
 10
90.227110573216635
 20
77.500000000000014
 30
0.0
 11
90.227110573216635
 21
57.5
 31
0.0
  0
LINE
  5
4F
  8
2
 10
84.177110573216666
 20
73.199999999999989
 30
0.0
 11
84.177110573216638
 21
61.79999999999999
 31
0.0
  0
LINE
  5
50
  8
2
 10
84.177110573216638
 20
61.79999999999999
 30
0.0
 11
83.677110573216623
 21
61.79999999999999
 31
0.0
  0
LINE
  5
51
  8
2
 10
83.677110573216623
 20
61.79999999999999
 30
0.0
 11
83.677110573216623
 21
73.199999999999989
 31
0.0
  0
LINE
  5
52
  8
2
 10
81.077110573216629
 20
59.5
 30
0.0
 11
83.677110573216623
 21
61.79999999999999
 31
0.0
  0
CIRCLE
  5
53
  8
0
 10
43.499999999999993
 20
67.499999999999986
 30
0.0
 40
10.0
  0
CIRCLE
  5
54
  8
0
 10
43.499999999999993
 20
67.499999999999986
 30
0.0
 40
8.0
  0
CIRCLE
  5
55
  8
0
 10
43.499999999999993
 20
67.499999999999986
 30
0.0
 40
5.7000000000000002
  0
ARC
  5
56
  8
0
 10
32.549999999998739
 20
67.500000000000014
 30
0.0
 40
1.25
 50
321.63840097099268
 51
38.361599029007301
  0
ARC
  5
57
  8
0
 10
33.634390896467373
 20
62.748973056662187
 30
0.0
 40
1.25
 50
347.3526866852784
 51
64.075884743293017
  0
ARC
  5
58
  8
0
 10
36.672786669646079
 20
58.938945266974088
 30
0.0
 40
1.25
 50
13.06697239956415
 51
89.790170457578725
  0
ARC
  5
59
  8
0
 10
41.063395773178087
 20
56.824539361607791
 30
0.0
 40
1.25
 50
38.781258113849859
 51
115.5044561718644
  0
ARC
  5
5A
  8
0
 10
45.936604226821927
 20
56.824539361607769
 30
0.0
 40
1.25
 50
64.495543828135581
 51
141.2187418861501
  0
ARC
  5
5B
  8
0
 10
50.327213330353892
 20
58.938945266974052
 30
0.0
 40
1.25
 50
90.209829542421275
 51
166.93302760043579
  0
ARC
  5
5C
  8
0
 10
53.365609103532599
 20
62.748973056662159
 30
0.0
 40
1.25
 50
115.924115256707
 51
192.64731331472149
  0
ARC
  5
5D
  8
0
 10
54.450000000001253
 20
67.499999999999986
 30
0.0
 40
1.25
 50
141.63840097099271
 51
218.36159902900721
  0
ARC
  5
5E
  8
0
 10
53.365609103532577
 20
72.251026943337806
 30
0.0
 40
1.25
 50
167.3526866852784
 51
244.0758847432929
  0
ARC
  5
5F
  8
0
 10
50.327213330353928
 20
76.061054733025898
 30
0.0
 40
1.25
 50
193.06697239956409
 51
269.79017045757871
  0
ARC
  5
60
  8
0
 10
45.936604226821927
 20
78.175460638392181
 30
0.0
 40
1.25
 50
218.78125811384979
 51
295.50445617186432
  0
ARC
  5
61
  8
0
 10
41.063395773178122
 20
78.175460638392181
 30
0.0
 40
1.25
 50
244.49554382813551
 51
321.2187418861501
  0
ARC
  5
62
  8
0
 10
36.672786669646079
 20
76.061054733025912
 30
0.0
 40
1.25
 50
270.20982954242118
 51
346.93302760043582
  0
ARC
  5
63
  8
0
 10
33.634390896467373
 20
72.251026943337834
 30
0.0
 40
1.25
 50
295.92411525670701
 51
12.647313314721529
  0
CIRCLE
  5
64
  8
0
 10
43.499999999999993
 20
67.499999999999986
 30
0.0
 40
9.1500000000000004
  0
LINE
  5
65
  8
0
 10
81.077110573216629
 20
58.350000000000001
 30
0.0
 11
81.077110573216629
 21
76.650000000000006
 31
0.0
  0
LINE
  5
70
  8
2
 10
81.077110573216629
 20
75.5
 30
0.0
 11
83.677110573216623
 21
73.200000000000003
 31
0.0
  0
LINE
  5
71
  8
2
 10
84.177110573216638
 20
73.200000000000003
 30
0.0
 11
83.677110573216623
 21
73.200000000000003
 31
0.0
  0
LINE
  5
162
  8
0
 10
81.927110573216609
 20
77.499999999999986
 30
0.0
 11
81.927110573216595
 21
77.39252457531974
 31
0.0
  0
LINE
  5
163
  8
0
 10
81.927110573216595
 20
66.724222011087065
 30
0.0
 11
89.413752294219293
 21
66.724222011087051
 31
0.0
  0
LINE
  5
164
  8
0
 10
81.927110573216595
 20
68.275777988912921
 30
0.0
 11
89.377111921915684
 21
68.275777988912921
 31
0.0
  0
LINE
  5
165
  8
0
 10
81.927110573216595
 20
71.126809626458922
 30
0.0
 11
89.416245777209625
 21
71.126809626458922
 31
0.0
  0
LINE
  5
166
  8
0
 10
81.927110573216595
 20
72.524713259288021
 30
0.0
 11
89.377110573216484
 21
72.524713259288006
 31
0.0
  0
LINE
  5
167
  8
0
 10
81.927110573216609
 20
74.811063115409539
 30
0.0
 11
89.377110573216513
 21
74.811063115409539
 31
0.0
  0
LINE
  5
168
  8
0
 10
81.927110573216595
 20
75.778442444596962
 30
0.0
 11
89.377111741224255
 21
75.778442444596934
 31
0.0
  0
LINE
  5
169
  8
0
 10
81.927110573216595
 20
77.047270890048424
 30
0.0
 11
89.377110573209563
 21
77.047270890048424
 31
0.0
  0
LINE
  5
16A
  8
0
 10
81.927110573216595
 20
77.39252457531974
 30
0.0
 11
89.42059563695355
 21
77.39252457531974
 31
0.0
  0
POLYLINE
  5
16B
  8
0
 66
     1
 10
0.0
 20
0.0
 30
0.0
  0
VERTEX
  5
600
  8
0
 10
81.527110573216717
 20
67.5
 30
0.0
 42
0.0526515843117979
  0
VERTEX
  5
601
  8
0
 10
81.560194883028245
 20
67.186689448455397
 30
0.0
 42
0.0665094502244707
  0
VERTEX
  5
602
  8
0
 10
81.644267860742076
 20
66.951442123344407
 30
0.0
 42
0.1048721553586362
  0
VERTEX
  5
603
  8
0
 10
81.799183793565277
 20
66.761833443670525
 30
0.0
 42
0.1979393846974964
  0
VERTEX
  5
604
  8
0
 10
81.927110573216595
 20
66.724222011087065
 30
0.0
 42
0.1708274168693134
  0
SEQEND
  5
605
  8
0
  0
POLYLINE
  5
172
  8
0
 66
     1
 10
0.0
 20
0.0
 30
0.0
  0
VERTEX
  5
606
  8
0
 10
81.927110573216595
 20
68.275777988912935
 30
0.0
 42
0.1708274168693328
  0
VERTEX
  5
607
  8
0
 10
81.790687252901634
 20
68.227767252476895
 30
0.0
 42
0.1048721553586743
  0
VERTEX
  5
608
  8
0
 10
81.644267860742076
 20
68.048557876655593
 30
0.0
 42
0.06650945022448
  0
VERTEX
  5
609
  8
0
 10
81.560194883028245
 20
67.813310551544589
 30
0.0
 42
0.0526515843118002
  0
VERTEX
  5
60A
  8
0
 10
81.527110573216717
 20
67.5
 30
0.0
 42
0.0526515843117979
  0
SEQEND
  5
60B
  8
0
  0
POLYLINE
  5
179
  8
0
 66
     1
 10
0.0
 20
0.0
 30
0.0
  0
VERTEX
  5
60C
  8
0
 10
81.927110573216609
 20
72.524713259288021
 30
0.0
 42
0.1772227935966885
  0
VERTEX
  5
60D
  8
0
 10
81.79220556086193
 20
72.475346258219005
 30
0.0
 42
0.1037286571386471
  0
VERTEX
  5
60E
  8
0
 10
81.644267860741621
 20
72.285700387087971
 30
0.0
 42
0.0639472387608605
  0
VERTEX
  5
60F
  8
0
 10
81.560305025063343
 20
72.038989554493298
 30
0.0
 42
0.0501200937592137
  0
VERTEX
  5
610
  8
0
 10
81.527110573216106
 20
71.708672269440854
 30
0.0
 42
0.0501200937592415
  0
SEQEND
  5
611
  8
0
  0
POLYLINE
  5
180
  8
0
 66
     1
 10
0.0
 20
0.0
 30
0.0
  0
VERTEX
  5
612
  8
0
 10
81.527110573216717
 20
71.708672269440839
 30
0.0
 42
0.0694633972576087
  0
VERTEX
  5
613
  8
0
 10
81.559358293254164
 20
71.47767205363769
 30
0.0
 42
0.0813899294342794
  0
VERTEX
  5
614
  8
0
 10
81.64426786074209
 20
71.29723324886919
 30
0.0
 42
0.1069704061773945
  0
VERTEX
  5
615
  8
0
 10
81.792049452433886
 20
71.158058301543065
 30
0.0
 42
0.1587731996791126
  0
VERTEX
  5
616
  8
0
 10
81.927110573216623
 20
71.126809626458922
 30
0.0
 42
0.1364077150153963
  0
SEQEND
  5
617
  8
0
  0
POLYLINE
  5
187
  8
0
 66
     1
 10
0.0
 20
0.0
 30
0.0
  0
VERTEX
  5
618
  8
0
 10
81.927110573216609
 20
75.778442444596934
 30
0.0
 42
0.1571760863902413
  0
VERTEX
  5
619
  8
0
 10
81.787449276858325
 20
75.733427550180949
 30
0.0
 42
0.1065892250953939
  0
VERTEX
  5
61A
  8
0
 10
81.644267860742076
 20
75.574976243093943
 30
0.0
 42
0.072202003131666
  0
VERTEX
  5
61B
  8
0
 10
81.559919086234657
 20
75.362739386232477
 30
0.0
 42
0.0586001715207345
  0
VERTEX
  5
61C
  8
0
 10
81.527110573216717
 20
75.083765379940857
 30
0.0
 42
0.0586001715207382
  0
SEQEND
  5
61D
  8
0
  0
POLYLINE
  5
18E
  8
0
 66
     1
 10
0.0
 20
0.0
 30
0.0
  0
VERTEX
  5
61E
  8
0
 10
81.527110573216717
 20
75.083765379940871
 30
0.0
 42
0.1373455538095163
  0
VERTEX
  5
61F
  8
0
 10
81.554658974153284
 20
74.985368552997556
 30
0.0
 42
0.1070192326505333
  0
VERTEX
  5
620
  8
0
 10
81.644267860742076
 20
74.890935759445838
 30
0.0
 42
0.0809638122059214
  0
VERTEX
  5
621
  8
0
 10
81.76821267243136
 20
74.833068602863804
 30
0.0
 42
0.0689152481966574
  0
VERTEX
  5
622
  8
0
 10
81.927110573216595
 20
74.811063115409539
 30
0.0
 42
0.0689152481966227
  0
SEQEND
  5
623
  8
0
  0
LINE
  5
195
  8
0
 10
81.927110573216595
 20
74.811063115409539
 30
0.0
 11
81.927110573216623
 21
72.524713259288021
 31
0.0
  0
LINE
  5
196
  8
0
 10
81.927110573216623
 20
71.126809626458922
 30
0.0
 11
81.927110573216623
 21
68.275777988912921
 31
0.0
  0
POLYLINE
  5
197
  8
0
 66
     1
 10
0.0
 20
0.0
 30
0.0
  0
VERTEX
  5
624
  8
0
 10
81.527110573219375
 20
76.956800748164895
 30
0.0
 42
0.0233573080821943
  0
VERTEX
  5
625
  8
0
 10
81.691935642869126
 20
76.964504691025354
 30
0.0
 42
0.032266348829244
  0
VERTEX
  5
626
  8
0
 10
81.809953285693126
 20
76.983298839235985
 30
0.0
 42
0.0694517353260834
  0
VERTEX
  5
627
  8
0
 10
81.915893788368919
 20
77.023309900219289
 30
0.0
  0
VERTEX
  5
628
  8
0
 10
81.927110573223544
 20
77.047270890048438
 30
0.0
  0
SEQEND
  5
629
  8
0
  0
LINE
  5
19E
  8
0
 10
81.927110573216595
 20
77.047270890048438
 30
0.0
 11
81.927110573216595
 21
75.778442444596934
 31
0.0
  0
LINE
  5
19F
  8
0
 10
81.795174875443024
 20
77.368064302226415
 30
0.0
 11
81.927110573216623
 21
77.5
 31
0.0
  0
POLYLINE
  5
1A0
  8
0
 66
     1
 10
0.0
 20
0.0
 30
0.0
  0
VERTEX
  5
62A
  8
0
 10
89.777110573216405
 20
75.083765379940871
 30
0.0
 42
-0.1373455538095163
  0
VERTEX
  5
62B
  8
0
 10
89.749562172279823
 20
74.985368552997556
 30
0.0
 42
-0.1070192326505333
  0
VERTEX
  5
62C
  8
0
 10
89.659953285691046
 20
74.890935759445838
 30
0.0
 42
-0.0809638122059214
  0
VERTEX
  5
62D
  8
0
 10
89.536008474001761
 20
74.833068602863804
 30
0.0
 42
-0.0689152481966574
  0
VERTEX
  5
62E
  8
0
 10
89.377110573216527
 20
74.811063115409539
 30
0.0
 42
-0.0689152481966227
  0
SEQEND
  5
62F
  8
0
  0
POLYLINE
  5
1A7
  8
0
 66
     1
 10
0.0
 20
0.0
 30
0.0
  0
VERTEX
  5
630
  8
0
 10
89.377110573216513
 20
75.778442444596934
 30
0.0
 42
-0.1571760863902413
  0
VERTEX
  5
631
  8
0
 10
89.516771869574796
 20
75.733427550180949
 30
0.0
 42
-0.1065892250953939
  0
VERTEX
  5
632
  8
0
 10
89.659953285691046
 20
75.574976243093943
 30
0.0
 42
-0.072202003131666
  0
VERTEX
  5
633
  8
0
 10
89.744302060198464
 20
75.362739386232477
 30
0.0
 42
-0.0586001715207345
  0
VERTEX
  5
634
  8
0
 10
89.777110573216405
 20
75.083765379940857
 30
0.0
 42
-0.0586001715207382
  0
SEQEND
  5
635
  8
0
  0
POLYLINE
  5
1AE
  8
0
 66
     1
 10
0.0
 20
0.0
 30
0.0
  0
VERTEX
  5
636
  8
0
 10
89.777110573216405
 20
71.708672269440839
 30
0.0
 42
-0.0694633972576087
  0
VERTEX
  5
637
  8
0
 10
89.744862853178958
 20
71.47767205363769
 30
0.0
 42
-0.0813899294342794
  0
VERTEX
  5
638
  8
0
 10
89.659953285691032
 20
71.29723324886919
 30
0.0
 42
-0.1069704061773945
  0
VERTEX
  5
639
  8
0
 10
89.512171693999235
 20
71.158058301543065
 30
0.0
 42
-0.1587731996791126
  0
VERTEX
  5
63A
  8
0
 10
89.377110573216484
 20
71.126809626458922
 30
0.0
 42
-0.1364077150153963
  0
SEQEND
  5
63B
  8
0
  0
POLYLINE
  5
1B5
  8
0
 66
     1
 10
0.0
 20
0.0
 30
0.0
  0
VERTEX
  5
63C
  8
0
 10
89.377110573216513
 20
72.524713259288021
 30
0.0
 42
-0.1772227935966885
  0
VERTEX
  5
63D
  8
0
 10
89.512015585571191
 20
72.475346258219005
 30
0.0
 42
-0.1037286571386471
  0
VERTEX
  5
63E
  8
0
 10
89.6599532856915
 20
72.285700387087971
 30
0.0
 42
-0.0639472387608605
  0
VERTEX
  5
63F
  8
0
 10
89.743916121369779
 20
72.038989554493298
 30
0.0
 42
-0.0501200937592137
  0
VERTEX
  5
640
  8
0
 10
89.777110573217016
 20
71.708672269440854
 30
0.0
 42
-0.0501200937592415
  0
SEQEND
  5
641
  8
0
  0
POLYLINE
  5
1BC
  8
0
 66
     1
 10
0.0
 20
0.0
 30
0.0
  0
VERTEX
  5
642
  8
0
 10
89.377110573216527
 20
68.275777988912935
 30
0.0
 42
-0.1708274168693328
  0
VERTEX
  5
643
  8
0
 10
89.513533893531488
 20
68.227767252476895
 30
0.0
 42
-0.1048721553586743
  0
VERTEX
  5
644
  8
0
 10
89.659953285691046
 20
68.048557876655593
 30
0.0
 42
-0.06650945022448
  0
VERTEX
  5
645
  8
0
 10
89.744026263404876
 20
67.813310551544589
 30
0.0
 42
-0.0526515843118002
  0
VERTEX
  5
646
  8
0
 10
89.777110573216405
 20
67.5
 30
0.0
 42
-0.0526515843117979
  0
SEQEND
  5
647
  8
0
  0
POLYLINE
  5
1C3
  8
0
 66
     1
 10
0.0
 20
0.0
 30
0.0
  0
VERTEX
  5
648
  8
0
 10
89.777110573216405
 20
67.5
 30
0.0
 42
-0.0526515843117979
  0
VERTEX
  5
649
  8
0
 10
89.744026263404876
 20
67.186689448455397
 30
0.0
 42
-0.0665094502244707
  0
VERTEX
  5
64A
  8
0
 10
89.659953285691046
 20
66.951442123344407
 30
0.0
 42
-0.1048721553586362
  0
VERTEX
  5
64B
  8
0
 10
89.505037352867845
 20
66.761833443670525
 30
0.0
 42
-0.1979393846974964
  0
VERTEX
  5
64C
  8
0
 10
89.377110573216527
 20
66.724222011087065
 30
0.0
 42
-0.1708274168693134
  0
SEQEND
  5
64D
  8
0
  0
POLYLINE
  5
1CA
  8
0
 66
     1
 10
0.0
 20
0.0
 30
0.0
  0
VERTEX
  5
64E
  8
0
 10
81.927110573216424
 20
77.39252457531974
 30
0.0
 42
0.0919145692174513
  0
VERTEX
  5
64F
  8
0
 10
81.795174875455757
 20
77.368064302239134
 30
0.0
 42
0.1014107822488612
  0
SEQEND
  5
650
  8
0
  0
POLYLINE
  5
1CE
  8
0
 66
     1
 10
0.0
 20
0.0
 30
0.0
  0
VERTEX
  5
651
  8
0
 10
81.561759101265835
 20
77.134648528049212
 30
0.0
 42
0.0058104252885607
  0
VERTEX
  5
652
  8
0
 10
81.558053475262255
 20
77.125234161101957
 30
0.0
 42
0.0910927959066583
  0
VERTEX
  5
653
  8
0
 10
81.527110573216717
 20
76.956800748164724
 30
0.0
 42
0.0910927959066884
  0
SEQEND
  5
654
  8
0
  0
POLYLINE
  5
1D3
  8
0
 66
     1
 10
0.0
 20
0.0
 30
0.0
  0
VERTEX
  5
655
  8
0
 10
81.795174875468831
 20
77.368064302252208
 30
0.0
 42
-0.0143082046197332
  0
VERTEX
  5
656
  8
0
 10
81.787065955330064
 20
77.348627615043114
 30
0.0
 42
-0.1014107822488612
  0
VERTEX
  5
657
  8
0
 10
81.692014594287144
 20
77.217157287525325
 30
0.0
 42
-0.0892529791583595
  0
VERTEX
  5
658
  8
0
 10
81.561759101277445
 20
77.134648528060822
 30
0.0
 42
-0.0910927959066583
  0
SEQEND
  5
659
  8
0
  0
POLYLINE
  5
1D9
  8
0
 66
     1
 10
0.0
 20
0.0
 30
0.0
  0
VERTEX
  5
65A
  8
0
 10
89.777110573213747
 20
76.956800748164895
 30
0.0
 42
-0.0233573080821943
  0
VERTEX
  5
65B
  8
0
 10
89.612285503563996
 20
76.964504691025354
 30
0.0
 42
-0.032266348829244
  0
VERTEX
  5
65C
  8
0
 10
89.494267860739996
 20
76.983298839235985
 30
0.0
 42
-0.0694517353260834
  0
VERTEX
  5
65D
  8
0
 10
89.388327358064188
 20
77.023309900219289
 30
0.0
  0
VERTEX
  5
65E
  8
0
 10
89.377110573209563
 20
77.047270890048438
 30
0.0
  0
SEQEND
  5
65F
  8
0
  0
POLYLINE
  5
1E0
  8
0
 66
     1
 10
0.0
 20
0.0
 30
0.0
  0
VERTEX
  5
660
  8
0
 10
89.777110573216405
 20
76.956800748164724
 30
0.0
 42
0.0910927959066242
  0
VERTEX
  5
661
  8
0
 10
89.746167671170824
 20
77.125234161102043
 30
0.0
 42
0.0951127297056047
  0
VERTEX
  5
662
  8
0
 10
89.659953285691103
 20
77.264904021070606
 30
0.0
 42
0.1014107822489876
  0
VERTEX
  5
663
  8
0
 10
89.51765735954767
 20
77.367782151110703
 30
0.0
 42
0.1254512433711584
  0
VERTEX
  5
664
  8
0
 10
89.377110573216683
 20
77.392524575319754
 30
0.0
 42
0.1063626548058063
  0
SEQEND
  5
665
  8
0
  0
POLYLINE
  5
1E7
  8
0
 66
     1
 10
0.0
 20
0.0
 30
0.0
  0
VERTEX
  5
666
  8
0
 10
89.777110573216405
 20
58.043199251835247
 30
0.0
 42
-0.0910927959066242
  0
VERTEX
  5
667
  8
0
 10
89.746167671170824
 20
57.874765838897943
 30
0.0
 42
-0.0951127297056047
  0
VERTEX
  5
668
  8
0
 10
89.659953285691103
 20
57.735095978929373
 30
0.0
 42
-0.1014107822489876
  0
VERTEX
  5
669
  8
0
 10
89.51765735954767
 20
57.632217848889269
 30
0.0
 42
-0.1254512433711584
  0
VERTEX
  5
66A
  8
0
 10
89.377110573216683
 20
57.607475424680217
 30
0.0
 42
-0.1063626548058063
  0
SEQEND
  5
66B
  8
0
  0
POLYLINE
  5
1EE
  8
0
 66
     1
 10
0.0
 20
0.0
 30
0.0
  0
VERTEX
  5
66C
  8
0
 10
89.777110573213747
 20
58.043199251835077
 30
0.0
 42
0.0233573080821943
  0
VERTEX
  5
66D
  8
0
 10
89.612285503563996
 20
58.035495308974632
 30
0.0
 42
0.032266348829244
  0
VERTEX
  5
66E
  8
0
 10
89.494267860739996
 20
58.016701160763994
 30
0.0
 42
0.0694517353260834
  0
VERTEX
  5
66F
  8
0
 10
89.388327358064188
 20
57.976690099780683
 30
0.0
  0
VERTEX
  5
670
  8
0
 10
89.377110573209563
 20
57.952729109951541
 30
0.0
  0
SEQEND
  5
671
  8
0
  0
POLYLINE
  5
1F5
  8
0
 66
     1
 10
0.0
 20
0.0
 30
0.0
  0
VERTEX
  5
672
  8
0
 10
81.795174875468831
 20
57.631935697747771
 30
0.0
 42
0.0143082046197332
  0
VERTEX
  5
673
  8
0
 10
81.787065955330064
 20
57.651372384956858
 30
0.0
 42
0.1014107822488612
  0
VERTEX
  5
674
  8
0
 10
81.692014594287144
 20
57.782842712474647
 30
0.0
 42
0.0892529791583595
  0
VERTEX
  5
675
  8
0
 10
81.561759101277445
 20
57.865351471939157
 30
0.0
 42
0.0910927959066583
  0
SEQEND
  5
676
  8
0
  0
POLYLINE
  5
1FB
  8
0
 66
     1
 10
0.0
 20
0.0
 30
0.0
  0
VERTEX
  5
677
  8
0
 10
81.561759101265835
 20
57.865351471950767
 30
0.0
 42
-0.0058104252885607
  0
VERTEX
  5
678
  8
0
 10
81.558053475262255
 20
57.874765838898021
 30
0.0
 42
-0.0910927959066583
  0
VERTEX
  5
679
  8
0
 10
81.527110573216717
 20
58.043199251835247
 30
0.0
 42
-0.0910927959066884
  0
SEQEND
  5
67A
  8
0
  0
POLYLINE
  5
200
  8
0
 66
     1
 10
0.0
 20
0.0
 30
0.0
  0
VERTEX
  5
67B
  8
0
 10
81.927110573216424
 20
57.607475424680239
 30
0.0
 42
-0.0919145692174513
  0
VERTEX
  5
67C
  8
0
 10
81.795174875455757
 20
57.631935697760831
 30
0.0
 42
-0.1014107822488612
  0
SEQEND
  5
67D
  8
0
  0
POLYLINE
  5
204
  8
0
 66
     1
 10
0.0
 20
0.0
 30
0.0
  0
VERTEX
  5
67E
  8
0
 10
89.377110573216513
 20
62.475286740711951
 30
0.0
 42
0.1772227935966885
  0
VERTEX
  5
67F
  8
0
 10
89.512015585571191
 20
62.524653741780973
 30
0.0
 42
0.1037286571386471
  0
VERTEX
  5
680
  8
0
 10
89.6599532856915
 20
62.714299612912001
 30
0.0
 42
0.0639472387608605
  0
VERTEX
  5
681
  8
0
 10
89.743916121369779
 20
62.961010445506673
 30
0.0
 42
0.0501200937592137
  0
VERTEX
  5
682
  8
0
 10
89.777110573217016
 20
63.291327730559118
 30
0.0
 42
0.0501200937592415
  0
SEQEND
  5
683
  8
0
  0
POLYLINE
  5
20B
  8
0
 66
     1
 10
0.0
 20
0.0
 30
0.0
  0
VERTEX
  5
684
  8
0
 10
89.777110573216405
 20
63.291327730559132
 30
0.0
 42
0.0694633972576087
  0
VERTEX
  5
685
  8
0
 10
89.744862853178958
 20
63.522327946362282
 30
0.0
 42
0.0813899294342794
  0
VERTEX
  5
686
  8
0
 10
89.659953285691032
 20
63.702766751130781
 30
0.0
 42
0.1069704061773945
  0
VERTEX
  5
687
  8
0
 10
89.512171693999235
 20
63.841941698456893
 30
0.0
 42
0.1587731996791126
  0
VERTEX
  5
688
  8
0
 10
89.377110573216484
 20
63.87319037354105
 30
0.0
 42
0.1364077150153963
  0
SEQEND
  5
689
  8
0
  0
POLYLINE
  5
212
  8
0
 66
     1
 10
0.0
 20
0.0
 30
0.0
  0
VERTEX
  5
68A
  8
0
 10
89.377110573216513
 20
59.221557555403017
 30
0.0
 42
0.1571760863902413
  0
VERTEX
  5
68B
  8
0
 10
89.516771869574796
 20
59.266572449819023
 30
0.0
 42
0.1065892250953939
  0
VERTEX
  5
68C
  8
0
 10
89.659953285691046
 20
59.425023756906029
 30
0.0
 42
0.072202003131666
  0
VERTEX
  5
68D
  8
0
 10
89.744302060198464
 20
59.637260613767502
 30
0.0
 42
0.0586001715207345
  0
VERTEX
  5
68E
  8
0
 10
89.777110573216405
 20
59.916234620059107
 30
0.0
 42
0.0586001715207382
  0
SEQEND
  5
68F
  8
0
  0
POLYLINE
  5
219
  8
0
 66
     1
 10
0.0
 20
0.0
 30
0.0
  0
VERTEX
  5
690
  8
0
 10
89.777110573216405
 20
59.9162346200591
 30
0.0
 42
0.1373455538095163
  0
VERTEX
  5
691
  8
0
 10
89.749562172279823
 20
60.014631447002422
 30
0.0
 42
0.1070192326505333
  0
VERTEX
  5
692
  8
0
 10
89.659953285691046
 20
60.109064240554133
 30
0.0
 42
0.0809638122059214
  0
VERTEX
  5
693
  8
0
 10
89.536008474001761
 20
60.16693139713616
 30
0.0
 42
0.0689152481966574
  0
VERTEX
  5
694
  8
0
 10
89.377110573216527
 20
60.188936884590433
 30
0.0
 42
0.0689152481966227
  0
SEQEND
  5
695
  8
0
  0
LINE
  5
220
  8
0
 10
81.795174875443024
 20
57.631935697773571
 30
0.0
 11
81.927110573216623
 21
57.499999999999979
 31
0.0
  0
LINE
  5
221
  8
0
 10
81.927110573216595
 20
57.952729109951541
 30
0.0
 11
81.927110573216595
 21
59.221557555403017
 31
0.0
  0
POLYLINE
  5
222
  8
0
 66
     1
 10
0.0
 20
0.0
 30
0.0
  0
VERTEX
  5
696
  8
0
 10
81.527110573219375
 20
58.043199251835077
 30
0.0
 42
-0.0233573080821943
  0
VERTEX
  5
697
  8
0
 10
81.691935642869126
 20
58.035495308974632
 30
0.0
 42
-0.032266348829244
  0
VERTEX
  5
698
  8
0
 10
81.809953285693126
 20
58.016701160763994
 30
0.0
 42
-0.0694517353260834
  0
VERTEX
  5
699
  8
0
 10
81.915893788368919
 20
57.976690099780683
 30
0.0
  0
VERTEX
  5
69A
  8
0
 10
81.927110573223544
 20
57.952729109951541
 30
0.0
  0
SEQEND
  5
69B
  8
0
  0
LINE
  5
229
  8
0
 10
81.927110573216623
 20
63.87319037354105
 30
0.0
 11
81.927110573216623
 21
66.724222011087051
 31
0.0
  0
LINE
  5
22A
  8
0
 10
81.927110573216595
 20
60.188936884590433
 30
0.0
 11
81.927110573216623
 21
62.475286740711951
 31
0.0
  0
POLYLINE
  5
22B
  8
0
 66
     1
 10
0.0
 20
0.0
 30
0.0
  0
VERTEX
  5
69C
  8
0
 10
81.527110573216717
 20
59.9162346200591
 30
0.0
 42
-0.1373455538095163
  0
VERTEX
  5
69D
  8
0
 10
81.554658974153284
 20
60.014631447002422
 30
0.0
 42
-0.1070192326505333
  0
VERTEX
  5
69E
  8
0
 10
81.644267860742076
 20
60.109064240554133
 30
0.0
 42
-0.0809638122059214
  0
VERTEX
  5
69F
  8
0
 10
81.76821267243136
 20
60.16693139713616
 30
0.0
 42
-0.0689152481966574
  0
VERTEX
  5
6A0
  8
0
 10
81.927110573216595
 20
60.188936884590433
 30
0.0
 42
-0.0689152481966227
  0
SEQEND
  5
6A1
  8
0
  0
POLYLINE
  5
232
  8
0
 66
     1
 10
0.0
 20
0.0
 30
0.0
  0
VERTEX
  5
6A2
  8
0
 10
81.927110573216609
 20
59.221557555403017
 30
0.0
 42
-0.1571760863902413
  0
VERTEX
  5
6A3
  8
0
 10
81.787449276858325
 20
59.266572449819023
 30
0.0
 42
-0.1065892250953939
  0
VERTEX
  5
6A4
  8
0
 10
81.644267860742076
 20
59.425023756906029
 30
0.0
 42
-0.072202003131666
  0
VERTEX
  5
6A5
  8
0
 10
81.559919086234657
 20
59.637260613767502
 30
0.0
 42
-0.0586001715207345
  0
VERTEX
  5
6A6
  8
0
 10
81.527110573216717
 20
59.916234620059107
 30
0.0
 42
-0.0586001715207382
  0
SEQEND
  5
6A7
  8
0
  0
POLYLINE
  5
239
  8
0
 66
     1
 10
0.0
 20
0.0
 30
0.0
  0
VERTEX
  5
6A8
  8
0
 10
81.527110573216717
 20
63.291327730559132
 30
0.0
 42
-0.0694633972576087
  0
VERTEX
  5
6A9
  8
0
 10
81.559358293254164
 20
63.522327946362282
 30
0.0
 42
-0.0813899294342794
  0
VERTEX
  5
6AA
  8
0
 10
81.64426786074209
 20
63.702766751130781
 30
0.0
 42
-0.1069704061773945
  0
VERTEX
  5
6AB
  8
0
 10
81.792049452433886
 20
63.841941698456893
 30
0.0
 42
-0.1587731996791126
  0
VERTEX
  5
6AC
  8
0
 10
81.927110573216623
 20
63.87319037354105
 30
0.0
 42
-0.1364077150153963
  0
SEQEND
  5
6AD
  8
0
  0
POLYLINE
  5
240
  8
0
 66
     1
 10
0.0
 20
0.0
 30
0.0
  0
VERTEX
  5
6AE
  8
0
 10
81.927110573216609
 20
62.475286740711951
 30
0.0
 42
-0.1772227935966885
  0
VERTEX
  5
6AF
  8
0
 10
81.79220556086193
 20
62.524653741780973
 30
0.0
 42
-0.1037286571386471
  0
VERTEX
  5
6B0
  8
0
 10
81.644267860741621
 20
62.714299612912001
 30
0.0
 42
-0.0639472387608605
  0
VERTEX
  5
6B1
  8
0
 10
81.560305025063343
 20
62.961010445506673
 30
0.0
 42
-0.0501200937592137
  0
VERTEX
  5
6B2
  8
0
 10
81.527110573216106
 20
63.291327730559118
 30
0.0
 42
-0.0501200937592415
  0
SEQEND
  5
6B3
  8
0
  0
LINE
  5
247
  8
0
 10
81.927110573216595
 20
57.607475424680239
 30
0.0
 11
89.42059563695355
 21
57.607475424680239
 31
0.0
  0
LINE
  5
248
  8
0
 10
81.927110573216595
 20
57.952729109951548
 30
0.0
 11
89.377110573209563
 21
57.952729109951548
 31
0.0
  0
LINE
  5
249
  8
0
 10
81.927110573216595
 20
59.22155755540301
 30
0.0
 11
89.377111741224255
 21
59.221557555403017
 31
0.0
  0
LINE
  5
24A
  8
0
 10
81.927110573216609
 20
60.188936884590433
 30
0.0
 11
89.377110573216513
 21
60.188936884590433
 31
0.0
  0
LINE
  5
24B
  8
0
 10
81.927110573216595
 20
62.475286740711951
 30
0.0
 11
89.377110573216484
 21
62.475286740711972
 31
0.0
  0
LINE
  5
24C
  8
0
 10
81.927110573216595
 20
63.87319037354105
 30
0.0
 11
89.416245777209625
 21
63.87319037354105
 31
0.0
  0
LINE
  5
24D
  8
0
 10
81.927110573216609
 20
57.5
 30
0.0
 11
81.927110573216595
 21
57.607475424680239
 31
0.0
  0
LINE
  5
24E
  8
0
 10
81.077110573216629
 20
58.349999999999973
 30
0.0
 11
81.56175910126268
 21
57.865351471953922
 31
0.0
  0
LINE
  5
24F
  8
0
 10
81.927110573216623
 20
57.499999999999979
 30
0.0
 11
90.227110573216635
 21
57.5
 31
0.0
  0
LINE
  5
340
  8
1
 10
149.5
 20
54.999999999999993
 30
0.0
 11
149.5
 21
79.999999999999986
 31
0.0
  0
LINE
  5
341
  8
1
 10
137.0
 20
67.5
 30
0.0
 11
161.99999999999989
 21
67.499999999999986
 31
0.0
  0
CIRCLE
  5
342
  8
0
 10
149.5
 20
67.499999999999986
 30
0.0
 40
10.0
  0
CIRCLE
  5
343
  8
0
 10
149.5
 20
67.499999999999986
 30
0.0
 40
5.1499999999999631
  0
CIRCLE
  5
344
  8
0
 10
149.5
 20
67.499999999999986
 30
0.0
 40
5.9999999999999849
  0
CIRCLE
  5
345
  8
0
 10
149.5
 20
67.499999999999986
 30
0.0
 40
9.1500000000000341
  0
INSERT
  5
3CC
  8
0
  2
BATU
 10
0.0
 20
0.0
 30
0.0
 41
0.001
 42
0.001
 43
0.001
  0
LINE
  5
4AE
  8
0
 10
97.077110573216629
 20
67.499999999999986
 30
0.0
 11
97.077110573216629
 21
70.999999999999986
 31
0.0
  0
LINE
  5
4BA
  8
0
 10
112.17711057321659
 20
64.999999999999986
 30
0.0
 11
97.077110573216629
 21
64.999999999999986
 31
0.0
  0
LINE
  5
4C6
  8
0
 10
97.077110573216629
 20
67.499999999999986
 30
0.0
 11
97.077110573216629
 21
63.999999999999979
 31
0.0
  0
LINE
  5
4C7
  8
0
 10
97.077110573216629
 20
63.999999999999979
 30
0.0
 11
96.777110573216646
 21
63.999999999999979
 31
0.0
  0
LINE
  5
519
  8
0
 10
112.17711057321659
 20
70.0
 30
0.0
 11
97.077110573216629
 21
69.999999999999986
 31
0.0
  0
LINE
  5
521
  8
0
 10
97.077110573216629
 20
70.999999999999986
 30
0.0
 11
96.777110573216646
 21
70.999999999999986
 31
0.0
  0
LINE
  5
57C
  8
3
 10
98.577110573216629
 20
65.432999999999822
 30
0.0
 11
97.8271325735397
 21
65.000000000000028
 31
0.0
  0
LINE
  5
57D
  8
0
 10
112.1771105732165
 20
69.999999999999972
 30
0.0
 11
112.1771105732165
 21
64.999999999999972
 31
0.0
  0
LINE
  5
57E
  8
0
 10
113.0771105732166
 20
65.899999999999977
 30
0.0
 11
112.17711057321659
 21
64.999999999999972
 31
0.0
  0
LINE
  5
57F
  8
0
 10
112.17711057321659
 20
70.0
 30
0.0
 11
113.0771105732166
 21
69.099999999999994
 31
0.0
  0
LINE
  5
580
  8
3
 10
98.577110573216629
 20
69.567000000000206
 30
0.0
 11
97.8271325735397
 21
70.0
 31
0.0
  0
LINE
  5
581
  8
0
 10
98.577110573216629
 20
70.0
 30
0.0
 11
98.577110573216629
 21
65.0
 31
0.0
  0
LINE
  5
582
  8
0
 10
113.0771105732166
 20
69.099999999999994
 30
0.0
 11
113.0771105732166
 21
65.899999999999977
 31
0.0
  0
LINE
  5
584
  8
3
 10
98.577110573216643
 20
69.567000000000206
 30
0.0
 11
112.6101105732164
 21
69.567000000000164
 31
0.0
  0
LINE
  5
585
  8
3
 10
98.577110573216586
 20
65.43299999999978
 30
0.0
 11
112.6101105732164
 21
65.432999999999822
 31
0.0
  0
CIRCLE
  5
5B7
  8
3
 10
149.5
 20
67.499999999999986
 30
0.0
 40
2.067000000000192
  0
CIRCLE
  5
5B8
  8
0
 10
149.5
 20
67.5
 30
0.0
 40
2.4999999999999849
  0
CIRCLE
  5
5B9
  8
0
 10
149.5
 20
67.5
 30
0.0
 40
3.4999999999999849
  0
ENDSEC
  0
EOF
