  0
SECTION
  2
HEADER
  9
$ACADVER
  1
AC1014
  9
$ACADMAINTVER
 70
     0
  9
$DWGCODEPAGE
  3
ANSI_932
  9
$INSBASE
 10
0.0
 20
0.0
 30
0.0
  9
$EXTMIN
 10
30.5
 20
2.716667
 30
0.0
  9
$EXTMAX
 10
231.986667
 20
165.75
 30
0.0
  9
$LIMMIN
 10
0.0
 20
0.0
  9
$LIMMAX
 10
220.0
 20
170.0
  9
$ORTHOMODE
 70
     0
  9
$REGENMODE
 70
     1
  9
$FILLMODE
 70
     1
  9
$QTEXTMODE
 70
     0
  9
$MIRRTEXT
 70
     1
  9
$DRAGMODE
 70
     2
  9
$LTSCALE
 40
1.0
  9
$OSMODE
 70
     0
  9
$ATTMODE
 70
     1
  9
$TEXTSIZE
 40
7.0
  9
$TRACEWID
 40
1.0
  9
$TEXTSTYLE
  7
STANDARD
  9
$CLAYER
  8
0
  9
$CELTYPE
  6
BYLAYER
  9
$CECOLOR
 62
   256
  9
$CELTSCALE
 40
1.0
  9
$DELOBJ
 70
     1
  9
$DISPSILH
 70
     0
  9
$DIMSCALE
 40
1.0
  9
$DIMASZ
 40
2.5
  9
$DIMEXO
 40
0.625
  9
$DIMDLI
 40
3.75
  9
$DIMRND
 40
0.0
  9
$DIMDLE
 40
0.0
  9
$DIMEXE
 40
1.25
  9
$DIMTP
 40
0.0
  9
$DIMTM
 40
0.0
  9
$DIMTXT
 40
2.5
  9
$DIMCEN
 40
2.5
  9
$DIMTSZ
 40
0.0
  9
$DIMTOL
 70
     0
  9
$DIMLIM
 70
     0
  9
$DIMTIH
 70
     1
  9
$DIMTOH
 70
     0
  9
$DIMSE1
 70
     0
  9
$DIMSE2
 70
     0
  9
$DIMTAD
 70
     1
  9
$DIMZIN
 70
     8
  9
$DIMBLK
  1

  9
$DIMASO
 70
     1
  9
$DIMSHO
 70
     1
  9
$DIMPOST
  1

  9
$DIMAPOST
  1

  9
$DIMALT
 70
     0
  9
$DIMALTD
 70
     2
  9
$DIMALTF
 40
0.0394
  9
$DIMLFAC
 40
1.0
  9
$DIMTOFL
 70
     1
  9
$DIMTVP
 40
1.0
  9
$DIMTIX
 70
     0
  9
$DIMSOXD
 70
     0
  9
$DIMSAH
 70
     0
  9
$DIMBLK1
  1

  9
$DIMBLK2
  1

  9
$DIMSTYLE
  2
ISO-25
  9
$DIMCLRD
 70
     0
  9
$DIMCLRE
 70
     0
  9
$DIMCLRT
 70
     0
  9
$DIMTFAC
 40
1.0
  9
$DIMGAP
 40
0.625
  9
$DIMJUST
 70
     0
  9
$DIMSD1
 70
     0
  9
$DIMSD2
 70
     0
  9
$DIMTOLJ
 70
     1
  9
$DIMTZIN
 70
     8
  9
$DIMALTZ
 70
     8
  9
$DIMALTTZ
 70
     8
  9
$DIMFIT
 70
     5
  9
$DIMUPT
 70
     0
  9
$DIMUNIT
 70
     2
  9
$DIMDEC
 70
     4
  9
$DIMTDEC
 70
     4
  9
$DIMALTU
 70
     2
  9
$DIMALTTD
 70
     2
  9
$DIMTXSTY
  7
STANDARD
  9
$DIMAUNIT
 70
     0
  9
$LUNITS
 70
     2
  9
$LUPREC
 70
     4
  9
$SKETCHINC
 40
1.0
  9
$FILLETRAD
 40
2.0
  9
$AUNITS
 70
     0
  9
$AUPREC
 70
     0
  9
$MENU
  1
.
  9
$ELEVATION
 40
0.0
  9
$PELEVATION
 40
0.0
  9
$THICKNESS
 40
0.0
  9
$LIMCHECK
 70
     0
  9
$BLIPMODE
 70
     1
  9
$CHAMFERA
 40
0.5
  9
$CHAMFERB
 40
0.5
  9
$CHAMFERC
 40
0.0
  9
$CHAMFERD
 40
0.0
  9
$SKPOLY
 70
     0
  9
$TDCREATE
 40
2450687.671712963
  9
$TDUPDATE
 40
2453550.771730139
  9
$TDINDWG
 40
0.0000670949
  9
$TDUSRTIMER
 40
0.0000670949
  9
$USRTIMER
 70
     1
  9
$ANGBASE
 50
0.0
  9
$ANGDIR
 70
     0
  9
$PDMODE
 70
     0
  9
$PDSIZE
 40
0.0
  9
$PLINEWID
 40
0.0
  9
$COORDS
 70
     2
  9
$SPLFRAME
 70
     0
  9
$SPLINETYPE
 70
     6
  9
$SPLINESEGS
 70
     8
  9
$ATTDIA
 70
     0
  9
$ATTREQ
 70
     1
  9
$HANDLING
 70
     1
  9
$HANDSEED
  5
1276
  9
$SURFTAB1
 70
     6
  9
$SURFTAB2
 70
     6
  9
$SURFTYPE
 70
     6
  9
$SURFU
 70
     6
  9
$SURFV
 70
     6
  9
$UCSNAME
  2

  9
$UCSORG
 10
0.0
 20
0.0
 30
0.0
  9
$UCSXDIR
 10
1.0
 20
0.0
 30
0.0
  9
$UCSYDIR
 10
0.0
 20
1.0
 30
0.0
  9
$PUCSNAME
  2

  9
$PUCSORG
 10
0.0
 20
0.0
 30
0.0
  9
$PUCSXDIR
 10
1.0
 20
0.0
 30
0.0
  9
$PUCSYDIR
 10
0.0
 20
1.0
 30
0.0
  9
$USERI1
 70
     0
  9
$USERI2
 70
     0
  9
$USERI3
 70
     0
  9
$USERI4
 70
     0
  9
$USERI5
 70
     0
  9
$USERR1
 40
0.0
  9
$USERR2
 40
0.0
  9
$USERR3
 40
0.0
  9
$USERR4
 40
0.0
  9
$USERR5
 40
0.0
  9
$WORLDVIEW
 70
     1
  9
$SHADEDGE
 70
     3
  9
$SHADEDIF
 70
    70
  9
$TILEMODE
 70
     1
  9
$MAXACTVP
 70
    16
  9
$PINSBASE
 10
0.0
 20
0.0
 30
0.0
  9
$PLIMCHECK
 70
     0
  9
$PEXTMIN
 10
1.000000E+20
 20
1.000000E+20
 30
1.000000E+20
  9
$PEXTMAX
 10
-1.000000E+20
 20
-1.000000E+20
 30
-1.000000E+20
  9
$PLIMMIN
 10
0.0
 20
0.0
  9
$PLIMMAX
 10
420.0
 20
297.0
  9
$UNITMODE
 70
     0
  9
$VISRETAIN
 70
     0
  9
$PLINEGEN
 70
     0
  9
$PSLTSCALE
 70
     1
  9
$TREEDEPTH
 70
  3020
  9
$PICKSTYLE
 70
     1
  9
$CMLSTYLE
  2
STANDARD
  9
$CMLJUST
 70
     0
  9
$CMLSCALE
 40
1.0
  9
$PROXYGRAPHICS
 70
     1
  9
$MEASUREMENT
 70
     0
  0
ENDSEC
  0
SECTION
  2
CLASSES
  0
CLASS
  1
DICTIONARYVAR
  2
AcDbDictionaryVar
  3
"AutoCAD"
 90
        0
280
     0
281
     0
  0
CLASS
  1
LWPOLYLINE
  2
AcDbPolyline
  3
"AutoCAD"
 90
        0
280
     0
281
     1
  0
ENDSEC
  0
SECTION
  2
TABLES
  0
TABLE
  2
VPORT
  5
1248
100
AcDbSymbolTable
 70
     2
  0
VPORT
  5
1275
100
AcDbSymbolTableRecord
100
AcDbViewportTableRecord
  2
*ACTIVE
 70
     0
 10
0.0
 20
0.0
 11
1.0
 21
1.0
 12
131.824561
 22
91.867376
 13
0.0
 23
0.0
 14
0.25
 24
0.25
 15
0.5
 25
0.5
 16
0.0
 26
0.0
 36
1.0
 17
0.0
 27
0.0
 37
0.0
 40
183.734751
 41
1.434944
 42
50.0
 43
0.0
 44
0.0
 50
0.0
 51
0.0
 71
     0
 72
 20000
 73
     1
 74
     1
 75
     1
 76
     1
 77
     0
 78
     0
  0
ENDTAB
  0
TABLE
  2
LTYPE
  5
1245
100
AcDbSymbolTable
 70
     3
  0
LTYPE
  5
1251
100
AcDbSymbolTableRecord
100
AcDbLinetypeTableRecord
  2
BYBLOCK
 70
     0
  3

 72
    65
 73
     0
 40
0.0
  0
LTYPE
  5
1252
100
AcDbSymbolTableRecord
100
AcDbLinetypeTableRecord
  2
BYLAYER
 70
     0
  3

 72
    65
 73
     0
 40
0.0
  0
LTYPE
  5
1253
100
AcDbSymbolTableRecord
100
AcDbLinetypeTableRecord
  2
CONTINUOUS
 70
     0
  3
Solid line
 72
    65
 73
     0
 40
0.0
  0
LTYPE
  5
125C
100
AcDbSymbolTableRecord
100
AcDbLinetypeTableRecord
  2
TENSEN
 70
     0
  3

 72
    65
 73
     2
 40
2.5
 49
1.5
 74
     0
 49
-1.0
 74
     0
  0
LTYPE
  5
125D
100
AcDbSymbolTableRecord
100
AcDbLinetypeTableRecord
  2
ITTEN
 70
     0
  3

 72
    65
 73
     4
 40
3.6
 49
2.0
 74
     0
 49
-0.5
 74
     0
 49
0.6
 74
     0
 49
-0.5
 74
     0
  0
ENDTAB
  0
TABLE
  2
LAYER
  5
1242
100
AcDbSymbolTable
 70
     4
  0
LAYER
  5
124E
100
AcDbSymbolTableRecord
100
AcDbLayerTableRecord
  2
0
 70
     0
 62
     7
  6
CONTINUOUS
  0
LAYER
  5
1269
100
AcDbSymbolTableRecord
100
AcDbLayerTableRecord
  2
2
 70
     0
 62
     2
  6
TENSEN
  0
LAYER
  5
126A
100
AcDbSymbolTableRecord
100
AcDbLayerTableRecord
  2
1
 70
     0
 62
     1
  6
ITTEN
  0
LAYER
  5
126B
100
AcDbSymbolTableRecord
100
AcDbLayerTableRecord
  2
3
 70
     0
 62
     3
  6
CONTINUOUS
  0
ENDTAB
  0
TABLE
  2
STYLE
  5
1243
100
AcDbSymbolTable
 70
     1
  0
STYLE
  5
124F
100
AcDbSymbolTableRecord
100
AcDbTextStyleTableRecord
  2
STANDARD
 70
     0
 40
7.0
 41
0.8
 50
0.0
 71
     0
 42
7.0
  3
ISOCP
  4
B:\r13\com\fonts\bigfont.shx
  0
ENDTAB
  0
TABLE
  2
VIEW
  5
1246
100
AcDbSymbolTable
 70
     0
  0
ENDTAB
  0
TABLE
  2
UCS
  5
1247
100
AcDbSymbolTable
 70
     0
  0
ENDTAB
  0
TABLE
  2
APPID
  5
1249
100
AcDbSymbolTable
 70
     1
  0
APPID
  5
1250
100
AcDbSymbolTableRecord
100
AcDbRegAppTableRecord
  2
ACAD
 70
     0
  0
ENDTAB
  0
TABLE
  2
DIMSTYLE
  5
124A
100
AcDbSymbolTable
 70
     8
  0
DIMSTYLE
105
125F
100
AcDbSymbolTableRecord
100
AcDbDimStyleTableRecord
  2
STANDARD
 70
     0
  3

  4

  5

  6

  7

 40
1.0
 41
0.18
 42
0.0625
 43
0.38
 44
0.18
 45
0.0
 46
0.0
 47
0.0
 48
0.0
140
0.18
141
0.09
142
0.0
143
25.4
144
1.0
145
0.0
146
1.0
147
0.09
 71
     0
 72
     0
 73
     1
 74
     1
 75
     0
 76
     0
 77
     0
 78
     0
170
     0
171
     2
172
     0
173
     0
174
     0
175
     0
176
     0
177
     0
178
     0
270
     2
271
     4
272
     4
273
     2
274
     2
340
124F
275
     0
280
     0
281
     0
282
     0
283
     1
284
     8
285
     8
286
     8
287
     5
288
     0
  0
DIMSTYLE
105
1260
100
AcDbSymbolTableRecord
100
AcDbDimStyleTableRecord
  2
ISO-25
 70
     0
  3

  4

  5

  6

  7

 40
1.0
 41
2.5
 42
0.625
 43
3.75
 44
1.25
 45
0.0
 46
0.0
 47
0.0
 48
0.0
140
2.5
141
2.5
142
0.0
143
0.0394
144
1.0
145
1.0
146
1.0
147
0.625
 71
     0
 72
     0
 73
     1
 74
     0
 75
     0
 76
     0
 77
     1
 78
     8
170
     0
171
     2
172
     1
173
     0
174
     0
175
     0
176
     0
177
     0
178
     0
270
     2
271
     4
272
     4
273
     2
274
     2
340
124F
275
     0
280
     0
281
     0
282
     0
283
     1
284
     8
285
     8
286
     8
287
     5
288
     0
  0
DIMSTYLE
105
1261
100
AcDbSymbolTableRecord
100
AcDbDimStyleTableRecord
  2
ISO-35
 70
     0
  3

  4

  5

  6

  7

 40
1.0
 41
3.5
 42
0.875
 43
5.25
 44
1.75
 45
0.0
 46
0.0
 47
0.0
 48
0.0
140
3.5
141
3.5
142
0.0
143
0.0394
144
1.0
145
1.4
146
1.0
147
0.875
 71
     0
 72
     0
 73
     1
 74
     0
 75
     0
 76
     0
 77
     1
 78
     8
170
     0
171
     2
172
     1
173
     0
174
     0
175
     0
176
     0
177
     0
178
     0
270
     2
271
     4
272
     4
273
     2
274
     2
340
124F
275
     0
280
     0
281
     0
282
     0
283
     1
284
     8
285
     8
286
     8
287
     5
288
     0
  0
DIMSTYLE
105
1262
100
AcDbSymbolTableRecord
100
AcDbDimStyleTableRecord
  2
ISO-5
 70
     0
  3

  4

  5

  6

  7

 40
1.0
 41
5.0
 42
1.25
 43
7.5
 44
2.5
 45
0.0
 46
0.0
 47
0.0
 48
0.0
140
5.0
141
5.0
142
0.0
143
0.0394
144
1.0
145
2.0
146
1.0
147
1.25
 71
     0
 72
     0
 73
     1
 74
     0
 75
     0
 76
     0
 77
     1
 78
     8
170
     0
171
     2
172
     1
173
     0
174
     0
175
     0
176
     0
177
     0
178
     0
270
     2
271
     4
272
     4
273
     2
274
     2
340
124F
275
     0
280
     0
281
     0
282
     0
283
     1
284
     8
285
     8
286
     8
287
     5
288
     0
  0
DIMSTYLE
105
1263
100
AcDbSymbolTableRecord
100
AcDbDimStyleTableRecord
  2
ISO-7
 70
     0
  3

  4

  5

  6

  7

 40
1.0
 41
7.0
 42
1.75
 43
10.5
 44
3.5
 45
0.0
 46
0.0
 47
0.0
 48
0.0
140
7.0
141
7.0
142
0.0
143
0.0394
144
1.0
145
2.8
146
1.0
147
1.75
 71
     0
 72
     0
 73
     1
 74
     0
 75
     0
 76
     0
 77
     1
 78
     8
170
     0
171
     2
172
     1
173
     0
174
     0
175
     0
176
     0
177
     0
178
     0
270
     2
271
     4
272
     4
273
     2
274
     2
340
124F
275
     0
280
     0
281
     0
282
     0
283
     1
284
     8
285
     8
286
     8
287
     5
288
     0
  0
DIMSTYLE
105
1264
100
AcDbSymbolTableRecord
100
AcDbDimStyleTableRecord
  2
ISO1
 70
     0
  3

  4

  5

  6

  7

 40
1.0
 41
10.0
 42
2.5
 43
15.0
 44
5.0
 45
0.0
 46
0.0
 47
0.0
 48
0.0
140
10.0
141
10.0
142
0.0
143
0.0394
144
1.0
145
4.0
146
1.0
147
2.5
 71
     0
 72
     0
 73
     1
 74
     0
 75
     0
 76
     0
 77
     1
 78
     8
170
     0
171
     2
172
     1
173
     0
174
     0
175
     0
176
     0
177
     0
178
     0
270
     2
271
     4
272
     4
273
     2
274
     2
340
124F
275
     0
280
     0
281
     0
282
     0
283
     1
284
     8
285
     8
286
     8
287
     5
288
     0
  0
DIMSTYLE
105
1265
100
AcDbSymbolTableRecord
100
AcDbDimStyleTableRecord
  2
ISO1-4
 70
     0
  3

  4

  5

  6

  7

 40
1.0
 41
14.0
 42
3.5
 43
21.0
 44
7.0
 45
0.0
 46
0.0
 47
0.0
 48
0.0
140
14.0
141
14.0
142
0.0
143
0.0394
144
1.0
145
5.6
146
1.0
147
3.5
 71
     0
 72
     0
 73
     1
 74
     0
 75
     0
 76
     0
 77
     1
 78
     8
170
     0
171
     2
172
     1
173
     0
174
     0
175
     0
176
     0
177
     0
178
     0
270
     2
271
     4
272
     4
273
     2
274
     2
340
124F
275
     0
280
     0
281
     0
282
     0
283
     1
284
     8
285
     8
286
     8
287
     5
288
     0
  0
DIMSTYLE
105
1266
100
AcDbSymbolTableRecord
100
AcDbDimStyleTableRecord
  2
ISO2
 70
     0
  3

  4

  5

  6

  7

 40
1.0
 41
20.0
 42
5.0
 43
30.0
 44
10.0
 45
0.0
 46
0.0
 47
0.0
 48
0.0
140
20.0
141
20.0
142
0.0
143
0.0394
144
1.0
145
8.0
146
1.0
147
5.0
 71
     0
 72
     0
 73
     1
 74
     0
 75
     0
 76
     0
 77
     1
 78
     8
170
     0
171
     2
172
     1
173
     0
174
     0
175
     0
176
     0
177
     0
178
     0
270
     2
271
     4
272
     4
273
     2
274
     2
340
124F
275
     0
280
     0
281
     0
282
     0
283
     1
284
     8
285
     8
286
     8
287
     5
288
     0
  0
ENDTAB
  0
TABLE
  2
BLOCK_RECORD
  5
1241
100
AcDbSymbolTable
 70
     0
  0
BLOCK_RECORD
  5
1257
100
AcDbSymbolTableRecord
100
AcDbBlockTableRecord
  2
*MODEL_SPACE
  0
BLOCK_RECORD
  5
1254
100
AcDbSymbolTableRecord
100
AcDbBlockTableRecord
  2
*PAPER_SPACE
  0
ENDTAB
  0
ENDSEC
  0
SECTION
  2
BLOCKS
  0
BLOCK
  5
126E
100
AcDbEntity
  8
0
100
AcDbBlockBegin
  2
*MODEL_SPACE
 70
     0
 10
0.0
 20
0.0
 30
0.0
  3
*MODEL_SPACE
  1

  0
ENDBLK
  5
126F
100
AcDbEntity
  8
0
100
AcDbBlockEnd
  0
BLOCK
  5
126C
100
AcDbEntity
 67
     1
  8
0
100
AcDbBlockBegin
  2
*PAPER_SPACE
 70
     0
 10
0.0
 20
0.0
 30
0.0
  3
*PAPER_SPACE
  1

  0
ENDBLK
  5
126D
100
AcDbEntity
 67
     1
  8
0
100
AcDbBlockEnd
  0
ENDSEC
  0
SECTION
  2
ENTITIES
  0
TEXT
  5
11C1
100
AcDbEntity
  8
0
100
AcDbText
 10
192.5
 20
30.5
 30
0.0
 40
7.0
  1
７０Ｓ
 41
0.8
100
AcDbText
  0
LINE
  5
11C2
100
AcDbEntity
  8
1
100
AcDbLine
 10
67.0
 20
82.5
 30
0.0
 11
67.0
 21
8.75
 31
0.0
  0
LINE
  5
11C3
100
AcDbEntity
  8
1
100
AcDbLine
 10
30.5
 20
45.25
 30
0.0
 11
103.75
 21
45.25
 31
0.0
  0
ARC
  5
11DB
100
AcDbEntity
  8
0
100
AcDbCircle
 10
67.0
 20
68.332402
 30
0.0
 40
11.917598
100
AcDbArc
 50
35.236426
 51
144.763574
  0
ARC
  5
11DC
100
AcDbEntity
  8
0
100
AcDbCircle
 10
98.253514
 20
88.266771
 30
0.0
 40
25.171654
100
AcDbArc
 50
211.250294
 51
256.749706
  0
ARC
  5
11DD
100
AcDbEntity
  8
0
100
AcDbCircle
 10
45.047331
 20
52.382854
 30
0.0
 40
11.917598
100
AcDbArc
 50
107.236426
 51
216.763574
  0
ARC
  5
11DE
100
AcDbEntity
  8
0
100
AcDbCircle
 10
35.746486
 20
88.266771
 30
0.0
 40
25.171654
100
AcDbArc
 50
283.250294
 51
328.749706
  0
ARC
  5
11DF
100
AcDbEntity
  8
0
100
AcDbCircle
 10
53.432505
 20
26.575945
 30
0.0
 40
11.917598
100
AcDbArc
 50
179.236426
 51
288.763574
  0
ARC
  5
11E0
100
AcDbEntity
  8
0
100
AcDbCircle
 10
16.430752
 20
28.819055
 30
0.0
 40
25.171654
100
AcDbArc
 50
355.250294
 51
40.749706
  0
ARC
  5
11E1
100
AcDbEntity
  8
0
100
AcDbCircle
 10
80.567495
 20
26.575945
 30
0.0
 40
11.917598
100
AcDbArc
 50
251.236426
 51
0.763574
  0
ARC
  5
11E2
100
AcDbEntity
  8
0
100
AcDbCircle
 10
67.0
 20
-7.921654
 30
0.0
 40
25.171654
100
AcDbArc
 50
67.250294
 51
112.749706
  0
ARC
  5
11E3
100
AcDbEntity
  8
0
100
AcDbCircle
 10
88.952669
 20
52.382854
 30
0.0
 40
11.917598
100
AcDbArc
 50
323.236426
 51
72.763574
  0
ARC
  5
11E4
100
AcDbEntity
  8
0
100
AcDbCircle
 10
117.569248
 20
28.819055
 30
0.0
 40
25.171654
100
AcDbArc
 50
139.250294
 51
184.749706
  0
CIRCLE
  5
11E5
100
AcDbEntity
  8
0
100
AcDbCircle
 10
67.0
 20
45.25
 30
0.0
 40
9.0
  0
LWPOLYLINE
  5
11E6
100
AcDbEntity
  8
0
100
AcDbPolyline
 90
        4
 70
     1
 43
0.0
 10
71.0
 20
49.25
 10
63.0
 20
49.25
 10
63.0
 20
41.25
 10
71.0
 20
41.25
  0
LWPOLYLINE
  5
11EC
100
AcDbEntity
  8
0
100
AcDbPolyline
 90
        4
 70
     1
 43
0.0
 10
72.0
 20
50.25
 10
62.0
 20
50.25
 10
62.0
 20
40.25
 10
72.0
 20
40.25
  0
LINE
  5
11F2
100
AcDbEntity
  8
1
100
AcDbLine
 10
30.5
 20
129.25
 30
0.0
 11
103.75
 21
129.25
 31
0.0
  0
ARC
  5
11F3
100
AcDbEntity
  8
0
100
AcDbCircle
 10
53.432505
 20
147.924055
 30
0.0
 40
11.917598
100
AcDbArc
 50
71.236426
 51
180.763574
  0
ARC
  5
11F4
100
AcDbEntity
  8
0
100
AcDbCircle
 10
35.746486
 20
86.233229
 30
0.0
 40
25.171654
100
AcDbArc
 50
31.250294
 51
76.749706
  0
ARC
  5
11F5
100
AcDbEntity
  8
0
100
AcDbCircle
 10
16.430752
 20
145.680945
 30
0.0
 40
25.171654
100
AcDbArc
 50
319.250294
 51
4.749706
  0
ARC
  5
11F6
100
AcDbEntity
  8
0
100
AcDbCircle
 10
45.047331
 20
122.117146
 30
0.0
 40
11.917598
100
AcDbArc
 50
143.236426
 51
252.763574
  0
ARC
  5
11F7
100
AcDbEntity
  8
0
100
AcDbCircle
 10
117.569248
 20
145.680945
 30
0.0
 40
25.171654
100
AcDbArc
 50
175.250294
 51
220.749706
  0
LINE
  5
11F8
100
AcDbEntity
  8
1
100
AcDbLine
 10
67.0
 20
92.0
 30
0.0
 11
67.0
 21
165.75
 31
0.0
  0
ARC
  5
11F9
100
AcDbEntity
  8
0
100
AcDbCircle
 10
80.567495
 20
147.924055
 30
0.0
 40
11.917598
100
AcDbArc
 50
359.236426
 51
108.763574
  0
ARC
  5
11FA
100
AcDbEntity
  8
0
100
AcDbCircle
 10
67.0
 20
182.421654
 30
0.0
 40
25.171654
100
AcDbArc
 50
247.250294
 51
292.749706
  0
ARC
  5
11FB
100
AcDbEntity
  8
0
100
AcDbCircle
 10
98.253514
 20
86.233229
 30
0.0
 40
25.171654
100
AcDbArc
 50
103.250294
 51
148.749706
  0
LWPOLYLINE
  5
11FD
100
AcDbEntity
  8
0
100
AcDbPolyline
 90
        4
 70
     1
 43
0.0
 10
71.0
 20
125.25
 10
63.0
 20
125.25
 10
63.0
 20
133.25
 10
71.0
 20
133.25
  0
LWPOLYLINE
  5
1203
100
AcDbEntity
  8
0
100
AcDbPolyline
 90
        4
 70
     1
 43
0.0
 10
72.0
 20
124.25
 10
62.0
 20
124.25
 10
62.0
 20
134.25
 10
72.0
 20
134.25
  0
ARC
  5
1209
100
AcDbEntity
  8
0
100
AcDbCircle
 10
67.0
 20
106.167598
 30
0.0
 40
11.917598
100
AcDbArc
 50
215.236426
 51
324.763574
  0
ARC
  5
120A
100
AcDbEntity
  8
0
100
AcDbCircle
 10
88.952669
 20
122.117146
 30
0.0
 40
11.917598
100
AcDbArc
 50
287.236426
 51
36.763574
  0
CIRCLE
  5
120B
100
AcDbEntity
  8
0
100
AcDbCircle
 10
67.0
 20
129.25
 30
0.0
 40
17.5
  0
LINE
  5
120C
100
AcDbEntity
  8
1
100
AcDbLine
 10
122.5
 20
45.25
 30
0.0
 11
151.75
 21
45.25
 31
0.0
  0
LINE
  5
120D
100
AcDbEntity
  8
0
100
AcDbLine
 10
148.0
 20
45.25
 30
0.0
 11
148.0
 21
62.971698
 31
0.0
  0
LINE
  5
120E
100
AcDbEntity
  8
0
100
AcDbLine
 10
145.0
 20
80.25
 30
0.0
 11
129.0
 21
80.25
 31
0.0
  0
LINE
  5
120F
100
AcDbEntity
  8
0
100
AcDbLine
 10
126.0
 20
54.25
 30
0.0
 11
126.0
 21
45.25
 31
0.0
  0
LINE
  5
1214
100
AcDbEntity
  8
2
100
AcDbLine
 10
126.0
 20
54.25
 30
0.0
 11
131.0
 21
54.25
 31
0.0
  0
LINE
  5
1215
100
AcDbEntity
  8
2
100
AcDbLine
 10
131.0
 20
54.25
 30
0.0
 11
131.0
 21
45.25
 31
0.0
  0
LINE
  5
121A
100
AcDbEntity
  8
2
100
AcDbLine
 10
145.0
 20
45.25
 30
0.0
 11
145.0
 21
62.75
 31
0.0
  0
LINE
  5
121B
100
AcDbEntity
  8
2
100
AcDbLine
 10
145.0
 20
62.75
 30
0.0
 11
148.0
 21
62.75
 31
0.0
  0
ARC
  5
121C
100
AcDbEntity
  8
0
100
AcDbCircle
 10
241.291667
 20
54.120192
 30
0.0
 40
115.29174
100
AcDbArc
 50
166.90062
 51
179.93549
  0
ARC
  5
121D
100
AcDbEntity
  8
0
100
AcDbCircle
 10
96.104953
 20
62.860849
 30
0.0
 40
51.895166
100
AcDbArc
 50
359.877615
 51
19.577542
  0
LINE
  5
1220
100
AcDbEntity
  8
2
100
AcDbLine
 10
131.0
 20
49.25
 30
0.0
 11
145.0
 21
49.25
 31
0.0
  0
LINE
  5
1221
100
AcDbEntity
  8
0
100
AcDbLine
 10
148.0
 20
45.25
 30
0.0
 11
148.0
 21
27.528302
 31
0.0
  0
ARC
  5
1222
100
AcDbEntity
  8
0
100
AcDbCircle
 10
207.245784
 20
36.374419
 30
0.0
 40
81.24588
100
AcDbArc
 50
180.087742
 51
195.618885
  0
LINE
  5
1223
100
AcDbEntity
  8
2
100
AcDbLine
 10
145.0
 20
45.25
 30
0.0
 11
145.0
 21
27.75
 31
0.0
  0
LINE
  5
1224
100
AcDbEntity
  8
2
100
AcDbLine
 10
131.0
 20
41.25
 30
0.0
 11
145.0
 21
41.25
 31
0.0
  0
LINE
  5
1225
100
AcDbEntity
  8
0
100
AcDbLine
 10
126.0
 20
36.25
 30
0.0
 11
126.0
 21
45.25
 31
0.0
  0
LINE
  5
1226
100
AcDbEntity
  8
2
100
AcDbLine
 10
131.0
 20
36.25
 30
0.0
 11
131.0
 21
45.25
 31
0.0
  0
LINE
  5
1227
100
AcDbEntity
  8
2
100
AcDbLine
 10
126.0
 20
36.25
 30
0.0
 11
131.0
 21
36.25
 31
0.0
  0
LINE
  5
1228
100
AcDbEntity
  8
0
100
AcDbLine
 10
145.0
 20
14.5
 30
0.0
 11
129.0
 21
14.5
 31
0.0
  0
ARC
  5
1229
100
AcDbEntity
  8
0
100
AcDbCircle
 10
117.459554
 20
27.700195
 30
0.0
 40
30.540486
100
AcDbArc
 50
334.391499
 51
0.093437
  0
LINE
  5
122A
100
AcDbEntity
  8
2
100
AcDbLine
 10
145.0
 20
27.75
 30
0.0
 11
148.0
 21
27.75
 31
0.0
  0
LINE
  5
122B
100
AcDbEntity
  8
0
100
AcDbLine
 10
130.25
 20
75.75
 30
0.0
 11
143.5
 21
75.75
 31
0.0
  0
LINE
  5
122C
100
AcDbEntity
  8
0
100
AcDbLine
 10
130.25
 20
63.0
 30
0.0
 11
143.5
 21
63.0
 31
0.0
  0
LINE
  5
122D
100
AcDbEntity
  8
0
100
AcDbLine
 10
130.25
 20
47.0
 30
0.0
 11
143.5
 21
47.0
 31
0.0
  0
LINE
  5
122E
100
AcDbEntity
  8
0
100
AcDbLine
 10
130.25
 20
25.25
 30
0.0
 11
143.5
 21
25.25
 31
0.0
  0
ARC
  5
122F
100
AcDbEntity
  8
0
100
AcDbCircle
 10
22.142591
 20
32.313699
 30
0.0
 40
124.14214
100
AcDbArc
 50
351.749898
 51
6.445659
  0
ARC
  5
1230
100
AcDbEntity
  8
0
100
AcDbCircle
 10
106.896898
 20
70.404197
 30
0.0
 40
39.354621
100
AcDbArc
 50
348.784894
 51
14.48826
  0
ARC
  5
1231
100
AcDbEntity
  8
0
100
AcDbCircle
 10
211.125
 20
54.375
 30
0.0
 40
66.126063
100
AcDbArc
 50
172.942153
 51
187.057847
  0
ARC
  5
1232
100
AcDbEntity
  8
0
100
AcDbCircle
 10
167.103102
 20
70.404197
 30
0.0
 40
39.354621
100
AcDbArc
 50
165.51174
 51
191.215106
  0
ARC
  5
1233
100
AcDbEntity
  8
0
100
AcDbCircle
 10
62.875
 20
54.375
 30
0.0
 40
66.126063
100
AcDbArc
 50
352.942153
 51
7.057847
  0
ARC
  5
1234
100
AcDbEntity
  8
0
100
AcDbCircle
 10
251.857409
 20
32.313699
 30
0.0
 40
124.14214
100
AcDbArc
 50
173.554341
 51
188.250102
  0
LINE
  5
1235
100
AcDbEntity
  8
2
100
AcDbLine
 10
131.0
 20
49.25
 30
0.0
 11
145.0
 21
41.25
 31
0.0
  0
LINE
  5
1236
100
AcDbEntity
  8
2
100
AcDbLine
 10
145.0
 20
49.25
 30
0.0
 11
131.0
 21
41.25
 31
0.0
  0
VIEWPORT
  5
22
100
AcDbEntity
 67
     1
  8
0
100
AcDbViewport
 10
261.517699
 20
148.5
 30
0.0
 40
523.035398
 41
297.0
 68
    -1
 69
     1
1001
ACAD
1000
MVIEW
1002
{
1070
    16
1010
0.0
1020
0.0
1030
0.0
1010
0.0
1020
0.0
1030
1.0
1040
0.0
1040
297.0
1040
261.517699
1040
148.5
1040
50.0
1040
0.0
1040
0.0
1070
     0
1070
   100
1070
     1
1070
     1
1070
     0
1070
     0
1070
     0
1070
     0
1040
0.0
1040
0.0
1040
0.0
1040
1.0
1040
1.0
1040
10.0
1040
10.0
1070
     0
1002
{
1002
}
1002
}
  0
ENDSEC
  0
SECTION
  2
OBJECTS
  0
DICTIONARY
  5
124C
100
AcDbDictionary
  3
ACAD_GROUP
350
124D
  3
ACAD_MLINESTYLE
350
125A
  3
ACDBVARIABLEDICTIONARY
350
1270
  0
DICTIONARY
  5
124D
102
{ACAD_REACTORS
330
124C
102
}
100
AcDbDictionary
  0
DICTIONARY
  5
125A
102
{ACAD_REACTORS
330
124C
102
}
100
AcDbDictionary
  3
STANDARD
350
125B
  0
DICTIONARY
  5
1270
102
{ACAD_REACTORS
330
124C
102
}
100
AcDbDictionary
  3
DIMADEC
350
1271
  0
MLINESTYLE
  5
125B
102
{ACAD_REACTORS
330
125A
102
}
100
AcDbMlineStyle
  2
STANDARD
 70
     0
  3

 62
   256
 51
90.0
 52
90.0
 71
     2
 49
0.5
 62
   256
  6
BYLAYER
 49
-0.5
 62
   256
  6
BYLAYER
  0
DICTIONARYVAR
  5
1271
102
{ACAD_REACTORS
330
1270
102
}
100
DictionaryVariables
280
     0
  1
0
  0
ENDSEC
  0
EOF
