  0
SECTION
  2
HEADER
  9
$ACADVER
  1
AC1014
  9
$ACADMAINTVER
 70
     0
  9
$DWGCODEPAGE
  3
ANSI_932
  9
$INSBASE
 10
0.0
 20
0.0
 30
0.0
  9
$EXTMIN
 10
42.75
 20
1.716667
 30
0.0
  9
$EXTMAX
 10
231.986667
 20
162.5
 30
0.0
  9
$LIMMIN
 10
0.0
 20
0.0
  9
$LIMMAX
 10
220.0
 20
170.0
  9
$ORTHOMODE
 70
     1
  9
$REGENMODE
 70
     1
  9
$FILLMODE
 70
     1
  9
$QTEXTMODE
 70
     0
  9
$MIRRTEXT
 70
     1
  9
$DRAGMODE
 70
     2
  9
$LTSCALE
 40
1.0
  9
$OSMODE
 70
     0
  9
$ATTMODE
 70
     1
  9
$TEXTSIZE
 40
7.0
  9
$TRACEWID
 40
1.0
  9
$TEXTSTYLE
  7
STANDARD
  9
$CLAYER
  8
0
  9
$CELTYPE
  6
BYLAYER
  9
$CECOLOR
 62
   256
  9
$CELTSCALE
 40
1.0
  9
$DELOBJ
 70
     1
  9
$DISPSILH
 70
     0
  9
$DIMSCALE
 40
1.0
  9
$DIMASZ
 40
2.5
  9
$DIMEXO
 40
0.625
  9
$DIMDLI
 40
3.75
  9
$DIMRND
 40
0.0
  9
$DIMDLE
 40
0.0
  9
$DIMEXE
 40
1.25
  9
$DIMTP
 40
0.0
  9
$DIMTM
 40
0.0
  9
$DIMTXT
 40
2.5
  9
$DIMCEN
 40
2.5
  9
$DIMTSZ
 40
0.0
  9
$DIMTOL
 70
     0
  9
$DIMLIM
 70
     0
  9
$DIMTIH
 70
     1
  9
$DIMTOH
 70
     0
  9
$DIMSE1
 70
     0
  9
$DIMSE2
 70
     0
  9
$DIMTAD
 70
     1
  9
$DIMZIN
 70
     8
  9
$DIMBLK
  1

  9
$DIMASO
 70
     1
  9
$DIMSHO
 70
     1
  9
$DIMPOST
  1

  9
$DIMAPOST
  1

  9
$DIMALT
 70
     0
  9
$DIMALTD
 70
     2
  9
$DIMALTF
 40
0.0394
  9
$DIMLFAC
 40
1.0
  9
$DIMTOFL
 70
     1
  9
$DIMTVP
 40
1.0
  9
$DIMTIX
 70
     0
  9
$DIMSOXD
 70
     0
  9
$DIMSAH
 70
     0
  9
$DIMBLK1
  1

  9
$DIMBLK2
  1

  9
$DIMSTYLE
  2
ISO-25
  9
$DIMCLRD
 70
     0
  9
$DIMCLRE
 70
     0
  9
$DIMCLRT
 70
     0
  9
$DIMTFAC
 40
1.0
  9
$DIMGAP
 40
0.625
  9
$DIMJUST
 70
     0
  9
$DIMSD1
 70
     0
  9
$DIMSD2
 70
     0
  9
$DIMTOLJ
 70
     1
  9
$DIMTZIN
 70
     8
  9
$DIMALTZ
 70
     8
  9
$DIMALTTZ
 70
     8
  9
$DIMFIT
 70
     5
  9
$DIMUPT
 70
     0
  9
$DIMUNIT
 70
     2
  9
$DIMDEC
 70
     4
  9
$DIMTDEC
 70
     4
  9
$DIMALTU
 70
     2
  9
$DIMALTTD
 70
     2
  9
$DIMTXSTY
  7
STANDARD
  9
$DIMAUNIT
 70
     0
  9
$LUNITS
 70
     2
  9
$LUPREC
 70
     4
  9
$SKETCHINC
 40
1.0
  9
$FILLETRAD
 40
2.0
  9
$AUNITS
 70
     0
  9
$AUPREC
 70
     0
  9
$MENU
  1
.
  9
$ELEVATION
 40
0.0
  9
$PELEVATION
 40
0.0
  9
$THICKNESS
 40
0.0
  9
$LIMCHECK
 70
     0
  9
$BLIPMODE
 70
     1
  9
$CHAMFERA
 40
0.5
  9
$CHAMFERB
 40
0.5
  9
$CHAMFERC
 40
0.0
  9
$CHAMFERD
 40
0.0
  9
$SKPOLY
 70
     0
  9
$TDCREATE
 40
2450687.671273148
  9
$TDUPDATE
 40
2453550.771513125
  9
$TDINDWG
 40
0.0000822801
  9
$TDUSRTIMER
 40
0.0000822801
  9
$USRTIMER
 70
     1
  9
$ANGBASE
 50
0.0
  9
$ANGDIR
 70
     0
  9
$PDMODE
 70
     0
  9
$PDSIZE
 40
0.0
  9
$PLINEWID
 40
0.0
  9
$COORDS
 70
     2
  9
$SPLFRAME
 70
     0
  9
$SPLINETYPE
 70
     6
  9
$SPLINESEGS
 70
     8
  9
$ATTDIA
 70
     0
  9
$ATTREQ
 70
     1
  9
$HANDLING
 70
     1
  9
$HANDSEED
  5
1179
  9
$SURFTAB1
 70
     6
  9
$SURFTAB2
 70
     6
  9
$SURFTYPE
 70
     6
  9
$SURFU
 70
     6
  9
$SURFV
 70
     6
  9
$UCSNAME
  2

  9
$UCSORG
 10
0.0
 20
0.0
 30
0.0
  9
$UCSXDIR
 10
1.0
 20
0.0
 30
0.0
  9
$UCSYDIR
 10
0.0
 20
1.0
 30
0.0
  9
$PUCSNAME
  2

  9
$PUCSORG
 10
0.0
 20
0.0
 30
0.0
  9
$PUCSXDIR
 10
1.0
 20
0.0
 30
0.0
  9
$PUCSYDIR
 10
0.0
 20
1.0
 30
0.0
  9
$USERI1
 70
     0
  9
$USERI2
 70
     0
  9
$USERI3
 70
     0
  9
$USERI4
 70
     0
  9
$USERI5
 70
     0
  9
$USERR1
 40
0.0
  9
$USERR2
 40
0.0
  9
$USERR3
 40
0.0
  9
$USERR4
 40
0.0
  9
$USERR5
 40
0.0
  9
$WORLDVIEW
 70
     1
  9
$SHADEDGE
 70
     3
  9
$SHADEDIF
 70
    70
  9
$TILEMODE
 70
     1
  9
$MAXACTVP
 70
    16
  9
$PINSBASE
 10
0.0
 20
0.0
 30
0.0
  9
$PLIMCHECK
 70
     0
  9
$PEXTMIN
 10
1.000000E+20
 20
1.000000E+20
 30
1.000000E+20
  9
$PEXTMAX
 10
-1.000000E+20
 20
-1.000000E+20
 30
-1.000000E+20
  9
$PLIMMIN
 10
0.0
 20
0.0
  9
$PLIMMAX
 10
420.0
 20
297.0
  9
$UNITMODE
 70
     0
  9
$VISRETAIN
 70
     0
  9
$PLINEGEN
 70
     0
  9
$PSLTSCALE
 70
     1
  9
$TREEDEPTH
 70
  3020
  9
$PICKSTYLE
 70
     1
  9
$CMLSTYLE
  2
STANDARD
  9
$CMLJUST
 70
     0
  9
$CMLSCALE
 40
1.0
  9
$PROXYGRAPHICS
 70
     1
  9
$MEASUREMENT
 70
     0
  0
ENDSEC
  0
SECTION
  2
CLASSES
  0
CLASS
  1
DICTIONARYVAR
  2
AcDbDictionaryVar
  3
"AutoCAD"
 90
        0
280
     0
281
     0
  0
CLASS
  1
LWPOLYLINE
  2
AcDbPolyline
  3
"AutoCAD"
 90
        0
280
     0
281
     1
  0
ENDSEC
  0
SECTION
  2
TABLES
  0
TABLE
  2
VPORT
  5
114B
100
AcDbSymbolTable
 70
     2
  0
VPORT
  5
1178
100
AcDbSymbolTableRecord
100
AcDbViewportTableRecord
  2
*ACTIVE
 70
     0
 10
0.0
 20
0.0
 11
1.0
 21
1.0
 12
131.824561
 22
91.867376
 13
0.0
 23
0.0
 14
0.25
 24
0.25
 15
0.5
 25
0.5
 16
0.0
 26
0.0
 36
1.0
 17
0.0
 27
0.0
 37
0.0
 40
183.734751
 41
1.434944
 42
50.0
 43
0.0
 44
0.0
 50
0.0
 51
0.0
 71
     0
 72
 20000
 73
     1
 74
     1
 75
     1
 76
     1
 77
     0
 78
     0
  0
ENDTAB
  0
TABLE
  2
LTYPE
  5
1148
100
AcDbSymbolTable
 70
     3
  0
LTYPE
  5
1154
100
AcDbSymbolTableRecord
100
AcDbLinetypeTableRecord
  2
BYBLOCK
 70
     0
  3

 72
    65
 73
     0
 40
0.0
  0
LTYPE
  5
1155
100
AcDbSymbolTableRecord
100
AcDbLinetypeTableRecord
  2
BYLAYER
 70
     0
  3

 72
    65
 73
     0
 40
0.0
  0
LTYPE
  5
1156
100
AcDbSymbolTableRecord
100
AcDbLinetypeTableRecord
  2
CONTINUOUS
 70
     0
  3
Solid line
 72
    65
 73
     0
 40
0.0
  0
LTYPE
  5
115F
100
AcDbSymbolTableRecord
100
AcDbLinetypeTableRecord
  2
TENSEN
 70
     0
  3

 72
    65
 73
     2
 40
2.5
 49
1.5
 74
     0
 49
-1.0
 74
     0
  0
LTYPE
  5
1160
100
AcDbSymbolTableRecord
100
AcDbLinetypeTableRecord
  2
ITTEN
 70
     0
  3

 72
    65
 73
     4
 40
3.6
 49
2.0
 74
     0
 49
-0.5
 74
     0
 49
0.6
 74
     0
 49
-0.5
 74
     0
  0
ENDTAB
  0
TABLE
  2
LAYER
  5
1145
100
AcDbSymbolTable
 70
     4
  0
LAYER
  5
1151
100
AcDbSymbolTableRecord
100
AcDbLayerTableRecord
  2
0
 70
     0
 62
     7
  6
CONTINUOUS
  0
LAYER
  5
116C
100
AcDbSymbolTableRecord
100
AcDbLayerTableRecord
  2
2
 70
     0
 62
     2
  6
TENSEN
  0
LAYER
  5
116D
100
AcDbSymbolTableRecord
100
AcDbLayerTableRecord
  2
1
 70
     0
 62
     1
  6
ITTEN
  0
LAYER
  5
116E
100
AcDbSymbolTableRecord
100
AcDbLayerTableRecord
  2
3
 70
     0
 62
     3
  6
CONTINUOUS
  0
ENDTAB
  0
TABLE
  2
STYLE
  5
1146
100
AcDbSymbolTable
 70
     1
  0
STYLE
  5
1152
100
AcDbSymbolTableRecord
100
AcDbTextStyleTableRecord
  2
STANDARD
 70
     0
 40
7.0
 41
0.8
 50
0.0
 71
     0
 42
7.0
  3
ISOCP
  4
B:\r13\com\fonts\bigfont.shx
  0
ENDTAB
  0
TABLE
  2
VIEW
  5
1149
100
AcDbSymbolTable
 70
     0
  0
ENDTAB
  0
TABLE
  2
UCS
  5
114A
100
AcDbSymbolTable
 70
     0
  0
ENDTAB
  0
TABLE
  2
APPID
  5
114C
100
AcDbSymbolTable
 70
     1
  0
APPID
  5
1153
100
AcDbSymbolTableRecord
100
AcDbRegAppTableRecord
  2
ACAD
 70
     0
  0
ENDTAB
  0
TABLE
  2
DIMSTYLE
  5
114D
100
AcDbSymbolTable
 70
     8
  0
DIMSTYLE
105
1162
100
AcDbSymbolTableRecord
100
AcDbDimStyleTableRecord
  2
STANDARD
 70
     0
  3

  4

  5

  6

  7

 40
1.0
 41
0.18
 42
0.0625
 43
0.38
 44
0.18
 45
0.0
 46
0.0
 47
0.0
 48
0.0
140
0.18
141
0.09
142
0.0
143
25.4
144
1.0
145
0.0
146
1.0
147
0.09
 71
     0
 72
     0
 73
     1
 74
     1
 75
     0
 76
     0
 77
     0
 78
     0
170
     0
171
     2
172
     0
173
     0
174
     0
175
     0
176
     0
177
     0
178
     0
270
     2
271
     4
272
     4
273
     2
274
     2
340
1152
275
     0
280
     0
281
     0
282
     0
283
     1
284
     8
285
     8
286
     8
287
     5
288
     0
  0
DIMSTYLE
105
1163
100
AcDbSymbolTableRecord
100
AcDbDimStyleTableRecord
  2
ISO-25
 70
     0
  3

  4

  5

  6

  7

 40
1.0
 41
2.5
 42
0.625
 43
3.75
 44
1.25
 45
0.0
 46
0.0
 47
0.0
 48
0.0
140
2.5
141
2.5
142
0.0
143
0.0394
144
1.0
145
1.0
146
1.0
147
0.625
 71
     0
 72
     0
 73
     1
 74
     0
 75
     0
 76
     0
 77
     1
 78
     8
170
     0
171
     2
172
     1
173
     0
174
     0
175
     0
176
     0
177
     0
178
     0
270
     2
271
     4
272
     4
273
     2
274
     2
340
1152
275
     0
280
     0
281
     0
282
     0
283
     1
284
     8
285
     8
286
     8
287
     5
288
     0
  0
DIMSTYLE
105
1164
100
AcDbSymbolTableRecord
100
AcDbDimStyleTableRecord
  2
ISO-35
 70
     0
  3

  4

  5

  6

  7

 40
1.0
 41
3.5
 42
0.875
 43
5.25
 44
1.75
 45
0.0
 46
0.0
 47
0.0
 48
0.0
140
3.5
141
3.5
142
0.0
143
0.0394
144
1.0
145
1.4
146
1.0
147
0.875
 71
     0
 72
     0
 73
     1
 74
     0
 75
     0
 76
     0
 77
     1
 78
     8
170
     0
171
     2
172
     1
173
     0
174
     0
175
     0
176
     0
177
     0
178
     0
270
     2
271
     4
272
     4
273
     2
274
     2
340
1152
275
     0
280
     0
281
     0
282
     0
283
     1
284
     8
285
     8
286
     8
287
     5
288
     0
  0
DIMSTYLE
105
1165
100
AcDbSymbolTableRecord
100
AcDbDimStyleTableRecord
  2
ISO-5
 70
     0
  3

  4

  5

  6

  7

 40
1.0
 41
5.0
 42
1.25
 43
7.5
 44
2.5
 45
0.0
 46
0.0
 47
0.0
 48
0.0
140
5.0
141
5.0
142
0.0
143
0.0394
144
1.0
145
2.0
146
1.0
147
1.25
 71
     0
 72
     0
 73
     1
 74
     0
 75
     0
 76
     0
 77
     1
 78
     8
170
     0
171
     2
172
     1
173
     0
174
     0
175
     0
176
     0
177
     0
178
     0
270
     2
271
     4
272
     4
273
     2
274
     2
340
1152
275
     0
280
     0
281
     0
282
     0
283
     1
284
     8
285
     8
286
     8
287
     5
288
     0
  0
DIMSTYLE
105
1166
100
AcDbSymbolTableRecord
100
AcDbDimStyleTableRecord
  2
ISO-7
 70
     0
  3

  4

  5

  6

  7

 40
1.0
 41
7.0
 42
1.75
 43
10.5
 44
3.5
 45
0.0
 46
0.0
 47
0.0
 48
0.0
140
7.0
141
7.0
142
0.0
143
0.0394
144
1.0
145
2.8
146
1.0
147
1.75
 71
     0
 72
     0
 73
     1
 74
     0
 75
     0
 76
     0
 77
     1
 78
     8
170
     0
171
     2
172
     1
173
     0
174
     0
175
     0
176
     0
177
     0
178
     0
270
     2
271
     4
272
     4
273
     2
274
     2
340
1152
275
     0
280
     0
281
     0
282
     0
283
     1
284
     8
285
     8
286
     8
287
     5
288
     0
  0
DIMSTYLE
105
1167
100
AcDbSymbolTableRecord
100
AcDbDimStyleTableRecord
  2
ISO1
 70
     0
  3

  4

  5

  6

  7

 40
1.0
 41
10.0
 42
2.5
 43
15.0
 44
5.0
 45
0.0
 46
0.0
 47
0.0
 48
0.0
140
10.0
141
10.0
142
0.0
143
0.0394
144
1.0
145
4.0
146
1.0
147
2.5
 71
     0
 72
     0
 73
     1
 74
     0
 75
     0
 76
     0
 77
     1
 78
     8
170
     0
171
     2
172
     1
173
     0
174
     0
175
     0
176
     0
177
     0
178
     0
270
     2
271
     4
272
     4
273
     2
274
     2
340
1152
275
     0
280
     0
281
     0
282
     0
283
     1
284
     8
285
     8
286
     8
287
     5
288
     0
  0
DIMSTYLE
105
1168
100
AcDbSymbolTableRecord
100
AcDbDimStyleTableRecord
  2
ISO1-4
 70
     0
  3

  4

  5

  6

  7

 40
1.0
 41
14.0
 42
3.5
 43
21.0
 44
7.0
 45
0.0
 46
0.0
 47
0.0
 48
0.0
140
14.0
141
14.0
142
0.0
143
0.0394
144
1.0
145
5.6
146
1.0
147
3.5
 71
     0
 72
     0
 73
     1
 74
     0
 75
     0
 76
     0
 77
     1
 78
     8
170
     0
171
     2
172
     1
173
     0
174
     0
175
     0
176
     0
177
     0
178
     0
270
     2
271
     4
272
     4
273
     2
274
     2
340
1152
275
     0
280
     0
281
     0
282
     0
283
     1
284
     8
285
     8
286
     8
287
     5
288
     0
  0
DIMSTYLE
105
1169
100
AcDbSymbolTableRecord
100
AcDbDimStyleTableRecord
  2
ISO2
 70
     0
  3

  4

  5

  6

  7

 40
1.0
 41
20.0
 42
5.0
 43
30.0
 44
10.0
 45
0.0
 46
0.0
 47
0.0
 48
0.0
140
20.0
141
20.0
142
0.0
143
0.0394
144
1.0
145
8.0
146
1.0
147
5.0
 71
     0
 72
     0
 73
     1
 74
     0
 75
     0
 76
     0
 77
     1
 78
     8
170
     0
171
     2
172
     1
173
     0
174
     0
175
     0
176
     0
177
     0
178
     0
270
     2
271
     4
272
     4
273
     2
274
     2
340
1152
275
     0
280
     0
281
     0
282
     0
283
     1
284
     8
285
     8
286
     8
287
     5
288
     0
  0
ENDTAB
  0
TABLE
  2
BLOCK_RECORD
  5
1144
100
AcDbSymbolTable
 70
     0
  0
BLOCK_RECORD
  5
115A
100
AcDbSymbolTableRecord
100
AcDbBlockTableRecord
  2
*MODEL_SPACE
  0
BLOCK_RECORD
  5
1157
100
AcDbSymbolTableRecord
100
AcDbBlockTableRecord
  2
*PAPER_SPACE
  0
ENDTAB
  0
ENDSEC
  0
SECTION
  2
BLOCKS
  0
BLOCK
  5
1171
100
AcDbEntity
  8
0
100
AcDbBlockBegin
  2
*MODEL_SPACE
 70
     0
 10
0.0
 20
0.0
 30
0.0
  3
*MODEL_SPACE
  1

  0
ENDBLK
  5
1172
100
AcDbEntity
  8
0
100
AcDbBlockEnd
  0
BLOCK
  5
116F
100
AcDbEntity
 67
     1
  8
0
100
AcDbBlockBegin
  2
*PAPER_SPACE
 70
     0
 10
0.0
 20
0.0
 30
0.0
  3
*PAPER_SPACE
  1

  0
ENDBLK
  5
1170
100
AcDbEntity
 67
     1
  8
0
100
AcDbBlockEnd
  0
ENDSEC
  0
SECTION
  2
ENTITIES
  0
LINE
  5
10A0
100
AcDbEntity
  8
1
100
AcDbLine
 10
42.75
 20
53.5
 30
0.0
 11
99.25
 21
53.5
 31
0.0
  0
LINE
  5
10A1
100
AcDbEntity
  8
1
100
AcDbLine
 10
71.0
 20
81.75
 30
0.0
 11
71.0
 21
25.5
 31
0.0
  0
ARC
  5
10DE
100
AcDbEntity
  8
0
100
AcDbCircle
 10
71.0
 20
69.98743
 30
0.0
 40
8.51257
100
AcDbArc
 50
35.236426
 51
144.763574
  0
ARC
  5
10DF
100
AcDbEntity
  8
0
100
AcDbCircle
 10
93.323938
 20
84.226265
 30
0.0
 40
17.979753
100
AcDbArc
 50
211.250294
 51
256.749706
  0
ARC
  5
10E0
100
AcDbEntity
  8
0
100
AcDbCircle
 10
55.319522
 20
58.594896
 30
0.0
 40
8.51257
100
AcDbArc
 50
107.236426
 51
216.763574
  0
ARC
  5
10E1
100
AcDbEntity
  8
0
100
AcDbCircle
 10
48.676062
 20
84.226265
 30
0.0
 40
17.979753
100
AcDbArc
 50
283.250294
 51
328.749706
  0
ARC
  5
10E2
100
AcDbEntity
  8
0
100
AcDbCircle
 10
61.308932
 20
40.161389
 30
0.0
 40
8.51257
100
AcDbArc
 50
179.236426
 51
288.763574
  0
ARC
  5
10E3
100
AcDbEntity
  8
0
100
AcDbCircle
 10
34.879109
 20
41.763611
 30
0.0
 40
17.979753
100
AcDbArc
 50
355.250294
 51
40.749706
  0
ARC
  5
10E4
100
AcDbEntity
  8
0
100
AcDbCircle
 10
80.691068
 20
40.161389
 30
0.0
 40
8.51257
100
AcDbArc
 50
251.236426
 51
0.763574
  0
ARC
  5
10E5
100
AcDbEntity
  8
0
100
AcDbCircle
 10
71.0
 20
15.520247
 30
0.0
 40
17.979753
100
AcDbArc
 50
67.250294
 51
112.749706
  0
ARC
  5
10E6
100
AcDbEntity
  8
0
100
AcDbCircle
 10
86.680478
 20
58.594896
 30
0.0
 40
8.51257
100
AcDbArc
 50
323.236426
 51
72.763574
  0
ARC
  5
10E7
100
AcDbEntity
  8
0
100
AcDbCircle
 10
107.120891
 20
41.763611
 30
0.0
 40
17.979753
100
AcDbArc
 50
139.250294
 51
184.749706
  0
CIRCLE
  5
10E8
100
AcDbEntity
  8
0
100
AcDbCircle
 10
71.0
 20
53.5
 30
0.0
 40
7.0
  0
LWPOLYLINE
  5
10E9
100
AcDbEntity
  8
0
100
AcDbPolyline
 90
        4
 70
     1
 43
0.0
 10
74.0
 20
56.5
 10
68.0
 20
56.5
 10
68.0
 20
50.5
 10
74.0
 20
50.5
  0
LWPOLYLINE
  5
10EF
100
AcDbEntity
  8
0
100
AcDbPolyline
 90
        4
 70
     1
 43
0.0
 10
75.0
 20
57.5
 10
67.0
 20
57.5
 10
67.0
 20
49.5
 10
75.0
 20
49.5
  0
LINE
  5
10F5
100
AcDbEntity
  8
1
100
AcDbLine
 10
42.75
 20
134.5
 30
0.0
 11
99.25
 21
134.5
 31
0.0
  0
ARC
  5
10F6
100
AcDbEntity
  8
0
100
AcDbCircle
 10
80.691068
 20
147.838611
 30
0.0
 40
8.51257
100
AcDbArc
 50
359.236426
 51
108.763574
  0
ARC
  5
10F7
100
AcDbEntity
  8
0
100
AcDbCircle
 10
61.308932
 20
147.838611
 30
0.0
 40
8.51257
100
AcDbArc
 50
71.236426
 51
180.763574
  0
LINE
  5
10F8
100
AcDbEntity
  8
1
100
AcDbLine
 10
71.0
 20
106.25
 30
0.0
 11
71.0
 21
162.5
 31
0.0
  0
ARC
  5
10F9
100
AcDbEntity
  8
0
100
AcDbCircle
 10
93.323938
 20
103.773735
 30
0.0
 40
17.979753
100
AcDbArc
 50
103.250294
 51
148.749706
  0
ARC
  5
10FB
100
AcDbEntity
  8
0
100
AcDbCircle
 10
55.319522
 20
129.405104
 30
0.0
 40
8.51257
100
AcDbArc
 50
143.236426
 51
252.763574
  0
ARC
  5
10FC
100
AcDbEntity
  8
0
100
AcDbCircle
 10
34.879109
 20
146.236389
 30
0.0
 40
17.979753
100
AcDbArc
 50
319.250294
 51
4.749706
  0
ARC
  5
10FD
100
AcDbEntity
  8
0
100
AcDbCircle
 10
71.0
 20
172.479753
 30
0.0
 40
17.979753
100
AcDbArc
 50
247.250294
 51
292.749706
  0
LWPOLYLINE
  5
10FE
100
AcDbEntity
  8
0
100
AcDbPolyline
 90
        4
 70
     1
 43
0.0
 10
75.0
 20
130.5
 10
67.0
 20
130.5
 10
67.0
 20
138.5
 10
75.0
 20
138.5
  0
LWPOLYLINE
  5
1104
100
AcDbEntity
  8
0
100
AcDbPolyline
 90
        4
 70
     1
 43
0.0
 10
74.0
 20
131.5
 10
68.0
 20
131.5
 10
68.0
 20
137.5
 10
74.0
 20
137.5
  0
ARC
  5
110A
100
AcDbEntity
  8
0
100
AcDbCircle
 10
48.676062
 20
103.773735
 30
0.0
 40
17.979753
100
AcDbArc
 50
31.250294
 51
76.749706
  0
ARC
  5
110B
100
AcDbEntity
  8
0
100
AcDbCircle
 10
71.0
 20
118.01257
 30
0.0
 40
8.51257
100
AcDbArc
 50
215.236426
 51
324.763574
  0
ARC
  5
110C
100
AcDbEntity
  8
0
100
AcDbCircle
 10
86.680478
 20
129.405104
 30
0.0
 40
8.51257
100
AcDbArc
 50
287.236426
 51
36.763574
  0
ARC
  5
110D
100
AcDbEntity
  8
0
100
AcDbCircle
 10
107.120891
 20
146.236389
 30
0.0
 40
17.979753
100
AcDbArc
 50
175.250294
 51
220.749706
  0
CIRCLE
  5
110E
100
AcDbEntity
  8
0
100
AcDbCircle
 10
71.0
 20
134.5
 30
0.0
 40
12.0
  0
LINE
  5
110F
100
AcDbEntity
  8
1
100
AcDbLine
 10
120.25
 20
53.5
 30
0.0
 11
145.25
 21
53.5
 31
0.0
  0
LINE
  5
1110
100
AcDbEntity
  8
0
100
AcDbLine
 10
141.5
 20
53.5
 30
0.0
 11
141.5
 21
65.5
 31
0.0
  0
LINE
  5
1111
100
AcDbEntity
  8
0
100
AcDbLine
 10
139.5
 20
78.5
 30
0.0
 11
126.5
 21
78.5
 31
0.0
  0
LINE
  5
1112
100
AcDbEntity
  8
0
100
AcDbLine
 10
123.5
 20
62.801471
 30
0.0
 11
123.5
 21
53.5
 31
0.0
  0
LINE
  5
1119
100
AcDbEntity
  8
2
100
AcDbLine
 10
123.5
 20
60.5
 30
0.0
 11
129.0
 21
60.5
 31
0.0
  0
LINE
  5
111A
100
AcDbEntity
  8
2
100
AcDbLine
 10
129.0
 20
60.5
 30
0.0
 11
129.0
 21
53.5
 31
0.0
  0
LINE
  5
111F
100
AcDbEntity
  8
2
100
AcDbLine
 10
141.5
 20
65.5
 30
0.0
 11
139.0
 21
65.5
 31
0.0
  0
LINE
  5
1120
100
AcDbEntity
  8
2
100
AcDbLine
 10
139.0
 20
65.5
 30
0.0
 11
139.0
 21
53.5
 31
0.0
  0
LINE
  5
1121
100
AcDbEntity
  8
2
100
AcDbLine
 10
129.0
 20
56.5
 30
0.0
 11
139.0
 21
56.5
 31
0.0
  0
ARC
  5
1122
100
AcDbEntity
  8
0
100
AcDbCircle
 10
181.75247
 20
60.041255
 30
0.0
 40
58.254277
100
AcDbArc
 50
161.526557
 51
179.548798
  0
ARC
  5
1123
100
AcDbEntity
  8
0
100
AcDbCircle
 10
71.783333
 20
61.428205
 30
0.0
 40
69.835472
100
AcDbArc
 50
3.342557
 51
14.149767
  0
ARC
  5
1124
100
AcDbEntity
  8
0
100
AcDbCircle
 10
164.540284
 20
46.908057
 30
0.0
 40
41.042313
100
AcDbArc
 50
180.569664
 51
202.050201
  0
LINE
  5
1125
100
AcDbEntity
  8
2
100
AcDbLine
 10
123.5
 20
46.5
 30
0.0
 11
129.0
 21
46.5
 31
0.0
  0
LINE
  5
1126
100
AcDbEntity
  8
0
100
AcDbLine
 10
123.5
 20
44.198529
 30
0.0
 11
123.5
 21
53.5
 31
0.0
  0
LINE
  5
1127
100
AcDbEntity
  8
0
100
AcDbLine
 10
141.5
 20
53.5
 30
0.0
 11
141.5
 21
41.5
 31
0.0
  0
LINE
  5
1128
100
AcDbEntity
  8
2
100
AcDbLine
 10
139.0
 20
41.5
 30
0.0
 11
139.0
 21
53.5
 31
0.0
  0
LINE
  5
1129
100
AcDbEntity
  8
2
100
AcDbLine
 10
129.0
 20
46.5
 30
0.0
 11
129.0
 21
53.5
 31
0.0
  0
LINE
  5
112A
100
AcDbEntity
  8
2
100
AcDbLine
 10
129.0
 20
50.5
 30
0.0
 11
139.0
 21
50.5
 31
0.0
  0
ARC
  5
112B
100
AcDbEntity
  8
0
100
AcDbCircle
 10
99.576876
 20
44.684625
 30
0.0
 40
42.043908
100
AcDbArc
 50
341.724177
 51
355.655958
  0
LINE
  5
112C
100
AcDbEntity
  8
2
100
AcDbLine
 10
141.5
 20
41.5
 30
0.0
 11
139.0
 21
41.5
 31
0.0
  0
LINE
  5
112D
100
AcDbEntity
  8
0
100
AcDbLine
 10
139.5
 20
31.5
 30
0.0
 11
126.5
 21
31.5
 31
0.0
  0
LINE
  5
112E
100
AcDbEntity
  8
0
100
AcDbLine
 10
127.25
 20
74.75
 30
0.0
 11
139.0
 21
74.75
 31
0.0
  0
LINE
  5
112F
100
AcDbEntity
  8
0
100
AcDbLine
 10
127.25
 20
66.5
 30
0.0
 11
139.0
 21
66.5
 31
0.0
  0
LINE
  5
1130
100
AcDbEntity
  8
0
100
AcDbLine
 10
127.25
 20
54.0
 30
0.0
 11
139.0
 21
54.0
 31
0.0
  0
LINE
  5
1131
100
AcDbEntity
  8
0
100
AcDbLine
 10
127.25
 20
38.75
 30
0.0
 11
139.0
 21
38.75
 31
0.0
  0
ARC
  5
1132
100
AcDbEntity
  8
0
100
AcDbCircle
 10
13.316265
 20
45.373494
 30
0.0
 40
126.944117
100
AcDbArc
 50
353.725715
 51
3.67038
  0
ARC
  5
1133
100
AcDbEntity
  8
0
100
AcDbCircle
 10
99.831897
 20
70.74569
 30
0.0
 40
40.418903
100
AcDbArc
 50
353.613925
 51
11.060687
  0
ARC
  5
1134
100
AcDbEntity
  8
0
100
AcDbCircle
 10
180.375
 20
59.875
 30
0.0
 40
40.875191
100
AcDbArc
 50
171.027373
 51
188.972627
  0
ARC
  5
1135
100
AcDbEntity
  8
0
100
AcDbCircle
 10
166.168103
 20
70.74569
 30
0.0
 40
40.418903
100
AcDbArc
 50
168.939313
 51
186.386075
  0
ARC
  5
1136
100
AcDbEntity
  8
0
100
AcDbCircle
 10
85.625
 20
59.875
 30
0.0
 40
40.875191
100
AcDbArc
 50
351.027373
 51
8.972627
  0
ARC
  5
1137
100
AcDbEntity
  8
0
100
AcDbCircle
 10
252.683735
 20
45.373494
 30
0.0
 40
126.944117
100
AcDbArc
 50
176.32962
 51
186.274285
  0
LINE
  5
1138
100
AcDbEntity
  8
2
100
AcDbLine
 10
129.0
 20
56.5
 30
0.0
 11
139.0
 21
50.5
 31
0.0
  0
LINE
  5
1139
100
AcDbEntity
  8
2
100
AcDbLine
 10
139.0
 20
56.5
 30
0.0
 11
129.0
 21
50.5
 31
0.0
  0
VIEWPORT
  5
22
100
AcDbEntity
 67
     1
  8
0
100
AcDbViewport
 10
261.517699
 20
148.5
 30
0.0
 40
523.035398
 41
297.0
 68
    -1
 69
     1
1001
ACAD
1000
MVIEW
1002
{
1070
    16
1010
0.0
1020
0.0
1030
0.0
1010
0.0
1020
0.0
1030
1.0
1040
0.0
1040
297.0
1040
261.517699
1040
148.5
1040
50.0
1040
0.0
1040
0.0
1070
     0
1070
   100
1070
     1
1070
     1
1070
     0
1070
     0
1070
     0
1070
     0
1040
0.0
1040
0.0
1040
0.0
1040
1.0
1040
1.0
1040
10.0
1040
10.0
1070
     0
1002
{
1002
}
1002
}
  0
ENDSEC
  0
SECTION
  2
OBJECTS
  0
DICTIONARY
  5
114F
100
AcDbDictionary
  3
ACAD_GROUP
350
1150
  3
ACAD_MLINESTYLE
350
115D
  3
ACDBVARIABLEDICTIONARY
350
1173
  0
DICTIONARY
  5
1150
102
{ACAD_REACTORS
330
114F
102
}
100
AcDbDictionary
  0
DICTIONARY
  5
115D
102
{ACAD_REACTORS
330
114F
102
}
100
AcDbDictionary
  3
STANDARD
350
115E
  0
DICTIONARY
  5
1173
102
{ACAD_REACTORS
330
114F
102
}
100
AcDbDictionary
  3
DIMADEC
350
1174
  0
MLINESTYLE
  5
115E
102
{ACAD_REACTORS
330
115D
102
}
100
AcDbMlineStyle
  2
STANDARD
 70
     0
  3

 62
   256
 51
90.0
 52
90.0
 71
     2
 49
0.5
 62
   256
  6
BYLAYER
 49
-0.5
 62
   256
  6
BYLAYER
  0
DICTIONARYVAR
  5
1174
102
{ACAD_REACTORS
330
1173
102
}
100
DictionaryVariables
280
     0
  1
0
  0
ENDSEC
  0
EOF
