  0
SECTION
  2
HEADER
  9
$ACADVER
  1
AC1014
  9
$ACADMAINTVER
 70
     0
  9
$DWGCODEPAGE
  3
ANSI_932
  9
$INSBASE
 10
0.0
 20
0.0
 30
0.0
  9
$EXTMIN
 10
-35.511406
 20
-35.0
 30
0.0
  9
$EXTMAX
 10
37.488594
 20
125.326733
 30
0.0
  9
$LIMMIN
 10
-31.5
 20
-35.0
  9
$LIMMAX
 10
31.5
 20
45.0
  9
$ORTHOMODE
 70
     0
  9
$REGENMODE
 70
     1
  9
$FILLMODE
 70
     1
  9
$QTEXTMODE
 70
     0
  9
$MIRRTEXT
 70
     1
  9
$DRAGMODE
 70
     2
  9
$LTSCALE
 40
1.0
  9
$OSMODE
 70
     0
  9
$ATTMODE
 70
     1
  9
$TEXTSIZE
 40
3.5
  9
$TRACEWID
 40
0.5
  9
$TEXTSTYLE
  7
STANDARD
  9
$CLAYER
  8
0
  9
$CELTYPE
  6
BYLAYER
  9
$CECOLOR
 62
   256
  9
$CELTSCALE
 40
1.0
  9
$DELOBJ
 70
     1
  9
$DISPSILH
 70
     0
  9
$DIMSCALE
 40
1.0
  9
$DIMASZ
 40
0.18
  9
$DIMEXO
 40
0.0625
  9
$DIMDLI
 40
0.38
  9
$DIMRND
 40
0.0
  9
$DIMDLE
 40
0.0
  9
$DIMEXE
 40
0.18
  9
$DIMTP
 40
0.0
  9
$DIMTM
 40
0.0
  9
$DIMTXT
 40
0.18
  9
$DIMCEN
 40
0.09
  9
$DIMTSZ
 40
0.0
  9
$DIMTOL
 70
     0
  9
$DIMLIM
 70
     0
  9
$DIMTIH
 70
     1
  9
$DIMTOH
 70
     1
  9
$DIMSE1
 70
     0
  9
$DIMSE2
 70
     0
  9
$DIMTAD
 70
     0
  9
$DIMZIN
 70
     0
  9
$DIMBLK
  1

  9
$DIMASO
 70
     1
  9
$DIMSHO
 70
     1
  9
$DIMPOST
  1

  9
$DIMAPOST
  1

  9
$DIMALT
 70
     0
  9
$DIMALTD
 70
     2
  9
$DIMALTF
 40
25.4
  9
$DIMLFAC
 40
1.0
  9
$DIMTOFL
 70
     0
  9
$DIMTVP
 40
0.0
  9
$DIMTIX
 70
     0
  9
$DIMSOXD
 70
     0
  9
$DIMSAH
 70
     0
  9
$DIMBLK1
  1

  9
$DIMBLK2
  1

  9
$DIMSTYLE
  2
STANDARD
  9
$DIMCLRD
 70
     0
  9
$DIMCLRE
 70
     0
  9
$DIMCLRT
 70
     0
  9
$DIMTFAC
 40
1.0
  9
$DIMGAP
 40
0.09
  9
$DIMJUST
 70
     0
  9
$DIMSD1
 70
     0
  9
$DIMSD2
 70
     0
  9
$DIMTOLJ
 70
     1
  9
$DIMTZIN
 70
     0
  9
$DIMALTZ
 70
     0
  9
$DIMALTTZ
 70
     0
  9
$DIMFIT
 70
     3
  9
$DIMUPT
 70
     0
  9
$DIMUNIT
 70
     2
  9
$DIMDEC
 70
     4
  9
$DIMTDEC
 70
     4
  9
$DIMALTU
 70
     2
  9
$DIMALTTD
 70
     2
  9
$DIMTXSTY
  7
STANDARD
  9
$DIMAUNIT
 70
     0
  9
$LUNITS
 70
     2
  9
$LUPREC
 70
     4
  9
$SKETCHINC
 40
0.1
  9
$FILLETRAD
 40
2.0
  9
$AUNITS
 70
     0
  9
$AUPREC
 70
     0
  9
$MENU
  1
ACAD
  9
$ELEVATION
 40
0.0
  9
$PELEVATION
 40
0.0
  9
$THICKNESS
 40
0.0
  9
$LIMCHECK
 70
     0
  9
$BLIPMODE
 70
     1
  9
$CHAMFERA
 40
0.0
  9
$CHAMFERB
 40
0.0
  9
$CHAMFERC
 40
0.0
  9
$CHAMFERD
 40
0.0
  9
$SKPOLY
 70
     0
  9
$TDCREATE
 40
0.0000000000
  9
$TDUPDATE
 40
2453553.604627812
  9
$TDINDWG
 40
0.0008624421
  9
$TDUSRTIMER
 40
0.0008624421
  9
$USRTIMER
 70
     1
  9
$ANGBASE
 50
0.0
  9
$ANGDIR
 70
     0
  9
$PDMODE
 70
     0
  9
$PDSIZE
 40
0.0
  9
$PLINEWID
 40
0.0
  9
$COORDS
 70
     2
  9
$SPLFRAME
 70
     0
  9
$SPLINETYPE
 70
     6
  9
$SPLINESEGS
 70
     8
  9
$ATTDIA
 70
     0
  9
$ATTREQ
 70
     1
  9
$HANDLING
 70
     1
  9
$HANDSEED
  5
70
  9
$SURFTAB1
 70
     6
  9
$SURFTAB2
 70
     6
  9
$SURFTYPE
 70
     6
  9
$SURFU
 70
     6
  9
$SURFV
 70
     6
  9
$UCSNAME
  2

  9
$UCSORG
 10
0.0
 20
0.0
 30
0.0
  9
$UCSXDIR
 10
1.0
 20
0.0
 30
0.0
  9
$UCSYDIR
 10
0.0
 20
1.0
 30
0.0
  9
$PUCSNAME
  2

  9
$PUCSORG
 10
0.0
 20
0.0
 30
0.0
  9
$PUCSXDIR
 10
1.0
 20
0.0
 30
0.0
  9
$PUCSYDIR
 10
0.0
 20
1.0
 30
0.0
  9
$USERI1
 70
     0
  9
$USERI2
 70
     0
  9
$USERI3
 70
     0
  9
$USERI4
 70
     0
  9
$USERI5
 70
     0
  9
$USERR1
 40
0.0
  9
$USERR2
 40
0.0
  9
$USERR3
 40
0.0
  9
$USERR4
 40
0.0
  9
$USERR5
 40
0.0
  9
$WORLDVIEW
 70
     1
  9
$SHADEDGE
 70
     3
  9
$SHADEDIF
 70
    70
  9
$TILEMODE
 70
     1
  9
$MAXACTVP
 70
    48
  9
$PINSBASE
 10
0.0
 20
0.0
 30
0.0
  9
$PLIMCHECK
 70
     0
  9
$PEXTMIN
 10
1.000000E+20
 20
1.000000E+20
 30
1.000000E+20
  9
$PEXTMAX
 10
-1.000000E+20
 20
-1.000000E+20
 30
-1.000000E+20
  9
$PLIMMIN
 10
0.0
 20
0.0
  9
$PLIMMAX
 10
12.0
 20
9.0
  9
$UNITMODE
 70
     0
  9
$VISRETAIN
 70
     1
  9
$PLINEGEN
 70
     0
  9
$PSLTSCALE
 70
     1
  9
$TREEDEPTH
 70
  3020
  9
$PICKSTYLE
 70
     1
  9
$CMLSTYLE
  2
STANDARD
  9
$CMLJUST
 70
     0
  9
$CMLSCALE
 40
1.0
  9
$PROXYGRAPHICS
 70
     1
  9
$MEASUREMENT
 70
     0
  0
ENDSEC
  0
SECTION
  2
CLASSES
  0
ENDSEC
  0
SECTION
  2
TABLES
  0
TABLE
  2
VPORT
  5
8
100
AcDbSymbolTable
 70
     2
  0
VPORT
  5
6F
100
AcDbSymbolTableRecord
100
AcDbViewportTableRecord
  2
*ACTIVE
 70
     0
 10
0.0
 20
0.0
 11
1.0
 21
1.0
 12
25.89777
 22
5.0
 13
0.0
 23
0.0
 14
1.0
 24
1.0
 15
0.0
 25
0.0
 16
0.0
 26
0.0
 36
1.0
 17
0.0
 27
0.0
 37
0.0
 40
320.0
 41
1.434944
 42
50.0
 43
0.0
 44
0.0
 50
0.0
 51
0.0
 71
     0
 72
   100
 73
     1
 74
     1
 75
     0
 76
     0
 77
     0
 78
     0
  0
ENDTAB
  0
TABLE
  2
LTYPE
  5
5
100
AcDbSymbolTable
 70
     9
  0
LTYPE
  5
12
100
AcDbSymbolTableRecord
100
AcDbLinetypeTableRecord
  2
BYBLOCK
 70
     0
  3

 72
    65
 73
     0
 40
0.0
  0
LTYPE
  5
13
100
AcDbSymbolTableRecord
100
AcDbLinetypeTableRecord
  2
BYLAYER
 70
     0
  3

 72
    65
 73
     0
 40
0.0
  0
LTYPE
  5
14
100
AcDbSymbolTableRecord
100
AcDbLinetypeTableRecord
  2
CONTINUOUS
 70
     0
  3
Solid line
 72
    65
 73
     0
 40
0.0
  0
LTYPE
  5
1F
100
AcDbSymbolTableRecord
100
AcDbLinetypeTableRecord
  2
BORDER
 70
     0
  3
__ __ . __ __ .
 72
    65
 73
     6
 40
3.684211
 49
1.052632
 74
     0
 49
-0.526316
 74
     0
 49
1.052632
 74
     0
 49
-0.526316
 74
     0
 49
0.0
 74
     0
 49
-0.526316
 74
     0
  0
LTYPE
  5
20
100
AcDbSymbolTableRecord
100
AcDbLinetypeTableRecord
  2
CENTER
 70
     0
  3
____ _ ____ _
 72
    65
 73
     4
 40
4.210526
 49
2.631579
 74
     0
 49
-0.526316
 74
     0
 49
0.526316
 74
     0
 49
-0.526316
 74
     0
  0
LTYPE
  5
21
100
AcDbSymbolTableRecord
100
AcDbLinetypeTableRecord
  2
DASHDOT
 70
     0
  3
__ . __ . __ .
 72
    65
 73
     4
 40
2.105263
 49
1.052632
 74
     0
 49
-0.526316
 74
     0
 49
0.0
 74
     0
 49
-0.526316
 74
     0
  0
LTYPE
  5
22
100
AcDbSymbolTableRecord
100
AcDbLinetypeTableRecord
  2
DASHED
 70
     0
  3
__ __ __ __ __
 72
    65
 73
     2
 40
1.578947
 49
1.052632
 74
     0
 49
-0.526316
 74
     0
  0
LTYPE
  5
23
100
AcDbSymbolTableRecord
100
AcDbLinetypeTableRecord
  2
DIVIDE
 70
     0
  3
__ . . __ . . 
 72
    65
 73
     6
 40
2.631579
 49
1.052632
 74
     0
 49
-0.526316
 74
     0
 49
0.0
 74
     0
 49
-0.526316
 74
     0
 49
0.0
 74
     0
 49
-0.526316
 74
     0
  0
LTYPE
  5
24
100
AcDbSymbolTableRecord
100
AcDbLinetypeTableRecord
  2
DOT
 70
     0
  3
..............
 72
    65
 73
     4
 40
1.052632
 49
0.0
 74
     0
 49
-0.526316
 74
     0
 49
0.0
 74
     0
 49
-0.526316
 74
     0
  0
LTYPE
  5
25
100
AcDbSymbolTableRecord
100
AcDbLinetypeTableRecord
  2
HIDDEN
 70
     0
  3
_ _ _ _ _ _ _
 72
    65
 73
     2
 40
0.789474
 49
0.526316
 74
     0
 49
-0.263158
 74
     0
  0
LTYPE
  5
26
100
AcDbSymbolTableRecord
100
AcDbLinetypeTableRecord
  2
PHANTOM
 70
     0
  3
_____ _ _ _____ _ _ 
 72
    65
 73
     6
 40
5.263158
 49
2.631579
 74
     0
 49
-0.526316
 74
     0
 49
0.526316
 74
     0
 49
-0.526316
 74
     0
 49
0.526316
 74
     0
 49
-0.526316
 74
     0
  0
ENDTAB
  0
TABLE
  2
LAYER
  5
2
100
AcDbSymbolTable
 70
     4
  0
LAYER
  5
E
100
AcDbSymbolTableRecord
100
AcDbLayerTableRecord
  2
0
 70
     0
 62
     7
  6
CONTINUOUS
  0
LAYER
  5
27
100
AcDbSymbolTableRecord
100
AcDbLayerTableRecord
  2
HALDER_NORMTEILE
 70
     0
 62
     7
  6
CONTINUOUS
  0
LAYER
  5
28
100
AcDbSymbolTableRecord
100
AcDbLayerTableRecord
  2
HALDER_NORMTEILE_MITTELLINIE
 70
     0
 62
     7
  6
CONTINUOUS
  0
LAYER
  5
29
100
AcDbSymbolTableRecord
100
AcDbLayerTableRecord
  2
HALDER_INFO
 70
     0
 62
     7
  6
CONTINUOUS
  0
ENDTAB
  0
TABLE
  2
STYLE
  5
3
100
AcDbSymbolTable
 70
     4
  0
STYLE
  5
F
100
AcDbSymbolTableRecord
100
AcDbTextStyleTableRecord
  2
STANDARD
 70
     0
 40
0.0
 41
1.0
 50
0.0
 71
     0
 42
3.5
  3
txt
  4

  0
STYLE
  5
2A
100
AcDbSymbolTableRecord
100
AcDbTextStyleTableRecord
  2
SIMPLEX
 70
     0
 40
0.0
 41
1.0
 50
0.0
 71
     0
 42
3.5
  3
simplex
  4

  0
STYLE
  5
2B
100
AcDbSymbolTableRecord
100
AcDbTextStyleTableRecord
  2
COMPLEX
 70
     0
 40
0.0
 41
1.0
 50
0.0
 71
     0
 42
3.5
  3
complex
  4

  0
STYLE
  5
2C
100
AcDbSymbolTableRecord
100
AcDbTextStyleTableRecord
  2
ITALIC
 70
     0
 40
0.0
 41
1.0
 50
0.0
 71
     0
 42
3.5
  3
italic
  4

  0
ENDTAB
  0
TABLE
  2
VIEW
  5
6
100
AcDbSymbolTable
 70
     0
  0
ENDTAB
  0
TABLE
  2
UCS
  5
7
100
AcDbSymbolTable
 70
     0
  0
ENDTAB
  0
TABLE
  2
APPID
  5
9
100
AcDbSymbolTable
 70
     1
  0
APPID
  5
10
100
AcDbSymbolTableRecord
100
AcDbRegAppTableRecord
  2
ACAD
 70
     0
  0
ENDTAB
  0
TABLE
  2
DIMSTYLE
  5
A
100
AcDbSymbolTable
 70
     1
  0
DIMSTYLE
105
54
100
AcDbSymbolTableRecord
100
AcDbDimStyleTableRecord
  2
STANDARD
 70
     0
  3

  4

  5

  6

  7

 40
1.0
 41
0.18
 42
0.0625
 43
0.38
 44
0.18
 45
0.0
 46
0.0
 47
0.0
 48
0.0
140
0.18
141
0.09
142
0.0
143
25.4
144
1.0
145
0.0
146
1.0
147
0.09
 71
     0
 72
     0
 73
     1
 74
     1
 75
     0
 76
     0
 77
     0
 78
     0
170
     0
171
     2
172
     0
173
     0
174
     0
175
     0
176
     0
177
     0
178
     0
270
     2
271
     4
272
     4
273
     2
274
     2
340
F
275
     0
280
     0
281
     0
282
     0
283
     1
284
     0
285
     0
286
     0
287
     3
288
     0
  0
ENDTAB
  0
TABLE
  2
BLOCK_RECORD
  5
1
100
AcDbSymbolTable
 70
     1
  0
BLOCK_RECORD
  5
18
100
AcDbSymbolTableRecord
100
AcDbBlockTableRecord
  2
*MODEL_SPACE
  0
BLOCK_RECORD
  5
15
100
AcDbSymbolTableRecord
100
AcDbBlockTableRecord
  2
*PAPER_SPACE
  0
BLOCK_RECORD
  5
55
100
AcDbSymbolTableRecord
100
AcDbBlockTableRecord
  2
A$C19D453AA
  0
ENDTAB
  0
ENDSEC
  0
SECTION
  2
BLOCKS
  0
BLOCK
  5
19
100
AcDbEntity
  8
0
100
AcDbBlockBegin
  2
*MODEL_SPACE
 70
     0
 10
0.0
 20
0.0
 30
0.0
  3
*MODEL_SPACE
  1

  0
ENDBLK
  5
1A
100
AcDbEntity
  8
0
100
AcDbBlockEnd
  0
BLOCK
  5
16
100
AcDbEntity
 67
     1
  8
0
100
AcDbBlockBegin
  2
*PAPER_SPACE
 70
     0
 10
0.0
 20
0.0
 30
0.0
  3
*PAPER_SPACE
  1

  0
ENDBLK
  5
17
100
AcDbEntity
 67
     1
  8
0
100
AcDbBlockEnd
  0
BLOCK
  5
6C
100
AcDbEntity
  8
0
100
AcDbBlockBegin
  2
A$C19D453AA
 70
     0
 10
0.0
 20
0.0
 30
0.0
  3
A$C19D453AA
  1

  0
CIRCLE
  5
56
100
AcDbEntity
  8
HALDER_NORMTEILE
  6
DASHED
 62
     3
100
AcDbCircle
 10
36.5
 20
36.5
 30
0.0
 40
15.0
  0
CIRCLE
  5
57
100
AcDbEntity
  8
HALDER_NORMTEILE
  6
DASHED
 62
     3
100
AcDbCircle
 10
36.5
 20
36.5
 30
0.0
 40
4.25
  0
CIRCLE
  5
58
100
AcDbEntity
  8
HALDER_NORMTEILE
  6
DASHED
 62
     3
100
AcDbCircle
 10
36.5
 20
36.5
 30
0.0
 40
12.5
  0
ARC
  5
59
100
AcDbEntity
  8
HALDER_NORMTEILE
 62
     7
100
AcDbCircle
 10
36.5
 20
63.0
 30
0.0
 40
5.0
100
AcDbArc
 50
358.887284
 51
90.0
  0
ARC
  5
5A
100
AcDbEntity
  8
HALDER_NORMTEILE
 62
     7
100
AcDbCircle
 10
36.5
 20
10.0
 30
0.0
 40
5.0
100
AcDbArc
 50
270.0
 51
1.112716
  0
ARC
  5
5B
100
AcDbEntity
  8
HALDER_NORMTEILE
  6
DASHED
 62
     3
100
AcDbCircle
 10
36.5
 20
36.5
 30
0.0
 40
5.0
100
AcDbArc
 50
170.0
 51
100.0
  0
LINE
  5
5C
100
AcDbEntity
  8
HALDER_NORMTEILE_MITTELLINIE
  6
DASHDOT
 62
     2
100
AcDbLine
 10
0.0
 20
36.5
 30
0.0
 11
73.0
 21
36.5
 31
0.0
  0
ARC
  5
5D
100
AcDbEntity
  8
HALDER_NORMTEILE
 62
     7
100
AcDbCircle
 10
10.0
 20
36.5
 30
0.0
 40
5.0
100
AcDbArc
 50
88.887284
 51
180.0
  0
LINE
  5
5E
100
AcDbEntity
  8
HALDER_NORMTEILE_MITTELLINIE
  6
DASHDOT
 62
     2
100
AcDbLine
 10
36.5
 20
0.0
 30
0.0
 11
36.5
 21
73.0
 31
0.0
  0
ARC
  5
5F
100
AcDbEntity
  8
HALDER_NORMTEILE
 62
     7
100
AcDbCircle
 10
10.504903
 20
10.504903
 30
0.0
 40
21.0
100
AcDbArc
 50
45.0
 51
91.112716
  0
ARC
  5
60
100
AcDbEntity
  8
HALDER_NORMTEILE
 62
     7
100
AcDbCircle
 10
10.0
 20
36.5
 30
0.0
 40
5.0
100
AcDbArc
 50
180.0
 51
271.112716
  0
ARC
  5
61
100
AcDbEntity
  8
HALDER_NORMTEILE
 62
     7
100
AcDbCircle
 10
10.504903
 20
10.504903
 30
0.0
 40
21.0
100
AcDbArc
 50
358.887284
 51
45.0
  0
ARC
  5
62
100
AcDbEntity
  8
HALDER_NORMTEILE
 62
     7
100
AcDbCircle
 10
36.5
 20
10.0
 30
0.0
 40
5.0
100
AcDbArc
 50
178.887284
 51
270.0
  0
ARC
  5
63
100
AcDbEntity
  8
HALDER_NORMTEILE
 62
     7
100
AcDbCircle
 10
10.504903
 20
62.495097
 30
0.0
 40
21.0
100
AcDbArc
 50
268.887284
 51
315.0
  0
ARC
  5
64
100
AcDbEntity
  8
HALDER_NORMTEILE
 62
     7
100
AcDbCircle
 10
10.504903
 20
62.495097
 30
0.0
 40
21.0
100
AcDbArc
 50
315.0
 51
1.112716
  0
ARC
  5
65
100
AcDbEntity
  8
HALDER_NORMTEILE
 62
     7
100
AcDbCircle
 10
36.5
 20
63.0
 30
0.0
 40
5.0
100
AcDbArc
 50
90.0
 51
181.112716
  0
ARC
  5
66
100
AcDbEntity
  8
HALDER_NORMTEILE
 62
     7
100
AcDbCircle
 10
63.0
 20
36.5
 30
0.0
 40
5.0
100
AcDbArc
 50
0.0
 51
91.112716
  0
ARC
  5
67
100
AcDbEntity
  8
HALDER_NORMTEILE
 62
     7
100
AcDbCircle
 10
62.495097
 20
10.504903
 30
0.0
 40
21.0
100
AcDbArc
 50
88.887284
 51
135.0
  0
ARC
  5
68
100
AcDbEntity
  8
HALDER_NORMTEILE
 62
     7
100
AcDbCircle
 10
62.495097
 20
10.504903
 30
0.0
 40
21.0
100
AcDbArc
 50
135.0
 51
181.112716
  0
ARC
  5
69
100
AcDbEntity
  8
HALDER_NORMTEILE
 62
     7
100
AcDbCircle
 10
63.0
 20
36.5
 30
0.0
 40
5.0
100
AcDbArc
 50
268.887284
 51
0.0
  0
ARC
  5
6A
100
AcDbEntity
  8
HALDER_NORMTEILE
 62
     7
100
AcDbCircle
 10
62.495097
 20
62.495097
 30
0.0
 40
21.0
100
AcDbArc
 50
225.0
 51
271.112716
  0
ARC
  5
6B
100
AcDbEntity
  8
HALDER_NORMTEILE
 62
     7
100
AcDbCircle
 10
62.495097
 20
62.495097
 30
0.0
 40
21.0
100
AcDbArc
 50
178.887284
 51
225.0
  0
ENDBLK
  5
6D
100
AcDbEntity
  8
0
100
AcDbBlockEnd
  0
ENDSEC
  0
SECTION
  2
ENTITIES
  0
LINE
  5
30
100
AcDbEntity
  8
HALDER_NORMTEILE_MITTELLINIE
  6
DASHDOT
 62
     2
100
AcDbLine
 10
0.0
 20
45.0
 30
0.0
 11
0.0
 21
-35.0
 31
0.0
  0
LINE
  5
31
100
AcDbEntity
  8
HALDER_NORMTEILE
 62
     7
100
AcDbLine
 10
5.0
 20
0.0
 30
0.0
 11
5.0
 21
-29.25
 31
0.0
  0
LINE
  5
32
100
AcDbEntity
  8
HALDER_NORMTEILE
 62
     7
100
AcDbLine
 10
5.0
 20
-29.25
 30
0.0
 11
4.25
 21
-30.0
 31
0.0
  0
LINE
  5
33
100
AcDbEntity
  8
HALDER_NORMTEILE
 62
     7
100
AcDbLine
 10
4.25
 20
-30.0
 30
0.0
 11
0.0
 21
-30.0
 31
0.0
  0
LINE
  5
34
100
AcDbEntity
  8
HALDER_NORMTEILE
 62
     7
100
AcDbLine
 10
5.0
 20
-29.25
 30
0.0
 11
0.0
 21
-29.25
 31
0.0
  0
LINE
  5
35
100
AcDbEntity
  8
HALDER_NORMTEILE
 62
     2
100
AcDbLine
 10
4.25
 20
0.0
 30
0.0
 11
4.25
 21
-30.0
 31
0.0
  0
LINE
  5
36
100
AcDbEntity
  8
HALDER_NORMTEILE
 62
     7
100
AcDbLine
 10
-5.0
 20
-29.25
 30
0.0
 11
-5.0
 21
0.0
 31
0.0
  0
LINE
  5
37
100
AcDbEntity
  8
HALDER_NORMTEILE
 62
     7
100
AcDbLine
 10
-4.25
 20
-30.0
 30
0.0
 11
-5.0
 21
-29.25
 31
0.0
  0
LINE
  5
38
100
AcDbEntity
  8
HALDER_NORMTEILE
 62
     7
100
AcDbLine
 10
0.0
 20
-30.0
 30
0.0
 11
-4.25
 21
-30.0
 31
0.0
  0
LINE
  5
39
100
AcDbEntity
  8
HALDER_NORMTEILE
 62
     7
100
AcDbLine
 10
0.0
 20
-29.25
 30
0.0
 11
-5.0
 21
-29.25
 31
0.0
  0
LINE
  5
3A
100
AcDbEntity
  8
HALDER_NORMTEILE
 62
     2
100
AcDbLine
 10
-4.25
 20
-30.0
 30
0.0
 11
-4.25
 21
0.0
 31
0.0
  0
LINE
  5
3B
100
AcDbEntity
  8
HALDER_NORMTEILE
 62
     7
100
AcDbLine
 10
6.3
 20
33.537405
 30
0.0
 11
6.3
 21
25.0
 31
0.0
  0
LINE
  5
3C
100
AcDbEntity
  8
HALDER_NORMTEILE
 62
     7
100
AcDbLine
 10
-6.3
 20
25.0
 30
0.0
 11
-6.3
 21
33.537405
 31
0.0
  0
LINE
  5
3D
100
AcDbEntity
  8
HALDER_NORMTEILE
 62
     7
100
AcDbLine
 10
-12.5
 20
25.0
 30
0.0
 11
12.5
 21
25.0
 31
0.0
  0
LINE
  5
3E
100
AcDbEntity
  8
HALDER_NORMTEILE
 62
     7
100
AcDbLine
 10
-15.0
 20
4.0
 30
0.0
 11
15.0
 21
4.0
 31
0.0
  0
LINE
  5
3F
100
AcDbEntity
  8
HALDER_NORMTEILE
 62
     7
100
AcDbLine
 10
31.5
 20
26.5
 30
0.0
 11
31.5
 21
33.537405
 31
0.0
  0
LINE
  5
40
100
AcDbEntity
  8
HALDER_NORMTEILE
 62
     7
100
AcDbLine
 10
12.5
 20
25.0
 30
0.0
 11
30.0
 21
25.0
 31
0.0
  0
LINE
  5
41
100
AcDbEntity
  8
HALDER_NORMTEILE
 62
     7
100
AcDbLine
 10
12.5
 20
6.5
 30
0.0
 11
12.5
 21
25.0
 31
0.0
  0
LINE
  5
42
100
AcDbEntity
  8
HALDER_NORMTEILE
 62
     7
100
AcDbLine
 10
-31.5
 20
26.5
 30
0.0
 11
-31.5
 21
33.537405
 31
0.0
  0
LINE
  5
43
100
AcDbEntity
  8
HALDER_NORMTEILE
 62
     7
100
AcDbLine
 10
-12.5
 20
25.0
 30
0.0
 11
-30.0
 21
25.0
 31
0.0
  0
LINE
  5
44
100
AcDbEntity
  8
HALDER_NORMTEILE
 62
     7
100
AcDbLine
 10
-12.5
 20
6.5
 30
0.0
 11
-12.5
 21
25.0
 31
0.0
  0
LINE
  5
45
100
AcDbEntity
  8
HALDER_NORMTEILE
 62
     7
100
AcDbLine
 10
12.5
 20
13.5
 30
0.0
 11
12.5
 21
6.5
 31
0.0
  0
LINE
  5
46
100
AcDbEntity
  8
HALDER_NORMTEILE
 62
     7
100
AcDbLine
 10
-12.5
 20
13.5
 30
0.0
 11
12.5
 21
13.5
 31
0.0
  0
LINE
  5
47
100
AcDbEntity
  8
HALDER_NORMTEILE
 62
     7
100
AcDbLine
 10
-12.5
 20
6.5
 30
0.0
 11
-12.5
 21
13.5
 31
0.0
  0
LINE
  5
48
100
AcDbEntity
  8
HALDER_NORMTEILE
 62
     7
100
AcDbLine
 10
15.0
 20
0.0
 30
0.0
 11
15.0
 21
4.0
 31
0.0
  0
LINE
  5
49
100
AcDbEntity
  8
HALDER_NORMTEILE
 62
     7
100
AcDbLine
 10
-15.0
 20
0.0
 30
0.0
 11
15.0
 21
0.0
 31
0.0
  0
LINE
  5
4A
100
AcDbEntity
  8
HALDER_NORMTEILE
 62
     7
100
AcDbLine
 10
-15.0
 20
4.0
 30
0.0
 11
-15.0
 21
0.0
 31
0.0
  0
ARC
  5
4B
100
AcDbEntity
  8
HALDER_NORMTEILE
 62
     7
100
AcDbCircle
 10
18.9
 20
-11.715992
 30
0.0
 40
46.97478
100
AcDbArc
 50
74.441089
 51
105.558911
  0
ARC
  5
4C
100
AcDbEntity
  8
HALDER_NORMTEILE
 62
     7
100
AcDbCircle
 10
-18.9
 20
-11.715992
 30
0.0
 40
46.97478
100
AcDbArc
 50
74.441089
 51
105.558911
  0
ARC
  5
4D
100
AcDbEntity
  8
HALDER_NORMTEILE
 62
     7
100
AcDbCircle
 10
0.0
 20
22.062237
 30
0.0
 40
13.090817
100
AcDbArc
 50
61.232705
 51
118.767295
  0
ARC
  5
4E
100
AcDbEntity
  8
HALDER_NORMTEILE
 62
     7
100
AcDbCircle
 10
0.0
 20
-40.0
 30
0.0
 40
80.0
100
AcDbArc
 50
66.811962
 51
113.188038
  0
ARC
  5
4F
100
AcDbEntity
  8
HALDER_NORMTEILE
 62
     7
100
AcDbCircle
 10
15.0
 20
6.5
 30
0.0
 40
2.5
100
AcDbArc
 50
180.0
 51
270.0
  0
ARC
  5
50
100
AcDbEntity
  8
HALDER_NORMTEILE
 62
     7
100
AcDbCircle
 10
-15.0
 20
6.5
 30
0.0
 40
2.5
100
AcDbArc
 50
270.0
 51
0.0
  0
ARC
  5
51
100
AcDbEntity
  8
HALDER_NORMTEILE
 62
     7
100
AcDbCircle
 10
30.0
 20
26.5
 30
0.0
 40
1.5
100
AcDbArc
 50
270.0
 51
0.0
  0
ARC
  5
52
100
AcDbEntity
  8
HALDER_NORMTEILE
 62
     7
100
AcDbCircle
 10
-30.0
 20
26.5
 30
0.0
 40
1.5
100
AcDbArc
 50
180.0
 51
270.0
  0
INSERT
  5
6E
100
AcDbEntity
  8
0
100
AcDbBlockReference
  2
A$C19D453AA
 10
-35.511406
 20
52.326733
 30
0.0
  0
ENDSEC
  0
SECTION
  2
OBJECTS
  0
DICTIONARY
  5
C
100
AcDbDictionary
  3
ACAD_GROUP
350
D
  3
ACAD_MLINESTYLE
350
1B
  0
DICTIONARY
  5
D
102
{ACAD_REACTORS
330
C
102
}
100
AcDbDictionary
  0
DICTIONARY
  5
1B
102
{ACAD_REACTORS
330
C
102
}
100
AcDbDictionary
  3
STANDARD
350
1C
  0
MLINESTYLE
  5
1C
102
{ACAD_REACTORS
330
1B
102
}
100
AcDbMlineStyle
  2
STANDARD
 70
     0
  3

 62
   256
 51
90.0
 52
90.0
 71
     2
 49
0.5
 62
   256
  6
BYLAYER
 49
-0.5
 62
   256
  6
BYLAYER
  0
ENDSEC
  0
EOF
